  0
SECTION
  2
HEADER
  9
$ACADVER
  1
AC1009
  9
$INSBASE
 10
0.0
 20
0.0
 30
0.0
  9
$EXTMIN
 10
-0.0102319236016371
 20
-1.4802182810368341
 30
0.0
  9
$EXTMAX
 10
310.0
 20
220.0
 30
0.0
  9
$LIMMIN
 10
0.0
 20
0.0
  9
$LIMMAX
 10
385.0
 20
270.0
  9
$ORTHOMODE
 70
     1
  9
$REGENMODE
 70
     1
  9
$FILLMODE
 70
     1
  9
$QTEXTMODE
 70
     0
  9
$MIRRTEXT
 70
     0
  9
$DRAGMODE
 70
     2
  9
$LTSCALE
 40
10.0
  9
$OSMODE
 70
    37
  9
$ATTMODE
 70
     1
  9
$TEXTSIZE
 40
4.000000000000048
  9
$TRACEWID
 40
0.05
  9
$TEXTSTYLE
  7
STANDARD
  9
$CLAYER
  8
0
  9
$CELTYPE
  6
BYLAYER
  9
$CECOLOR
 62
   256
  9
$DIMSCALE
 40
1.0
  9
$DIMASZ
 40
3.0
  9
$DIMEXO
 40
2.0
  9
$DIMDLI
 40
0.38
  9
$DIMRND
 40
0.0
  9
$DIMDLE
 40
0.0
  9
$DIMEXE
 40
2.0
  9
$DIMTP
 40
0.0
  9
$DIMTM
 40
0.0
  9
$DIMTXT
 40
3.0
  9
$DIMCEN
 40
0.0
  9
$DIMTSZ
 40
0.0
  9
$DIMTOL
 70
     0
  9
$DIMLIM
 70
     0
  9
$DIMTIH
 70
     0
  9
$DIMTOH
 70
     0
  9
$DIMSE1
 70
     0
  9
$DIMSE2
 70
     0
  9
$DIMTAD
 70
     1
  9
$DIMZIN
 70
     0
  9
$DIMBLK
  1

  9
$DIMASO
 70
     1
  9
$DIMSHO
 70
     0
  9
$DIMPOST
  1

  9
$DIMAPOST
  1

  9
$DIMALT
 70
     0
  9
$DIMALTD
 70
     2
  9
$DIMALTF
 40
25.399999999999999
  9
$DIMLFAC
 40
1.0
  9
$DIMTOFL
 70
     1
  9
$DIMTVP
 40
1.6000000000000001
  9
$DIMTIX
 70
     1
  9
$DIMSOXD
 70
     0
  9
$DIMSAH
 70
     0
  9
$DIMBLK1
  1

  9
$DIMBLK2
  1

  9
$DIMSTYLE
  2
STANDARD
  9
$DIMCLRD
 70
     0
  9
$DIMCLRE
 70
     0
  9
$DIMCLRT
 70
     0
  9
$DIMTFAC
 40
1.0
  9
$DIMGAP
 40
1.0
  9
$LUNITS
 70
     2
  9
$LUPREC
 70
     4
  9
$SKETCHINC
 40
0.1
  9
$FILLETRAD
 40
0.2
  9
$AUNITS
 70
     0
  9
$AUPREC
 70
     4
  9
$MENU
  1
E:\r13\win\SUPPORT\ACAD
  9
$ELEVATION
 40
0.0
  9
$PELEVATION
 40
0.0
  9
$THICKNESS
 40
0.0
  9
$LIMCHECK
 70
     0
  9
$BLIPMODE
 70
     0
  9
$CHAMFERA
 40
0.0
  9
$CHAMFERB
 40
0.0
  9
$SKPOLY
 70
     0
  9
$TDCREATE
 40
2450280.598206134
  9
$TDUPDATE
 40
2458820.7243797458
  9
$TDINDWG
 40
0.2316966667
  9
$TDUSRTIMER
 40
0.2316966667
  9
$USRTIMER
 70
     1
  9
$ANGBASE
 50
0.0
  9
$ANGDIR
 70
     0
  9
$PDMODE
 70
     0
  9
$PDSIZE
 40
0.0
  9
$PLINEWID
 40
0.0
  9
$COORDS
 70
     1
  9
$SPLFRAME
 70
     0
  9
$SPLINETYPE
 70
     6
  9
$SPLINESEGS
 70
     8
  9
$ATTDIA
 70
     0
  9
$ATTREQ
 70
     1
  9
$HANDLING
 70
     1
  9
$HANDSEED
  5
231A
  9
$SURFTAB1
 70
     6
  9
$SURFTAB2
 70
     6
  9
$SURFTYPE
 70
     6
  9
$SURFU
 70
     6
  9
$SURFV
 70
     6
  9
$UCSNAME
  2

  9
$UCSORG
 10
0.0
 20
0.0
 30
0.0
  9
$UCSXDIR
 10
1.0
 20
0.0
 30
0.0
  9
$UCSYDIR
 10
0.0
 20
1.0
 30
0.0
  9
$PUCSNAME
  2

  9
$PUCSORG
 10
0.0
 20
0.0
 30
0.0
  9
$PUCSXDIR
 10
1.0
 20
0.0
 30
0.0
  9
$PUCSYDIR
 10
0.0
 20
1.0
 30
0.0
  9
$USERI1
 70
     3
  9
$USERI2
 70
     1
  9
$USERI3
 70
     1
  9
$USERI4
 70
     0
  9
$USERI5
 70
     0
  9
$USERR1
 40
1.0
  9
$USERR2
 40
3.0
  9
$USERR3
 40
3.0
  9
$USERR4
 40
3.0
  9
$USERR5
 40
10.0
  9
$WORLDVIEW
 70
     1
  9
$SHADEDGE
 70
     3
  9
$SHADEDIF
 70
    70
  9
$TILEMODE
 70
     1
  9
$MAXACTVP
 70
    16
  9
$PLIMCHECK
 70
     0
  9
$PEXTMIN
 10
1.0000000000000000E+020
 20
1.0000000000000000E+020
 30
1.0000000000000000E+020
  9
$PEXTMAX
 10
-1.0000000000000000E+020
 20
-1.0000000000000000E+020
 30
-1.0000000000000000E+020
  9
$PLIMMIN
 10
0.0
 20
0.0
  9
$PLIMMAX
 10
12.0
 20
9.0
  9
$UNITMODE
 70
     0
  9
$VISRETAIN
 70
     0
  9
$PLINEGEN
 70
     0
  9
$PSLTSCALE
 70
     0
  0
ENDSEC
  0
SECTION
  2
TABLES
  0
TABLE
  2
VPORT
 70
     1
  0
VPORT
  2
*ACTIVE
 70
     0
 10
0.0
 20
0.0
 11
1.0
 21
1.0
 12
295.89591784679902
 22
109.26230207211189
 13
0.0
 23
0.0
 14
5.0
 24
5.0
 15
10.0
 25
10.0
 16
0.0
 26
0.0
 36
1.0
 17
0.0
 27
0.0
 37
0.0
 40
245.88945449190129
 41
2.415644171779141
 42
50.0
 43
0.0
 44
0.0
 50
0.0
 51
0.0
 71
     0
 72
   500
 73
     1
 74
     0
 75
     0
 76
     0
 77
     0
 78
     2
  0
ENDTAB
  0
TABLE
  2
LTYPE
 70
     4
  0
LTYPE
  2
CONTINUOUS
 70
     0
  3
Solid Line
 72
    65
 73
     0
 40
0.0
  0
LTYPE
  2
CENTER
 70
     0
  3
____ _ ____ _ ____ _ ____ _ ____ _ ____ _ ____
 72
    65
 73
     4
 40
2.0
 49
1.25
 49
-0.25
 49
0.25
 49
-0.25
  0
LTYPE
  2
PHANTOM2
 70
     0
  3
___ _ _ ___ _ _ ___ _ _ ___ _ _
 72
    65
 73
     6
 40
1.25
 49
0.625
 49
-0.125
 49
0.125
 49
-0.125
 49
0.125
 49
-0.125
  0
LTYPE
  2
HIDDEN
 70
     0
  3
_ _ _ _ _ _ _ _ _ _ _ _ _ _ _ _ _ _ _ _ _ _ _
 72
    65
 73
     2
 40
0.375
 49
0.25
 49
-0.125
  0
ENDTAB
  0
TABLE
  2
LAYER
 70
     5
  0
LAYER
  2
0
 70
     0
 62
     7
  6
CONTINUOUS
  0
LAYER
  2
1
 70
     0
 62
     1
  6
CENTER
  0
LAYER
  2
3
 70
     0
 62
     3
  6
CONTINUOUS
  0
LAYER
  2
DEFPOINTS
 70
     0
 62
     7
  6
CONTINUOUS
  0
LAYER
  2
2
 70
     0
 62
     2
  6
HIDDEN
  0
ENDTAB
  0
TABLE
  2
STYLE
 70
     2
  0
STYLE
  2
STANDARD
 70
     0
 40
0.0
 41
1.0
 50
0.0
 71
     0
 42
4.000000000000048
  3
SIMPLEX
  4
BIGFONT
  0
STYLE
  2
STANDARD1
 70
     0
 40
0.0
 41
1.0
 50
0.0
 71
     0
 42
3.0
  3
txt
  4

  0
ENDTAB
  0
TABLE
  2
VIEW
 70
     0
  0
ENDTAB
  0
TABLE
  2
UCS
 70
     0
  0
ENDTAB
  0
TABLE
  2
APPID
 70
     4
  0
APPID
  2
ACAD
 70
     0
  0
APPID
  2
ACAD_MLEADERVER
 70
     0
  0
APPID
  2
ACAD_NAV_VCDISPLAY
 70
     0
  0
APPID
  2
ACAD_EXEMPT_FROM_CAD_STANDARDS
 70
     0
  0
ENDTAB
  0
TABLE
  2
DIMSTYLE
 70
     1
  0
DIMSTYLE
  2
STANDARD
 70
     0
  3

  4

  5

  6

  7

 40
1.0
 41
0.18
 42
0.0625
 43
0.38
 44
0.18
 45
0.0
 46
0.0
 47
0.0
 48
0.0
140
0.18
141
0.09
142
0.0
143
25.399999999999999
144
1.0
145
0.0
146
1.0
147
0.09
 71
     0
 72
     0
 73
     1
 74
     1
 75
     0
 76
     0
 77
     0
 78
     0
170
     0
171
     2
172
     0
173
     0
174
     0
175
     0
176
     0
177
     0
178
     0
  0
ENDTAB
  0
ENDSEC
  0
SECTION
  2
BLOCKS
  0
BLOCK
  8
0
  2
$MODEL_SPACE
 70
     0
 10
0.0
 20
0.0
 30
0.0
  3
$MODEL_SPACE
  1

  0
ENDBLK
  5
5A1
  8
0
  0
BLOCK
 67
     1
  8
0
  2
$PAPER_SPACE
 70
     0
 10
0.0
 20
0.0
 30
0.0
  3
$PAPER_SPACE
  1

  0
ENDBLK
  5
59F
 67
     1
  8
0
  0
ENDSEC
  0
SECTION
  2
ENTITIES
  0
TEXT
  5
13E3
  8
0
 62
     3
 10
0.0
 20
0.0
 30
0.0
 40
5.0
  1
ASDX20W-610
  7
STANDARD1
  0
LINE
  5
1D94
  8
2
 10
235.0
 20
202.06699999999989
 30
0.0
 11
229.93299999999999
 21
202.06699999999989
 31
0.0
  0
LINE
  5
1D95
  8
2
 10
229.93299999999999
 20
197.93299999999991
 30
0.0
 11
235.0
 21
197.93299999999991
 31
0.0
  0
ARC
  5
1D96
  8
0
 10
161.0
 20
200.0
 30
0.0
 40
5.9999999999999867
 50
158.46275075362149
 51
201.53724924637521
  0
LINE
  5
1D97
  8
2
 10
229.93299999999999
 20
202.06699999999989
 30
0.0
 11
229.5
 21
202.49999999999989
 31
0.0
  0
LINE
  5
1D98
  8
2
 10
229.5
 20
197.49999999999989
 30
0.0
 11
229.93299999999999
 21
197.93299999999991
 31
0.0
  0
LINE
  5
1D99
  8
2
 10
229.93299999999999
 20
197.93299999999991
 30
0.0
 11
229.93299999999999
 21
202.06699999999989
 31
0.0
  0
LINE
  5
1D9A
  8
2
 10
229.5
 20
197.49999999999989
 30
0.0
 11
229.5
 21
202.49999999999989
 31
0.0
  0
LINE
  5
1D9B
  8
0
 10
165.0
 20
202.99999999999989
 30
0.0
 11
156.80000000000001
 21
203.0
 31
0.0
  0
LINE
  5
1D9C
  8
0
 10
156.80000000000001
 20
197.0
 30
0.0
 11
165.0
 21
197.0
 31
0.0
  0
LINE
  5
1D9F
  8
0
 10
155.4189253948021
 20
197.79736379508191
 30
0.0
 11
156.80000000000001
 21
197.0
 31
0.0
  0
LINE
  5
1DA0
  8
0
 10
156.80000000000001
 20
203.0
 30
0.0
 11
155.4189253948021
 21
202.20263620491809
 31
0.0
  0
LINE
  5
1DA3
  8
0
 10
233.19999999999999
 20
204.89999999999989
 30
0.0
 11
230.30000000000001
 21
204.89999999999989
 31
0.0
  0
LINE
  5
1DA4
  8
0
 10
230.30000000000001
 20
195.09999999999991
 30
0.0
 11
233.19999999999999
 21
195.09999999999991
 31
0.0
  0
ARC
  5
1DAB
  8
0
 10
233.19999999999999
 20
205.19999999999999
 30
0.0
 40
0.3000000000000202
 50
270.00000000000489
 51
359.99999999999352
  0
ARC
  5
1DAC
  8
0
 10
233.19999999999999
 20
194.7999999999999
 30
0.0
 40
0.3000000000000114
 50
0.0000000000032569
 51
89.999999999995111
  0
ARC
  5
1DAD
  8
0
 10
230.30000000000001
 20
205.19999999999999
 30
0.0
 40
0.3000000000000114
 50
180.0
 51
269.99999999999682
  0
ARC
  5
1DAE
  8
0
 10
230.30000000000001
 20
194.7999999999999
 30
0.0
 40
0.3000000000000114
 50
90.000000000003254
 51
179.9999999999967
  0
LINE
  5
1DAF
  8
0
 10
230.0
 20
194.2999999999999
 30
0.0
 11
230.0
 21
205.6999999999999
 31
0.0
  0
ARC
  5
1DB0
  8
0
 10
229.69999999999999
 20
205.6999999999999
 30
0.0
 40
0.3000000000000114
 50
0.0
 51
89.999999999996746
  0
ARC
  5
1DB1
  8
0
 10
229.69999999999999
 20
194.2999999999999
 30
0.0
 40
0.3000000000000051
 50
270.0000000000033
 51
359.99999999999682
  0
LINE
  5
1DB2
  8
0
 10
235.0
 20
205.49999999999989
 30
0.0
 11
234.5
 21
206.0
 31
0.0
  0
LINE
  5
1DB3
  8
0
 10
234.5
 20
193.99999999999989
 30
0.0
 11
235.0
 21
194.49999999999989
 31
0.0
  0
LINE
  5
1DB4
  8
0
 10
235.0
 20
194.49999999999989
 30
0.0
 11
235.0
 21
205.49999999999989
 31
0.0
  0
LINE
  5
1DB5
  8
0
 10
234.5
 20
206.0
 30
0.0
 11
233.80000000000001
 21
206.0
 31
0.0
  0
LINE
  5
1DB6
  8
0
 10
233.80000000000001
 20
193.99999999999989
 30
0.0
 11
234.5
 21
193.99999999999989
 31
0.0
  0
LINE
  5
1DB7
  8
0
 10
234.5
 20
193.99999999999989
 30
0.0
 11
234.5
 21
206.0
 31
0.0
  0
LINE
  5
1DB8
  8
0
 10
233.5
 20
194.2999999999999
 30
0.0
 11
233.5
 21
205.6999999999999
 31
0.0
  0
ARC
  5
1DB9
  8
0
 10
233.80000000000001
 20
205.6999999999999
 30
0.0
 40
0.3000000000000096
 50
90.000000000003254
 51
179.9999999999967
  0
ARC
  5
1DBA
  8
0
 10
233.80000000000001
 20
194.2999999999999
 30
0.0
 40
0.3000000000000114
 50
180.0
 51
269.99999999999682
  0
LINE
  5
1DBB
  8
0
 10
229.69999999999999
 20
206.0
 30
0.0
 11
228.0
 21
206.0
 31
0.0
  0
LINE
  5
1DBC
  8
0
 10
228.0
 20
193.99999999999989
 30
0.0
 11
229.69999999999999
 21
193.99999999999989
 31
0.0
  0
LINE
  5
1DC6
  8
0
 10
165.0
 20
190.91999999999999
 30
0.0
 11
165.91999999999999
 21
190.0
 31
0.0
  0
LINE
  5
1DC7
  8
0
 10
165.91999999999999
 20
210.0
 30
0.0
 11
165.0
 21
209.08000000000001
 31
0.0
  0
LINE
  5
1DC8
  8
0
 10
165.0
 20
190.91999999999999
 30
0.0
 11
165.0
 21
209.08000000000001
 31
0.0
  0
LINE
  5
1DC9
  8
0
 10
180.0
 20
210.0
 30
0.0
 11
165.91999999999999
 21
210.0
 31
0.0
  0
LINE
  5
1DCA
  8
0
 10
165.91999999999999
 20
190.0
 30
0.0
 11
180.0
 21
190.0
 31
0.0
  0
LINE
  5
1DCB
  8
0
 10
165.91999999999999
 20
190.0
 30
0.0
 11
165.91999999999999
 21
210.0
 31
0.0
  0
LINE
  5
1DCC
  8
0
 10
228.0
 20
190.99999999999989
 30
0.0
 11
228.0
 21
208.99999999999989
 31
0.0
  0
LINE
  5
1DCD
  8
0
 10
228.0
 20
208.99999999999989
 30
0.0
 11
213.0
 21
208.99999999999989
 31
0.0
  0
LINE
  5
1DCE
  8
0
 10
213.0
 20
190.99999999999989
 30
0.0
 11
228.0
 21
190.99999999999989
 31
0.0
  0
LINE
  5
1DCF
  8
0
 10
227.08000000000001
 20
190.99999999999989
 30
0.0
 11
227.08000000000001
 21
208.99999999999989
 31
0.0
  0
LINE
  5
1DD0
  8
0
 10
213.0
 20
208.99999999999989
 30
0.0
 11
213.0
 21
210.0
 31
0.0
  0
LINE
  5
1DD1
  8
0
 10
213.0
 20
210.0
 30
0.0
 11
205.0
 21
210.0
 31
0.0
  0
LINE
  5
1DD2
  8
0
 10
205.0
 20
189.99999999999989
 30
0.0
 11
213.0
 21
189.99999999999989
 31
0.0
  0
LINE
  5
1DD3
  8
0
 10
213.0
 20
189.99999999999989
 30
0.0
 11
213.0
 21
190.99999999999989
 31
0.0
  0
LINE
  5
1DD4
  8
0
 10
195.0
 20
210.0
 30
0.0
 11
190.0
 21
210.0
 31
0.0
  0
LINE
  5
1DD5
  8
0
 10
190.0
 20
190.0
 30
0.0
 11
195.0
 21
189.99999999999989
 31
0.0
  0
LINE
  5
1DD6
  8
0
 10
195.0
 20
214.99999999999989
 30
0.0
 11
205.0
 21
214.99999999999989
 31
0.0
  0
LINE
  5
1DD7
  8
0
 10
180.0
 20
185.0
 30
0.0
 11
180.0
 21
215.0
 31
0.0
  0
LINE
  5
1DD8
  8
0
 10
190.0
 20
185.0
 30
0.0
 11
180.0
 21
185.0
 31
0.0
  0
LINE
  5
1DD9
  8
0
 10
205.0
 20
184.99999999999989
 30
0.0
 11
205.0
 21
214.99999999999989
 31
0.0
  0
LINE
  5
1DDA
  8
0
 10
195.0
 20
184.99999999999989
 30
0.0
 11
195.0
 21
214.99999999999989
 31
0.0
  0
LINE
  5
1DDB
  8
0
 10
205.0
 20
184.99999999999989
 30
0.0
 11
195.0
 21
184.99999999999989
 31
0.0
  0
LINE
  5
1DDC
  8
0
 10
190.0
 20
185.0
 30
0.0
 11
190.0
 21
215.0
 31
0.0
  0
LINE
  5
1DDD
  8
0
 10
180.0
 20
215.0
 30
0.0
 11
190.0
 21
215.0
 31
0.0
  0
POLYLINE
  5
1DDE
  8
0
 66
     1
 10
0.0
 20
0.0
 30
0.0
  0
VERTEX
  5
21A8
  8
0
 10
196.3397459621556
 20
199.99999999999989
 30
0.0
  0
VERTEX
  5
21A9
  8
0
 10
195.96078904481061
 20
198.78639584359971
 30
0.0
  0
VERTEX
  5
21AA
  8
0
 10
195.6341055655235
 20
197.5610816823571
 30
0.0
  0
VERTEX
  5
21AB
  8
0
 10
195.36772078994119
 20
196.32553804778411
 30
0.0
  0
VERTEX
  5
21AC
  8
0
 10
195.1666779508503
 20
195.05679503952359
 30
0.0
  0
VERTEX
  5
21AD
  8
0
 10
195.04248110987609
 20
193.77986773923129
 30
0.0
  0
VERTEX
  5
21AE
  8
0
 10
195.0
 20
192.49999999999989
 30
0.0
  0
SEQEND
  5
21AF
  8
0
  0
POLYLINE
  5
1DDF
  8
0
 66
     1
 10
0.0
 20
0.0
 30
0.0
  0
VERTEX
  5
21B0
  8
0
 10
195.0
 20
192.49999999999989
 30
0.0
  0
VERTEX
  5
21B1
  8
0
 10
195.00729881204521
 20
191.96655561427031
 30
0.0
  0
VERTEX
  5
21B2
  8
0
 10
195.07429784374071
 20
190.798810926236
 30
0.0
  0
VERTEX
  5
21B3
  8
0
 10
195.20851181637931
 20
189.63462856167061
 30
0.0
  0
VERTEX
  5
21B4
  8
0
 10
195.405634090333
 20
188.47778208031781
 30
0.0
  0
VERTEX
  5
21B5
  8
0
 10
195.66592498381581
 20
187.30881577216229
 30
0.0
  0
VERTEX
  5
21B6
  8
0
 10
195.97956829417629
 20
186.1491598153037
 30
0.0
  0
VERTEX
  5
21B7
  8
0
 10
196.3397459621556
 20
184.99999999999989
 30
0.0
  0
SEQEND
  5
21B8
  8
0
  0
POLYLINE
  5
1DE0
  8
0
 66
     1
 10
0.0
 20
0.0
 30
0.0
  0
VERTEX
  5
21B9
  8
0
 10
203.6602540378444
 20
184.99999999999989
 30
0.0
  0
VERTEX
  5
21BA
  8
0
 10
204.0392109551893
 20
186.21360415640009
 30
0.0
  0
VERTEX
  5
21BB
  8
0
 10
204.36589443447639
 20
187.43891831764279
 30
0.0
  0
VERTEX
  5
21BC
  8
0
 10
204.63227921005881
 20
188.67446195221581
 30
0.0
  0
VERTEX
  5
21BD
  8
0
 10
204.8333220491497
 20
189.94320496047629
 30
0.0
  0
VERTEX
  5
21BE
  8
0
 10
204.95751889012391
 20
191.22013226076859
 30
0.0
  0
VERTEX
  5
21BF
  8
0
 10
205.0
 20
192.49999999999989
 30
0.0
  0
SEQEND
  5
21C0
  8
0
  0
POLYLINE
  5
1DE1
  8
0
 66
     1
 10
0.0
 20
0.0
 30
0.0
  0
VERTEX
  5
21C1
  8
0
 10
205.0
 20
192.49999999999989
 30
0.0
  0
VERTEX
  5
21C2
  8
0
 10
204.99270118795479
 20
193.03344438572961
 30
0.0
  0
VERTEX
  5
21C3
  8
0
 10
204.92570215625929
 20
194.20118907376391
 30
0.0
  0
VERTEX
  5
21C4
  8
0
 10
204.79148818362069
 20
195.3653714383293
 30
0.0
  0
VERTEX
  5
21C5
  8
0
 10
204.594365909667
 20
196.52221791968199
 30
0.0
  0
VERTEX
  5
21C6
  8
0
 10
204.33407501618419
 20
197.6911842278376
 30
0.0
  0
VERTEX
  5
21C7
  8
0
 10
204.0204317058236
 20
198.85084018469621
 30
0.0
  0
VERTEX
  5
21C8
  8
0
 10
203.6602540378444
 20
199.99999999999989
 30
0.0
  0
SEQEND
  5
21C9
  8
0
  0
POLYLINE
  5
1DE2
  8
0
 66
     1
 10
0.0
 20
0.0
 30
0.0
  0
VERTEX
  5
21CA
  8
0
 10
196.3397459621556
 20
214.99999999999989
 30
0.0
  0
VERTEX
  5
21CB
  8
0
 10
195.96078904481061
 20
213.78639584359971
 30
0.0
  0
VERTEX
  5
21CC
  8
0
 10
195.6341055655235
 20
212.5610816823571
 30
0.0
  0
VERTEX
  5
21CD
  8
0
 10
195.36772078994119
 20
211.32553804778399
 30
0.0
  0
VERTEX
  5
21CE
  8
0
 10
195.1666779508503
 20
210.05679503952359
 30
0.0
  0
VERTEX
  5
21CF
  8
0
 10
195.04248110987609
 20
208.77986773923129
 30
0.0
  0
VERTEX
  5
21D0
  8
0
 10
195.0
 20
207.49999999999989
 30
0.0
  0
SEQEND
  5
21D1
  8
0
  0
POLYLINE
  5
1DE3
  8
0
 66
     1
 10
0.0
 20
0.0
 30
0.0
  0
VERTEX
  5
21D2
  8
0
 10
195.0
 20
207.49999999999989
 30
0.0
  0
VERTEX
  5
21D3
  8
0
 10
195.00729881204521
 20
206.96655561427031
 30
0.0
  0
VERTEX
  5
21D4
  8
0
 10
195.07429784374071
 20
205.798810926236
 30
0.0
  0
VERTEX
  5
21D5
  8
0
 10
195.20851181637931
 20
204.63462856167061
 30
0.0
  0
VERTEX
  5
21D6
  8
0
 10
195.405634090333
 20
203.47778208031781
 30
0.0
  0
VERTEX
  5
21D7
  8
0
 10
195.66592498381581
 20
202.30881577216229
 30
0.0
  0
VERTEX
  5
21D8
  8
0
 10
195.97956829417629
 20
201.1491598153037
 30
0.0
  0
VERTEX
  5
21D9
  8
0
 10
196.3397459621556
 20
199.99999999999989
 30
0.0
  0
SEQEND
  5
21DA
  8
0
  0
LINE
  5
1DE4
  8
0
 10
203.6602540378444
 20
199.99999999999989
 30
0.0
 11
196.3397459621556
 21
199.99999999999989
 31
0.0
  0
POLYLINE
  5
1DE5
  8
0
 66
     1
 10
0.0
 20
0.0
 30
0.0
  0
VERTEX
  5
21DB
  8
0
 10
203.6602540378444
 20
199.99999999999989
 30
0.0
  0
VERTEX
  5
21DC
  8
0
 10
204.0392109551893
 20
201.21360415640009
 30
0.0
  0
VERTEX
  5
21DD
  8
0
 10
204.36589443447639
 20
202.43891831764279
 30
0.0
  0
VERTEX
  5
21DE
  8
0
 10
204.63227921005881
 20
203.67446195221589
 30
0.0
  0
VERTEX
  5
21DF
  8
0
 10
204.8333220491497
 20
204.94320496047629
 30
0.0
  0
VERTEX
  5
21E0
  8
0
 10
204.95751889012391
 20
206.22013226076859
 30
0.0
  0
VERTEX
  5
21E1
  8
0
 10
205.0
 20
207.49999999999989
 30
0.0
  0
SEQEND
  5
21E2
  8
0
  0
POLYLINE
  5
1DE6
  8
0
 66
     1
 10
0.0
 20
0.0
 30
0.0
  0
VERTEX
  5
21E3
  8
0
 10
205.0
 20
207.49999999999989
 30
0.0
  0
VERTEX
  5
21E4
  8
0
 10
204.99270118795479
 20
208.03344438572961
 30
0.0
  0
VERTEX
  5
21E5
  8
0
 10
204.92570215625929
 20
209.20118907376391
 30
0.0
  0
VERTEX
  5
21E6
  8
0
 10
204.79148818362069
 20
210.3653714383293
 30
0.0
  0
VERTEX
  5
21E7
  8
0
 10
204.594365909667
 20
211.52221791968211
 30
0.0
  0
VERTEX
  5
21E8
  8
0
 10
204.33407501618419
 20
212.6911842278376
 30
0.0
  0
VERTEX
  5
21E9
  8
0
 10
204.0204317058236
 20
213.85084018469621
 30
0.0
  0
VERTEX
  5
21EA
  8
0
 10
203.6602540378444
 20
214.99999999999989
 30
0.0
  0
SEQEND
  5
21EB
  8
0
  0
POLYLINE
  5
1DE7
  8
0
 66
     1
 10
0.0
 20
0.0
 30
0.0
  0
VERTEX
  5
21EC
  8
0
 10
181.3397459621556
 20
215.0
 30
0.0
  0
VERTEX
  5
21ED
  8
0
 10
180.96078904481061
 20
213.78639584359979
 30
0.0
  0
VERTEX
  5
21EE
  8
0
 10
180.6341055655235
 20
212.5610816823571
 30
0.0
  0
VERTEX
  5
21EF
  8
0
 10
180.36772078994119
 20
211.32553804778419
 30
0.0
  0
VERTEX
  5
21F0
  8
0
 10
180.1666779508503
 20
210.05679503952371
 30
0.0
  0
VERTEX
  5
21F1
  8
0
 10
180.04248110987609
 20
208.77986773923141
 30
0.0
  0
VERTEX
  5
21F2
  8
0
 10
180.0
 20
207.5
 30
0.0
  0
SEQEND
  5
21F3
  8
0
  0
POLYLINE
  5
1DE8
  8
0
 66
     1
 10
0.0
 20
0.0
 30
0.0
  0
VERTEX
  5
21F4
  8
0
 10
188.66025403784431
 20
200.0
 30
0.0
  0
VERTEX
  5
21F5
  8
0
 10
189.0392109551893
 20
201.21360415640021
 30
0.0
  0
VERTEX
  5
21F6
  8
0
 10
189.36589443447639
 20
202.43891831764279
 30
0.0
  0
VERTEX
  5
21F7
  8
0
 10
189.6322792100587
 20
203.67446195221589
 30
0.0
  0
VERTEX
  5
21F8
  8
0
 10
189.8333220491497
 20
204.94320496047629
 30
0.0
  0
VERTEX
  5
21F9
  8
0
 10
189.95751889012391
 20
206.22013226076871
 30
0.0
  0
VERTEX
  5
21FA
  8
0
 10
190.0
 20
207.5
 30
0.0
  0
SEQEND
  5
21FB
  8
0
  0
POLYLINE
  5
1DE9
  8
0
 66
     1
 10
0.0
 20
0.0
 30
0.0
  0
VERTEX
  5
21FC
  8
0
 10
190.0
 20
207.5
 30
0.0
  0
VERTEX
  5
21FD
  8
0
 10
189.99270118795471
 20
208.03344438572961
 30
0.0
  0
VERTEX
  5
21FE
  8
0
 10
189.92570215625929
 20
209.20118907376391
 30
0.0
  0
VERTEX
  5
21FF
  8
0
 10
189.79148818362069
 20
210.36537143832939
 30
0.0
  0
VERTEX
  5
2200
  8
0
 10
189.59436590966689
 20
211.52221791968211
 30
0.0
  0
VERTEX
  5
2201
  8
0
 10
189.33407501618419
 20
212.69118422783771
 30
0.0
  0
VERTEX
  5
2202
  8
0
 10
189.0204317058236
 20
213.8508401846963
 30
0.0
  0
VERTEX
  5
2203
  8
0
 10
188.66025403784431
 20
215.0
 30
0.0
  0
SEQEND
  5
2204
  8
0
  0
POLYLINE
  5
1DEA
  8
0
 66
     1
 10
0.0
 20
0.0
 30
0.0
  0
VERTEX
  5
2205
  8
0
 10
180.0
 20
192.5
 30
0.0
  0
VERTEX
  5
2206
  8
0
 10
180.00729881204521
 20
191.96655561427031
 30
0.0
  0
VERTEX
  5
2207
  8
0
 10
180.07429784374071
 20
190.798810926236
 30
0.0
  0
VERTEX
  5
2208
  8
0
 10
180.20851181637931
 20
189.63462856167061
 30
0.0
  0
VERTEX
  5
2209
  8
0
 10
180.405634090333
 20
188.47778208031781
 30
0.0
  0
VERTEX
  5
220A
  8
0
 10
180.66592498381581
 20
187.30881577216229
 30
0.0
  0
VERTEX
  5
220B
  8
0
 10
180.97956829417629
 20
186.1491598153037
 30
0.0
  0
VERTEX
  5
220C
  8
0
 10
181.3397459621556
 20
185.0
 30
0.0
  0
SEQEND
  5
220D
  8
0
  0
POLYLINE
  5
1DEB
  8
0
 66
     1
 10
0.0
 20
0.0
 30
0.0
  0
VERTEX
  5
220E
  8
0
 10
188.66025403784431
 20
185.0
 30
0.0
  0
VERTEX
  5
220F
  8
0
 10
189.0392109551893
 20
186.21360415640021
 30
0.0
  0
VERTEX
  5
2210
  8
0
 10
189.36589443447639
 20
187.43891831764279
 30
0.0
  0
VERTEX
  5
2211
  8
0
 10
189.6322792100587
 20
188.67446195221589
 30
0.0
  0
VERTEX
  5
2212
  8
0
 10
189.8333220491497
 20
189.94320496047629
 30
0.0
  0
VERTEX
  5
2213
  8
0
 10
189.95751889012391
 20
191.22013226076859
 30
0.0
  0
VERTEX
  5
2214
  8
0
 10
190.0
 20
192.5
 30
0.0
  0
SEQEND
  5
2215
  8
0
  0
POLYLINE
  5
1DEC
  8
0
 66
     1
 10
0.0
 20
0.0
 30
0.0
  0
VERTEX
  5
2216
  8
0
 10
190.0
 20
192.5
 30
0.0
  0
VERTEX
  5
2217
  8
0
 10
189.99270118795471
 20
193.03344438572961
 30
0.0
  0
VERTEX
  5
2218
  8
0
 10
189.92570215625929
 20
194.20118907376391
 30
0.0
  0
VERTEX
  5
2219
  8
0
 10
189.79148818362069
 20
195.3653714383293
 30
0.0
  0
VERTEX
  5
221A
  8
0
 10
189.59436590966689
 20
196.52221791968211
 30
0.0
  0
VERTEX
  5
221B
  8
0
 10
189.33407501618419
 20
197.6911842278376
 30
0.0
  0
VERTEX
  5
221C
  8
0
 10
189.0204317058236
 20
198.8508401846963
 30
0.0
  0
VERTEX
  5
221D
  8
0
 10
188.66025403784431
 20
200.0
 30
0.0
  0
SEQEND
  5
221E
  8
0
  0
LINE
  5
1DED
  8
0
 10
188.66025403784431
 20
200.0
 30
0.0
 11
181.3397459621556
 21
200.0
 31
0.0
  0
POLYLINE
  5
1DEE
  8
0
 66
     1
 10
0.0
 20
0.0
 30
0.0
  0
VERTEX
  5
221F
  8
0
 10
181.3397459621556
 20
200.0
 30
0.0
  0
VERTEX
  5
2220
  8
0
 10
180.96078904481061
 20
198.78639584359979
 30
0.0
  0
VERTEX
  5
2221
  8
0
 10
180.6341055655235
 20
197.5610816823571
 30
0.0
  0
VERTEX
  5
2222
  8
0
 10
180.36772078994119
 20
196.32553804778411
 30
0.0
  0
VERTEX
  5
2223
  8
0
 10
180.1666779508503
 20
195.05679503952359
 30
0.0
  0
VERTEX
  5
2224
  8
0
 10
180.04248110987609
 20
193.77986773923129
 30
0.0
  0
VERTEX
  5
2225
  8
0
 10
180.0
 20
192.5
 30
0.0
  0
SEQEND
  5
2226
  8
0
  0
POLYLINE
  5
1DEF
  8
0
 66
     1
 10
0.0
 20
0.0
 30
0.0
  0
VERTEX
  5
2227
  8
0
 10
180.0
 20
207.5
 30
0.0
  0
VERTEX
  5
2228
  8
0
 10
180.00729881204521
 20
206.96655561427031
 30
0.0
  0
VERTEX
  5
2229
  8
0
 10
180.07429784374071
 20
205.798810926236
 30
0.0
  0
VERTEX
  5
222A
  8
0
 10
180.20851181637931
 20
204.63462856167061
 30
0.0
  0
VERTEX
  5
222B
  8
0
 10
180.405634090333
 20
203.47778208031789
 30
0.0
  0
VERTEX
  5
222C
  8
0
 10
180.66592498381581
 20
202.30881577216229
 30
0.0
  0
VERTEX
  5
222D
  8
0
 10
180.97956829417629
 20
201.1491598153037
 30
0.0
  0
VERTEX
  5
222E
  8
0
 10
181.3397459621556
 20
200.0
 30
0.0
  0
SEQEND
  5
222F
  8
0
  0
LINE
  5
1DF0
  8
3
 10
165.0
 20
190.91999999999999
 30
0.0
 11
180.0
 21
190.91999999999999
 31
0.0
  0
LINE
  5
1DF1
  8
3
 10
190.0
 20
190.91999999999999
 30
0.0
 11
195.0
 21
190.9199999999999
 31
0.0
  0
LINE
  5
1DF2
  8
3
 10
205.0
 20
190.9199999999999
 30
0.0
 11
213.0
 21
190.9199999999999
 31
0.0
  0
LINE
  5
1DF3
  8
3
 10
165.0
 20
209.08000000000001
 30
0.0
 11
180.0
 21
209.08000000000001
 31
0.0
  0
LINE
  5
1DF4
  8
3
 10
190.0
 20
209.0799999999999
 30
0.0
 11
195.0
 21
209.0799999999999
 31
0.0
  0
LINE
  5
1DF5
  8
3
 10
205.0
 20
209.0799999999999
 30
0.0
 11
213.0
 21
209.0799999999999
 31
0.0
  0
LINE
  5
1DF6
  8
2
 10
229.5
 20
197.49999999999989
 30
0.0
 11
235.0
 21
197.49999999999989
 31
0.0
  0
LINE
  5
1DF7
  8
2
 10
229.5
 20
202.49999999999989
 30
0.0
 11
235.0
 21
202.49999999999989
 31
0.0
  0
LINE
  5
1DF8
  8
0
 10
91.339745962155646
 20
185.0
 30
0.0
 11
82.679491924311208
 21
200.0
 31
0.0
  0
LINE
  5
1DF9
  8
0
 10
108.6602540378444
 20
185.0
 30
0.0
 11
91.339745962155646
 21
185.0
 31
0.0
  0
LINE
  5
1DFA
  8
0
 10
108.6602540378444
 20
215.0
 30
0.0
 11
117.32050807568881
 21
200.0
 31
0.0
  0
LINE
  5
1DFB
  8
0
 10
91.339745962155646
 20
215.0
 30
0.0
 11
108.6602540378444
 21
215.0
 31
0.0
  0
LINE
  5
1DFC
  8
0
 10
117.32050807568881
 20
200.0
 30
0.0
 11
108.6602540378444
 21
185.0
 31
0.0
  0
LINE
  5
1DFD
  8
0
 10
82.679491924311208
 20
200.0
 30
0.0
 11
91.339745962155646
 21
215.0
 31
0.0
  0
CIRCLE
  5
1DFF
  8
0
 10
100.0
 20
200.0
 30
0.0
 40
3.0
  0
CIRCLE
  5
1E00
  8
0
 10
100.0
 20
200.0
 30
0.0
 40
10.0
  0
LINE
  5
1E02
  8
1
 10
100.0
 20
220.0
 30
0.0
 11
100.0
 21
180.0
 31
0.0
  0
CIRCLE
  5
1E04
  8
0
 10
100.0
 20
200.0
 30
0.0
 40
14.999999999999989
  0
LINE
  5
1E16
  8
0
 10
233.19999999999999
 20
104.89999999999991
 30
0.0
 11
230.30000000000001
 21
104.89999999999991
 31
0.0
  0
LINE
  5
1E17
  8
0
 10
230.30000000000001
 20
95.100000000000009
 30
0.0
 11
233.19999999999999
 21
95.09999999999998
 31
0.0
  0
ARC
  5
1E1E
  8
0
 10
230.30000000000001
 20
105.2
 30
0.0
 40
0.3000000000000114
 50
180.0
 51
269.99999999999682
  0
ARC
  5
1E1F
  8
0
 10
230.30000000000001
 20
94.799999999999955
 30
0.0
 40
0.3000000000000114
 50
90.000000000001606
 51
179.9999999999967
  0
ARC
  5
1E20
  8
0
 10
233.19999999999999
 20
105.2
 30
0.0
 40
0.3000000000000202
 50
270.00000000000489
 51
359.99999999999352
  0
ARC
  5
1E21
  8
0
 10
233.19999999999999
 20
94.799999999999912
 30
0.0
 40
0.3000000000000114
 50
0.0000000000032569
 51
89.999999999995111
  0
LINE
  5
1E22
  8
0
 10
230.0
 20
94.300000000019438
 30
0.0
 11
230.0
 21
105.6999999999999
 31
0.0
  0
ARC
  5
1E23
  8
0
 10
229.69999999999999
 20
105.6999999999999
 30
0.0
 40
0.3000000000000114
 50
0.0
 51
89.999999999996746
  0
ARC
  5
1E24
  8
0
 10
229.69999999999999
 20
94.299999999999983
 30
0.0
 40
0.3000000000000051
 50
270.0000000000033
 51
359.99999999999682
  0
LINE
  5
1E25
  8
0
 10
235.0
 20
105.4999999999999
 30
0.0
 11
234.5
 21
105.9999999999999
 31
0.0
  0
LINE
  5
1E26
  8
0
 10
234.5
 20
93.999999999999957
 30
0.0
 11
235.0
 21
94.499999999999943
 31
0.0
  0
LINE
  5
1E27
  8
0
 10
235.0
 20
94.499999999999943
 30
0.0
 11
235.0
 21
105.4999999999999
 31
0.0
  0
LINE
  5
1E28
  8
0
 10
233.5
 20
94.300000000019409
 30
0.0
 11
233.5
 21
105.6999999999999
 31
0.0
  0
ARC
  5
1E29
  8
0
 10
233.80000000000001
 20
105.6999999999999
 30
0.0
 40
0.3000000000000096
 50
90.000000000001606
 51
179.9999999999967
  0
ARC
  5
1E2A
  8
0
 10
233.80000000000001
 20
94.299999999999969
 30
0.0
 40
0.3000000000000114
 50
180.0
 51
269.99999999999682
  0
LINE
  5
1E2B
  8
0
 10
234.5
 20
105.9999999999999
 30
0.0
 11
233.80000000000001
 21
105.9999999999999
 31
0.0
  0
LINE
  5
1E2C
  8
0
 10
233.80000000000001
 20
93.999999999999957
 30
0.0
 11
234.5
 21
93.999999999999957
 31
0.0
  0
LINE
  5
1E2D
  8
0
 10
234.5
 20
93.999999999999957
 30
0.0
 11
234.5
 21
105.9999999999999
 31
0.0
  0
LINE
  5
1E2E
  8
0
 10
229.69999999999999
 20
106.0
 30
0.0
 11
228.0
 21
106.0
 31
0.0
  0
LINE
  5
1E2F
  8
0
 10
228.0
 20
93.999999999999986
 30
0.0
 11
229.69999999999999
 21
93.999999999999986
 31
0.0
  0
LINE
  5
1E30
  8
0
 10
180.0
 20
84.999999999999986
 30
0.0
 11
180.0
 21
115.0
 31
0.0
  0
LINE
  5
1E31
  8
0
 10
181.3397459621556
 20
117.32050807568881
 30
0.0
 11
180.0
 21
115.0
 31
0.0
  0
LINE
  5
1E32
  8
0
 10
190.0
 20
84.999999999999986
 30
0.0
 11
190.0
 21
115.0
 31
0.0
  0
LINE
  5
1E33
  8
0
 10
190.0
 20
115.0
 30
0.0
 11
188.66025403784431
 21
117.32050807568881
 31
0.0
  0
LINE
  5
1E34
  8
0
 10
205.0
 20
84.999999999999986
 30
0.0
 11
205.0
 21
115.0
 31
0.0
  0
LINE
  5
1E35
  8
0
 10
205.0
 20
115.0
 30
0.0
 11
203.6602540378444
 21
117.32050807568881
 31
0.0
  0
LINE
  5
1E36
  8
0
 10
195.0
 20
84.999999999999986
 30
0.0
 11
195.0
 21
115.0
 31
0.0
  0
LINE
  5
1E37
  8
0
 10
196.3397459621556
 20
117.32050807568881
 30
0.0
 11
195.0
 21
115.0
 31
0.0
  0
LINE
  5
1E38
  8
0
 10
203.6602540378444
 20
82.679491924311193
 30
0.0
 11
205.0
 21
84.999999999999986
 31
0.0
  0
LINE
  5
1E39
  8
0
 10
195.0
 20
84.999999999999986
 30
0.0
 11
196.3397459621556
 21
82.679491924311193
 31
0.0
  0
LINE
  5
1E3C
  8
0
 10
180.0
 20
84.999999999999986
 30
0.0
 11
181.3397459621556
 21
82.679491924311193
 31
0.0
  0
LINE
  5
1E3D
  8
0
 10
188.66025403784431
 20
82.679491924311193
 30
0.0
 11
190.0
 21
84.999999999999986
 31
0.0
  0
LINE
  5
1E45
  8
0
 10
227.08000000000001
 20
89.999999999999986
 30
0.0
 11
228.0
 21
90.920000000000002
 31
0.0
  0
POLYLINE
  5
1E46
  8
0
 66
     1
 10
0.0
 20
0.0
 30
0.0
  0
VERTEX
  5
2230
  8
0
 10
228.0
 20
98.797336289730197
 30
0.0
  0
VERTEX
  5
2231
  8
0
 10
227.89261811456629
 20
98.153926895056756
 30
0.0
  0
VERTEX
  5
2232
  8
0
 10
227.7435104762906
 20
97.516044157732154
 30
0.0
  0
VERTEX
  5
2233
  8
0
 10
227.55490120956301
 20
96.881104848254154
 30
0.0
  0
VERTEX
  5
2234
  8
0
 10
227.33202989413411
 20
96.255280893730955
 30
0.0
  0
VERTEX
  5
2235
  8
0
 10
227.08000000000001
 20
95.641101056459306
 30
0.0
  0
SEQEND
  5
2236
  8
0
  0
POLYLINE
  5
1E47
  8
0
 66
     1
 10
0.0
 20
0.0
 30
0.0
  0
VERTEX
  5
2237
  8
0
 10
227.08000000000001
 20
104.35889894354059
 30
0.0
  0
VERTEX
  5
2238
  8
0
 10
227.43479079581809
 20
103.4684377740469
 30
0.0
  0
VERTEX
  5
2239
  8
0
 10
227.72568848757791
 20
102.5501262461752
 30
0.0
  0
VERTEX
  5
223A
  8
0
 10
227.88522989006361
 20
101.8824976426491
 30
0.0
  0
VERTEX
  5
223B
  8
0
 10
228.0
 20
101.2026637102698
 30
0.0
  0
SEQEND
  5
223C
  8
0
  0
LINE
  5
1E48
  8
0
 10
228.0
 20
90.920000000000002
 30
0.0
 11
228.0
 21
109.0799999999999
 31
0.0
  0
LINE
  5
1E49
  8
0
 10
228.0
 20
109.0799999999999
 30
0.0
 11
227.08000000000001
 21
110.0
 31
0.0
  0
LINE
  5
1E4A
  8
0
 10
165.0
 20
90.920000000000002
 30
0.0
 11
165.91999999999999
 21
89.999999999999986
 31
0.0
  0
LINE
  5
1E4B
  8
0
 10
165.91999999999999
 20
110.0
 30
0.0
 11
165.0
 21
109.0799999999999
 31
0.0
  0
LINE
  5
1E4C
  8
0
 10
165.0
 20
90.920000000000002
 30
0.0
 11
165.0
 21
109.0799999999999
 31
0.0
  0
LINE
  5
1E4D
  8
0
 10
213.0
 20
95.641101056459306
 30
0.0
 11
213.0
 21
104.35889894354059
 31
0.0
  0
LINE
  5
1E4E
  8
0
 10
227.08000000000001
 20
95.641101056459306
 30
0.0
 11
213.0
 21
95.641101056459306
 31
0.0
  0
LINE
  5
1E4F
  8
0
 10
213.0
 20
104.35889894354059
 30
0.0
 11
227.08000000000001
 21
104.35889894354059
 31
0.0
  0
LINE
  5
1E50
  8
0
 10
227.08000000000001
 20
104.35889894354059
 30
0.0
 11
227.08000000000001
 21
110.0
 31
0.0
  0
LINE
  5
1E51
  8
0
 10
227.08000000000001
 20
110.0
 30
0.0
 11
205.0
 21
110.0
 31
0.0
  0
LINE
  5
1E52
  8
0
 10
205.0
 20
89.999999999999986
 30
0.0
 11
227.08000000000001
 21
89.999999999999986
 31
0.0
  0
LINE
  5
1E53
  8
0
 10
227.08000000000001
 20
89.999999999999986
 30
0.0
 11
227.08000000000001
 21
95.641101056459306
 31
0.0
  0
LINE
  5
1E54
  8
0
 10
180.0
 20
110.0
 30
0.0
 11
165.91999999999999
 21
110.0
 31
0.0
  0
LINE
  5
1E55
  8
0
 10
165.91999999999999
 20
89.999999999999986
 30
0.0
 11
180.0
 21
89.999999999999986
 31
0.0
  0
LINE
  5
1E56
  8
0
 10
165.91999999999999
 20
89.999999999999986
 30
0.0
 11
165.91999999999999
 21
110.0
 31
0.0
  0
LINE
  5
1E57
  8
0
 10
195.0
 20
110.0
 30
0.0
 11
190.0
 21
110.0
 31
0.0
  0
LINE
  5
1E58
  8
0
 10
190.0
 20
89.999999999999986
 30
0.0
 11
195.0
 21
89.999999999999986
 31
0.0
  0
POLYLINE
  5
1E59
  8
0
 66
     1
 10
0.0
 20
0.0
 30
0.0
  0
VERTEX
  5
223D
  8
0
 10
196.3397459621556
 20
108.6602540378444
 30
0.0
  0
VERTEX
  5
223E
  8
0
 10
195.86516388254921
 20
106.87028090215129
 30
0.0
  0
VERTEX
  5
223F
  8
0
 10
195.50330276587081
 20
105.1877085389165
 30
0.0
  0
VERTEX
  5
2240
  8
0
 10
195.23049666748051
 20
103.4837256368301
 30
0.0
  0
VERTEX
  5
2241
  8
0
 10
195.13091338772719
 20
102.6178373144531
 30
0.0
  0
VERTEX
  5
2242
  8
0
 10
195.05868848934091
 20
101.749250232837
 30
0.0
  0
VERTEX
  5
2243
  8
0
 10
195.01474588266319
 20
100.8751127080458
 30
0.0
  0
VERTEX
  5
2244
  8
0
 10
195.0
 20
100.0
 30
0.0
  0
SEQEND
  5
2245
  8
0
  0
POLYLINE
  5
1E5A
  8
0
 66
     1
 10
0.0
 20
0.0
 30
0.0
  0
VERTEX
  5
2246
  8
0
 10
180.0
 20
100.0
 30
0.0
  0
VERTEX
  5
2247
  8
0
 10
180.01988670430629
 20
98.982881565088448
 30
0.0
  0
VERTEX
  5
2248
  8
0
 10
180.07927530956221
 20
97.96576313017691
 30
0.0
  0
VERTEX
  5
2249
  8
0
 10
180.26026603559831
 20
96.296096982152434
 30
0.0
  0
VERTEX
  5
224A
  8
0
 10
180.53642710310891
 20
94.639325413242986
 30
0.0
  0
VERTEX
  5
224B
  8
0
 10
180.90131698697741
 20
92.980674992606936
 30
0.0
  0
VERTEX
  5
224C
  8
0
 10
181.3397459621556
 20
91.339745962155618
 30
0.0
  0
SEQEND
  5
224D
  8
0
  0
POLYLINE
  5
1E5B
  8
0
 66
     1
 10
0.0
 20
0.0
 30
0.0
  0
VERTEX
  5
224E
  8
0
 10
181.3397459621556
 20
117.32050807568881
 30
0.0
  0
VERTEX
  5
224F
  8
0
 10
181.0514520253094
 20
116.7966818847127
 30
0.0
  0
VERTEX
  5
2250
  8
0
 10
180.7909310446941
 20
116.26812998733389
 30
0.0
  0
VERTEX
  5
2251
  8
0
 10
180.5620466460467
 20
115.7359451933465
 30
0.0
  0
VERTEX
  5
2252
  8
0
 10
180.36663582851099
 20
115.19566426243669
 30
0.0
  0
VERTEX
  5
2253
  8
0
 10
180.21005617594071
 20
114.6522482195041
 30
0.0
  0
VERTEX
  5
2254
  8
0
 10
180.09442343762871
 20
114.1006577029589
 30
0.0
  0
VERTEX
  5
2255
  8
0
 10
180.02383316415759
 20
113.5471825465111
 30
0.0
  0
VERTEX
  5
2256
  8
0
 10
180.0
 20
112.99038105676649
 30
0.0
  0
SEQEND
  5
2257
  8
0
  0
LINE
  5
1E5C
  8
0
 10
188.66025403784431
 20
108.6602540378444
 30
0.0
 11
181.3397459621556
 21
108.6602540378444
 31
0.0
  0
POLYLINE
  5
1E5D
  8
0
 66
     1
 10
0.0
 20
0.0
 30
0.0
  0
VERTEX
  5
2258
  8
0
 10
190.0
 20
112.99038105676649
 30
0.0
  0
VERTEX
  5
2259
  8
0
 10
189.99270118795471
 20
113.29836531646519
 30
0.0
  0
VERTEX
  5
225A
  8
0
 10
189.91286137104109
 20
114.0560465835473
 30
0.0
  0
VERTEX
  5
225B
  8
0
 10
189.74866230979009
 20
114.81036741540881
 30
0.0
  0
VERTEX
  5
225C
  8
0
 10
189.59327650230941
 20
115.3157568270742
 30
0.0
  0
VERTEX
  5
225D
  8
0
 10
189.40481616554581
 20
115.8183392700335
 30
0.0
  0
VERTEX
  5
225E
  8
0
 10
189.06261754130981
 20
116.573120319182
 30
0.0
  0
VERTEX
  5
225F
  8
0
 10
188.66025403784431
 20
117.32050807568881
 30
0.0
  0
SEQEND
  5
2260
  8
0
  0
LINE
  5
1E5E
  8
0
 10
188.66025403784431
 20
117.32050807568881
 30
0.0
 11
181.3397459621556
 21
117.32050807568881
 31
0.0
  0
POLYLINE
  5
1E5F
  8
0
 66
     1
 10
0.0
 20
0.0
 30
0.0
  0
VERTEX
  5
2261
  8
0
 10
180.0
 20
112.99038105676649
 30
0.0
  0
VERTEX
  5
2262
  8
0
 10
180.00729881204521
 20
112.6823967970679
 30
0.0
  0
VERTEX
  5
2263
  8
0
 10
180.07429784374071
 20
112.0081990870865
 30
0.0
  0
VERTEX
  5
2264
  8
0
 10
180.20851181637931
 20
111.3360580855188
 30
0.0
  0
VERTEX
  5
2265
  8
0
 10
180.405634090333
 20
110.6681524580987
 30
0.0
  0
VERTEX
  5
2266
  8
0
 10
180.5952866277253
 20
110.1621883424223
 30
0.0
  0
VERTEX
  5
2267
  8
0
 10
180.8157388403576
 20
109.6593405630467
 30
0.0
  0
VERTEX
  5
2268
  8
0
 10
181.0650426588773
 20
109.1581378771283
 30
0.0
  0
VERTEX
  5
2269
  8
0
 10
181.3397459621556
 20
108.6602540378444
 30
0.0
  0
SEQEND
  5
226A
  8
0
  0
POLYLINE
  5
1E60
  8
0
 66
     1
 10
0.0
 20
0.0
 30
0.0
  0
VERTEX
  5
226B
  8
0
 10
181.3397459621556
 20
108.6602540378444
 30
0.0
  0
VERTEX
  5
226C
  8
0
 10
180.86516388254921
 20
106.87028090215129
 30
0.0
  0
VERTEX
  5
226D
  8
0
 10
180.50330276587081
 20
105.1877085389165
 30
0.0
  0
VERTEX
  5
226E
  8
0
 10
180.23049666748051
 20
103.4837256368301
 30
0.0
  0
VERTEX
  5
226F
  8
0
 10
180.13091338772719
 20
102.6178373144531
 30
0.0
  0
VERTEX
  5
2270
  8
0
 10
180.05868848934091
 20
101.749250232837
 30
0.0
  0
VERTEX
  5
2271
  8
0
 10
180.01474588266319
 20
100.8751127080458
 30
0.0
  0
VERTEX
  5
2272
  8
0
 10
180.0
 20
100.0
 30
0.0
  0
SEQEND
  5
2273
  8
0
  0
POLYLINE
  5
1E61
  8
0
 66
     1
 10
0.0
 20
0.0
 30
0.0
  0
VERTEX
  5
2274
  8
0
 10
190.0
 20
100.0
 30
0.0
  0
VERTEX
  5
2275
  8
0
 10
189.98578419492969
 20
100.8592469573166
 30
0.0
  0
VERTEX
  5
2276
  8
0
 10
189.94341119425221
 20
101.7175702255378
 30
0.0
  0
VERTEX
  5
2277
  8
0
 10
189.8730452576518
 20
102.5776611248
 30
0.0
  0
VERTEX
  5
2278
  8
0
 10
189.77580714231181
 20
103.4351404510756
 30
0.0
  0
VERTEX
  5
2279
  8
0
 10
189.50214907990619
 20
105.1587459001036
 30
0.0
  0
VERTEX
  5
227A
  8
0
 10
189.13483611745079
 20
106.87028090215129
 30
0.0
  0
VERTEX
  5
227B
  8
0
 10
188.66025403784431
 20
108.6602540378444
 30
0.0
  0
SEQEND
  5
227C
  8
0
  0
POLYLINE
  5
1E62
  8
0
 66
     1
 10
0.0
 20
0.0
 30
0.0
  0
VERTEX
  5
227D
  8
0
 10
188.66025403784431
 20
108.6602540378444
 30
0.0
  0
VERTEX
  5
227E
  8
0
 10
188.94865030070471
 20
109.18426993557971
 30
0.0
  0
VERTEX
  5
227F
  8
0
 10
189.20876053112869
 20
109.7119596179309
 30
0.0
  0
VERTEX
  5
2280
  8
0
 10
189.5409729973899
 20
110.5165411071735
 30
0.0
  0
VERTEX
  5
2281
  8
0
 10
189.78994382405921
 20
111.328513894029
 30
0.0
  0
VERTEX
  5
2282
  8
0
 10
189.905393234793
 20
111.8787647737787
 30
0.0
  0
VERTEX
  5
2283
  8
0
 10
189.97616683584241
 20
112.43357956702189
 30
0.0
  0
VERTEX
  5
2284
  8
0
 10
190.0
 20
112.99038105676649
 30
0.0
  0
SEQEND
  5
2285
  8
0
  0
POLYLINE
  5
1E63
  8
0
 66
     1
 10
0.0
 20
0.0
 30
0.0
  0
VERTEX
  5
2286
  8
0
 10
188.66025403784431
 20
91.339745962155618
 30
0.0
  0
VERTEX
  5
2287
  8
0
 10
189.094490712653
 20
92.963557746034937
 30
0.0
  0
VERTEX
  5
2288
  8
0
 10
189.45683291331861
 20
94.604735299718456
 30
0.0
  0
VERTEX
  5
2289
  8
0
 10
189.73730800488269
 20
96.278647580086485
 30
0.0
  0
VERTEX
  5
228A
  8
0
 10
189.92072469043771
 20
97.96576313017691
 30
0.0
  0
VERTEX
  5
228B
  8
0
 10
189.98005357660679
 20
98.981353770043285
 30
0.0
  0
VERTEX
  5
228C
  8
0
 10
190.0
 20
100.0
 30
0.0
  0
SEQEND
  5
228D
  8
0
  0
POLYLINE
  5
1E64
  8
0
 66
     1
 10
0.0
 20
0.0
 30
0.0
  0
VERTEX
  5
228E
  8
0
 10
196.3397459621556
 20
117.32050807568881
 30
0.0
  0
VERTEX
  5
228F
  8
0
 10
196.0514520253094
 20
116.7966818847127
 30
0.0
  0
VERTEX
  5
2290
  8
0
 10
195.7909310446941
 20
116.26812998733389
 30
0.0
  0
VERTEX
  5
2291
  8
0
 10
195.5620466460467
 20
115.7359451933465
 30
0.0
  0
VERTEX
  5
2292
  8
0
 10
195.36663582851099
 20
115.19566426243669
 30
0.0
  0
VERTEX
  5
2293
  8
0
 10
195.21005617594071
 20
114.6522482195041
 30
0.0
  0
VERTEX
  5
2294
  8
0
 10
195.09442343762871
 20
114.1006577029589
 30
0.0
  0
VERTEX
  5
2295
  8
0
 10
195.02383316415759
 20
113.5471825465111
 30
0.0
  0
VERTEX
  5
2296
  8
0
 10
195.0
 20
112.99038105676649
 30
0.0
  0
SEQEND
  5
2297
  8
0
  0
POLYLINE
  5
1E65
  8
0
 66
     1
 10
0.0
 20
0.0
 30
0.0
  0
VERTEX
  5
2298
  8
0
 10
195.0
 20
112.99038105676649
 30
0.0
  0
VERTEX
  5
2299
  8
0
 10
195.00729881204521
 20
112.6823967970679
 30
0.0
  0
VERTEX
  5
229A
  8
0
 10
195.07429784374071
 20
112.0081990870865
 30
0.0
  0
VERTEX
  5
229B
  8
0
 10
195.20851181637931
 20
111.3360580855188
 30
0.0
  0
VERTEX
  5
229C
  8
0
 10
195.405634090333
 20
110.6681524580987
 30
0.0
  0
VERTEX
  5
229D
  8
0
 10
195.59528662772519
 20
110.1621883424223
 30
0.0
  0
VERTEX
  5
229E
  8
0
 10
195.8157388403576
 20
109.6593405630467
 30
0.0
  0
VERTEX
  5
229F
  8
0
 10
196.0650426588773
 20
109.1581378771283
 30
0.0
  0
VERTEX
  5
22A0
  8
0
 10
196.3397459621556
 20
108.6602540378444
 30
0.0
  0
SEQEND
  5
22A1
  8
0
  0
LINE
  5
1E66
  8
0
 10
203.6602540378444
 20
108.6602540378444
 30
0.0
 11
196.3397459621556
 21
108.6602540378444
 31
0.0
  0
POLYLINE
  5
1E67
  8
0
 66
     1
 10
0.0
 20
0.0
 30
0.0
  0
VERTEX
  5
22A2
  8
0
 10
205.0
 20
112.99038105676649
 30
0.0
  0
VERTEX
  5
22A3
  8
0
 10
204.99270118795479
 20
113.29836531646519
 30
0.0
  0
VERTEX
  5
22A4
  8
0
 10
204.91286137104109
 20
114.0560465835473
 30
0.0
  0
VERTEX
  5
22A5
  8
0
 10
204.74866230979009
 20
114.81036741540881
 30
0.0
  0
VERTEX
  5
22A6
  8
0
 10
204.59327650230949
 20
115.3157568270742
 30
0.0
  0
VERTEX
  5
22A7
  8
0
 10
204.4048161655459
 20
115.8183392700335
 30
0.0
  0
VERTEX
  5
22A8
  8
0
 10
204.06261754130981
 20
116.573120319182
 30
0.0
  0
VERTEX
  5
22A9
  8
0
 10
203.6602540378444
 20
117.32050807568881
 30
0.0
  0
SEQEND
  5
22AA
  8
0
  0
LINE
  5
1E68
  8
0
 10
203.6602540378444
 20
117.32050807568881
 30
0.0
 11
196.3397459621556
 21
117.32050807568881
 31
0.0
  0
POLYLINE
  5
1E69
  8
0
 66
     1
 10
0.0
 20
0.0
 30
0.0
  0
VERTEX
  5
22AB
  8
0
 10
195.0
 20
100.0
 30
0.0
  0
VERTEX
  5
22AC
  8
0
 10
195.01988670430629
 20
98.982881565088448
 30
0.0
  0
VERTEX
  5
22AD
  8
0
 10
195.07927530956221
 20
97.96576313017691
 30
0.0
  0
VERTEX
  5
22AE
  8
0
 10
195.26026603559831
 20
96.296096982152434
 30
0.0
  0
VERTEX
  5
22AF
  8
0
 10
195.53642710310891
 20
94.639325413242986
 30
0.0
  0
VERTEX
  5
22B0
  8
0
 10
195.90131698697741
 20
92.980674992606936
 30
0.0
  0
VERTEX
  5
22B1
  8
0
 10
196.3397459621556
 20
91.339745962155618
 30
0.0
  0
SEQEND
  5
22B2
  8
0
  0
POLYLINE
  5
1E6A
  8
0
 66
     1
 10
0.0
 20
0.0
 30
0.0
  0
VERTEX
  5
22B3
  8
0
 10
181.3397459621556
 20
91.339745962155618
 30
0.0
  0
VERTEX
  5
22B4
  8
0
 10
181.05134969929529
 20
90.815730064420194
 30
0.0
  0
VERTEX
  5
22B5
  8
0
 10
180.79123946887131
 20
90.288040382069013
 30
0.0
  0
VERTEX
  5
22B6
  8
0
 10
180.45902700260999
 20
89.483458892826405
 30
0.0
  0
VERTEX
  5
22B7
  8
0
 10
180.21005617594071
 20
88.671486105970956
 30
0.0
  0
VERTEX
  5
22B8
  8
0
 10
180.094606765207
 20
88.121235226221273
 30
0.0
  0
VERTEX
  5
22B9
  8
0
 10
180.02383316415759
 20
87.566420432978006
 30
0.0
  0
VERTEX
  5
22BA
  8
0
 10
180.0
 20
87.009618943233406
 30
0.0
  0
SEQEND
  5
22BB
  8
0
  0
POLYLINE
  5
1E6B
  8
0
 66
     1
 10
0.0
 20
0.0
 30
0.0
  0
VERTEX
  5
22BC
  8
0
 10
180.0
 20
87.009618943233406
 30
0.0
  0
VERTEX
  5
22BD
  8
0
 10
180.00729881204521
 20
86.701634683534721
 30
0.0
  0
VERTEX
  5
22BE
  8
0
 10
180.08713862895891
 20
85.943953416452686
 30
0.0
  0
VERTEX
  5
22BF
  8
0
 10
180.25133769020991
 20
85.189632584591138
 30
0.0
  0
VERTEX
  5
22C0
  8
0
 10
180.40672349769051
 20
84.684243172925775
 30
0.0
  0
VERTEX
  5
22C1
  8
0
 10
180.5951838344541
 20
84.181660729966481
 30
0.0
  0
VERTEX
  5
22C2
  8
0
 10
180.93738245869019
 20
83.426879680817919
 30
0.0
  0
VERTEX
  5
22C3
  8
0
 10
181.3397459621556
 20
82.679491924311193
 30
0.0
  0
SEQEND
  5
22C4
  8
0
  0
LINE
  5
1E6C
  8
0
 10
188.66025403784431
 20
82.679491924311193
 30
0.0
 11
181.3397459621556
 21
82.679491924311193
 31
0.0
  0
POLYLINE
  5
1E6D
  8
0
 66
     1
 10
0.0
 20
0.0
 30
0.0
  0
VERTEX
  5
22C5
  8
0
 10
188.66025403784431
 20
82.679491924311193
 30
0.0
  0
VERTEX
  5
22C6
  8
0
 10
188.9485479746906
 20
83.203318115287274
 30
0.0
  0
VERTEX
  5
22C7
  8
0
 10
189.20906895530581
 20
83.731870012666022
 30
0.0
  0
VERTEX
  5
22C8
  8
0
 10
189.4379533539533
 20
84.264054806653434
 30
0.0
  0
VERTEX
  5
22C9
  8
0
 10
189.63336417148901
 20
84.804335737563221
 30
0.0
  0
VERTEX
  5
22CA
  8
0
 10
189.78994382405921
 20
85.347751780495827
 30
0.0
  0
VERTEX
  5
22CB
  8
0
 10
189.90557656237129
 20
85.899342297041002
 30
0.0
  0
VERTEX
  5
22CC
  8
0
 10
189.97616683584241
 20
86.452817453488805
 30
0.0
  0
VERTEX
  5
22CD
  8
0
 10
190.0
 20
87.009618943233406
 30
0.0
  0
SEQEND
  5
22CE
  8
0
  0
POLYLINE
  5
1E6E
  8
0
 66
     1
 10
0.0
 20
0.0
 30
0.0
  0
VERTEX
  5
22CF
  8
0
 10
190.0
 20
87.009618943233406
 30
0.0
  0
VERTEX
  5
22D0
  8
0
 10
189.99270118795471
 20
87.317603202932105
 30
0.0
  0
VERTEX
  5
22D1
  8
0
 10
189.92570215625929
 20
87.99180091291349
 30
0.0
  0
VERTEX
  5
22D2
  8
0
 10
189.79148818362069
 20
88.663941914481128
 30
0.0
  0
VERTEX
  5
22D3
  8
0
 10
189.59436590966689
 20
89.33184754190124
 30
0.0
  0
VERTEX
  5
22D4
  8
0
 10
189.4047133722747
 20
89.837811657577674
 30
0.0
  0
VERTEX
  5
22D5
  8
0
 10
189.18426115964229
 20
90.34065943695326
 30
0.0
  0
VERTEX
  5
22D6
  8
0
 10
188.93495734112261
 20
90.841862122871689
 30
0.0
  0
VERTEX
  5
22D7
  8
0
 10
188.66025403784431
 20
91.339745962155618
 30
0.0
  0
SEQEND
  5
22D8
  8
0
  0
LINE
  5
1E6F
  8
0
 10
188.66025403784431
 20
91.339745962155618
 30
0.0
 11
181.3397459621556
 21
91.339745962155618
 31
0.0
  0
POLYLINE
  5
1E70
  8
0
 66
     1
 10
0.0
 20
0.0
 30
0.0
  0
VERTEX
  5
22D9
  8
0
 10
203.6602540378444
 20
91.339745962155618
 30
0.0
  0
VERTEX
  5
22DA
  8
0
 10
204.094490712653
 20
92.963557746034894
 30
0.0
  0
VERTEX
  5
22DB
  8
0
 10
204.45683291331861
 20
94.604735299718456
 30
0.0
  0
VERTEX
  5
22DC
  8
0
 10
204.73730800488269
 20
96.278647580086485
 30
0.0
  0
VERTEX
  5
22DD
  8
0
 10
204.92072469043771
 20
97.96576313017691
 30
0.0
  0
VERTEX
  5
22DE
  8
0
 10
204.98005357660691
 20
98.981353770043285
 30
0.0
  0
VERTEX
  5
22DF
  8
0
 10
205.0
 20
100.0
 30
0.0
  0
SEQEND
  5
22E0
  8
0
  0
POLYLINE
  5
1E71
  8
0
 66
     1
 10
0.0
 20
0.0
 30
0.0
  0
VERTEX
  5
22E1
  8
0
 10
196.3397459621556
 20
91.339745962155618
 30
0.0
  0
VERTEX
  5
22E2
  8
0
 10
196.05134969929529
 20
90.815730064420194
 30
0.0
  0
VERTEX
  5
22E3
  8
0
 10
195.79123946887131
 20
90.288040382069013
 30
0.0
  0
VERTEX
  5
22E4
  8
0
 10
195.45902700260999
 20
89.483458892826405
 30
0.0
  0
VERTEX
  5
22E5
  8
0
 10
195.21005617594071
 20
88.671486105970956
 30
0.0
  0
VERTEX
  5
22E6
  8
0
 10
195.09460676520689
 20
88.121235226221273
 30
0.0
  0
VERTEX
  5
22E7
  8
0
 10
195.02383316415759
 20
87.566420432978006
 30
0.0
  0
VERTEX
  5
22E8
  8
0
 10
195.0
 20
87.009618943233406
 30
0.0
  0
SEQEND
  5
22E9
  8
0
  0
POLYLINE
  5
1E72
  8
0
 66
     1
 10
0.0
 20
0.0
 30
0.0
  0
VERTEX
  5
22EA
  8
0
 10
195.0
 20
87.009618943233406
 30
0.0
  0
VERTEX
  5
22EB
  8
0
 10
195.00729881204521
 20
86.701634683534721
 30
0.0
  0
VERTEX
  5
22EC
  8
0
 10
195.08713862895891
 20
85.943953416452686
 30
0.0
  0
VERTEX
  5
22ED
  8
0
 10
195.25133769020979
 20
85.189632584591138
 30
0.0
  0
VERTEX
  5
22EE
  8
0
 10
195.40672349769051
 20
84.684243172925775
 30
0.0
  0
VERTEX
  5
22EF
  8
0
 10
195.5951838344541
 20
84.181660729966481
 30
0.0
  0
VERTEX
  5
22F0
  8
0
 10
195.93738245869019
 20
83.426879680817919
 30
0.0
  0
VERTEX
  5
22F1
  8
0
 10
196.3397459621556
 20
82.679491924311193
 30
0.0
  0
SEQEND
  5
22F2
  8
0
  0
LINE
  5
1E73
  8
0
 10
203.6602540378444
 20
82.679491924311193
 30
0.0
 11
196.3397459621556
 21
82.679491924311193
 31
0.0
  0
POLYLINE
  5
1E74
  8
0
 66
     1
 10
0.0
 20
0.0
 30
0.0
  0
VERTEX
  5
22F3
  8
0
 10
203.6602540378444
 20
82.679491924311193
 30
0.0
  0
VERTEX
  5
22F4
  8
0
 10
203.9485479746906
 20
83.203318115287274
 30
0.0
  0
VERTEX
  5
22F5
  8
0
 10
204.2090689553059
 20
83.731870012666022
 30
0.0
  0
VERTEX
  5
22F6
  8
0
 10
204.4379533539533
 20
84.264054806653434
 30
0.0
  0
VERTEX
  5
22F7
  8
0
 10
204.63336417148901
 20
84.804335737563221
 30
0.0
  0
VERTEX
  5
22F8
  8
0
 10
204.78994382405929
 20
85.347751780495827
 30
0.0
  0
VERTEX
  5
22F9
  8
0
 10
204.90557656237121
 20
85.899342297041002
 30
0.0
  0
VERTEX
  5
22FA
  8
0
 10
204.97616683584241
 20
86.452817453488805
 30
0.0
  0
VERTEX
  5
22FB
  8
0
 10
205.0
 20
87.009618943233406
 30
0.0
  0
SEQEND
  5
22FC
  8
0
  0
POLYLINE
  5
1E75
  8
0
 66
     1
 10
0.0
 20
0.0
 30
0.0
  0
VERTEX
  5
22FD
  8
0
 10
205.0
 20
87.009618943233406
 30
0.0
  0
VERTEX
  5
22FE
  8
0
 10
204.99270118795479
 20
87.317603202932105
 30
0.0
  0
VERTEX
  5
22FF
  8
0
 10
204.92570215625929
 20
87.99180091291349
 30
0.0
  0
VERTEX
  5
2300
  8
0
 10
204.79148818362069
 20
88.663941914481128
 30
0.0
  0
VERTEX
  5
2301
  8
0
 10
204.594365909667
 20
89.33184754190124
 30
0.0
  0
VERTEX
  5
2302
  8
0
 10
204.4047133722747
 20
89.837811657577674
 30
0.0
  0
VERTEX
  5
2303
  8
0
 10
204.1842611596424
 20
90.34065943695326
 30
0.0
  0
VERTEX
  5
2304
  8
0
 10
203.9349573411227
 20
90.841862122871689
 30
0.0
  0
VERTEX
  5
2305
  8
0
 10
203.6602540378444
 20
91.339745962155618
 30
0.0
  0
SEQEND
  5
2306
  8
0
  0
LINE
  5
1E76
  8
0
 10
203.6602540378444
 20
91.339745962155618
 30
0.0
 11
196.3397459621556
 21
91.339745962155618
 31
0.0
  0
POLYLINE
  5
1E77
  8
0
 66
     1
 10
0.0
 20
0.0
 30
0.0
  0
VERTEX
  5
2307
  8
0
 10
205.0
 20
100.0
 30
0.0
  0
VERTEX
  5
2308
  8
0
 10
204.98578419492969
 20
100.8592469573166
 30
0.0
  0
VERTEX
  5
2309
  8
0
 10
204.94341119425221
 20
101.7175702255378
 30
0.0
  0
VERTEX
  5
230A
  8
0
 10
204.8730452576518
 20
102.5776611248
 30
0.0
  0
VERTEX
  5
230B
  8
0
 10
204.77580714231181
 20
103.4351404510756
 30
0.0
  0
VERTEX
  5
230C
  8
0
 10
204.50214907990619
 20
105.1587459001036
 30
0.0
  0
VERTEX
  5
230D
  8
0
 10
204.13483611745079
 20
106.87028090215129
 30
0.0
  0
VERTEX
  5
230E
  8
0
 10
203.6602540378444
 20
108.6602540378444
 30
0.0
  0
SEQEND
  5
230F
  8
0
  0
POLYLINE
  5
1E78
  8
0
 66
     1
 10
0.0
 20
0.0
 30
0.0
  0
VERTEX
  5
2310
  8
0
 10
203.6602540378444
 20
108.6602540378444
 30
0.0
  0
VERTEX
  5
2311
  8
0
 10
203.94865030070471
 20
109.18426993557971
 30
0.0
  0
VERTEX
  5
2312
  8
0
 10
204.20876053112869
 20
109.7119596179309
 30
0.0
  0
VERTEX
  5
2313
  8
0
 10
204.43805742993169
 20
110.2451055987389
 30
0.0
  0
VERTEX
  5
2314
  8
0
 10
204.63227921005881
 20
110.7817056350832
 30
0.0
  0
VERTEX
  5
2315
  8
0
 10
204.78994382405929
 20
111.328513894029
 30
0.0
  0
VERTEX
  5
2316
  8
0
 10
204.90557656237121
 20
111.88010441057411
 30
0.0
  0
VERTEX
  5
2317
  8
0
 10
204.97616683584241
 20
112.43357956702189
 30
0.0
  0
VERTEX
  5
2318
  8
0
 10
205.0
 20
112.99038105676649
 30
0.0
  0
SEQEND
  5
2319
  8
0
  0
LINE
  5
1E79
  8
3
 10
165.0
 20
109.0799999999999
 30
0.0
 11
180.0
 21
109.08
 31
0.0
  0
LINE
  5
1E7A
  8
3
 10
190.0
 20
109.08
 30
0.0
 11
195.0
 21
109.0799999999999
 31
0.0
  0
LINE
  5
1E7B
  8
3
 10
205.0
 20
109.0799999999999
 30
0.0
 11
228.0
 21
109.0799999999999
 31
0.0
  0
LINE
  5
1E7C
  8
3
 10
165.0
 20
90.920000000000002
 30
0.0
 11
180.0
 21
90.920000000000002
 31
0.0
  0
LINE
  5
1E7D
  8
3
 10
190.0
 20
90.920000000000002
 30
0.0
 11
195.0
 21
90.920000000000002
 31
0.0
  0
LINE
  5
1E7E
  8
3
 10
205.0
 20
90.920000000000002
 30
0.0
 11
228.0
 21
90.920000000000002
 31
0.0
  0
LINE
  5
1E82
  8
0
 10
298.66025403784442
 20
184.99999999999989
 30
0.0
 11
281.33974596215569
 21
184.99999999999989
 31
0.0
  0
LINE
  5
1E83
  8
0
 10
281.33974596215569
 20
184.99999999999989
 30
0.0
 11
272.67949192431132
 21
199.99999999999989
 31
0.0
  0
LINE
  5
1E84
  8
0
 10
307.32050807568879
 20
199.99999999999989
 30
0.0
 11
298.66025403784442
 21
184.99999999999989
 31
0.0
  0
LINE
  5
1E85
  8
0
 10
298.66025403784442
 20
214.99999999999989
 30
0.0
 11
307.32050807568879
 21
199.99999999999989
 31
0.0
  0
LINE
  5
1E86
  8
0
 10
281.33974596215569
 20
214.99999999999989
 30
0.0
 11
298.66025403784442
 21
214.99999999999989
 31
0.0
  0
LINE
  5
1E87
  8
0
 10
272.67949192431132
 20
199.99999999999989
 30
0.0
 11
281.33974596215569
 21
214.99999999999989
 31
0.0
  0
LINE
  5
1E89
  8
0
 10
285.64110105645932
 20
190.99999999999989
 30
0.0
 11
294.35889894354068
 21
190.99999999999989
 31
0.0
  0
ARC
  5
1E8A
  8
3
 10
290.0
 20
199.99999999999989
 30
0.0
 40
9.0800000000000001
 50
277.61130422391
 51
82.388695776089989
  0
LINE
  5
1E8B
  8
0
 10
294.35889894354068
 20
208.99999999999989
 30
0.0
 11
285.64110105645932
 21
208.99999999999989
 31
0.0
  0
ARC
  5
1E8C
  8
3
 10
290.0
 20
199.99999999999989
 30
0.0
 40
9.0800000000000001
 50
97.611304223908363
 51
262.38869577609159
  0
CIRCLE
  5
1E8D
  8
0
 10
290.0
 20
199.99999999999989
 30
0.0
 40
2.0670000000000002
  0
CIRCLE
  5
1E8E
  8
0
 10
290.0
 20
199.99999999999989
 30
0.0
 40
6.0
  0
CIRCLE
  5
1E8F
  8
0
 10
290.0
 20
199.99999999999989
 30
0.0
 40
5.5
  0
CIRCLE
  5
1E94
  8
0
 10
290.0
 20
199.99999999999989
 30
0.0
 40
14.999999999999989
  0
CIRCLE
  5
1E95
  8
0
 10
290.0
 20
199.99999999999989
 30
0.0
 40
10.0
  0
ARC
  5
1EA4
  8
0
 10
161.0
 20
100.0
 30
0.0
 40
5.9999999999999867
 50
158.46275075362149
 51
201.53724924637521
  0
LINE
  5
1EA5
  8
0
 10
165.0
 20
102.9999999999999
 30
0.0
 11
156.80000000000001
 21
103.0
 31
0.0
  0
LINE
  5
1EA6
  8
0
 10
156.80000000000001
 20
96.999999999999986
 30
0.0
 11
165.0
 21
96.999999999999986
 31
0.0
  0
LINE
  5
1EA7
  8
0
 10
155.4189253948021
 20
97.797363795081935
 30
0.0
 11
156.80000000000001
 21
96.999999999999986
 31
0.0
  0
LINE
  5
1EA8
  8
0
 10
156.80000000000001
 20
103.0
 30
0.0
 11
155.4189253948021
 21
102.20263620491799
 31
0.0
  0
CIRCLE
  5
1EF0
  8
3
 10
100.0
 20
200.0
 30
0.0
 40
9.0799999999999841
  0
LINE
  5
1EFA
  8
1
 10
240.0
 20
199.99999999999989
 30
0.0
 11
150.0
 21
200.0
 31
0.0
  0
LINE
  5
1EFB
  8
1
 10
240.0
 20
99.999999999999957
 30
0.0
 11
150.0
 21
100.0
 31
0.0
  0
LINE
  5
1F00
  8
1
 10
80.0
 20
200.0
 30
0.0
 11
120.0
 21
200.0
 31
0.0
  0
LINE
  5
1F01
  8
1
 10
290.0
 20
219.99999999999989
 30
0.0
 11
290.0
 21
179.99999999999989
 31
0.0
  0
LINE
  5
1F02
  8
1
 10
270.0
 20
199.99999999999989
 30
0.0
 11
310.0
 21
199.99999999999989
 31
0.0
  0
CIRCLE
  5
1F05
  8
3
 10
290.0
 20
199.99999999999989
 30
0.0
 40
2.5
  0
LINE
  5
1F21
  8
2
 10
235.0
 20
102.06699999999989
 30
0.0
 11
229.93299999999999
 21
102.06699999999999
 31
0.0
  0
LINE
  5
1F22
  8
2
 10
229.93299999999999
 20
97.932999999999979
 30
0.0
 11
235.0
 21
97.93299999999995
 31
0.0
  0
LINE
  5
1F23
  8
2
 10
229.93299999999999
 20
102.06699999999999
 30
0.0
 11
229.5
 21
102.5
 31
0.0
  0
LINE
  5
1F24
  8
2
 10
229.5
 20
97.5
 30
0.0
 11
229.93299999999999
 21
97.932999999999979
 31
0.0
  0
LINE
  5
1F25
  8
2
 10
229.93299999999999
 20
97.932999999999979
 30
0.0
 11
229.93299999999999
 21
102.06699999999999
 31
0.0
  0
LINE
  5
1F26
  8
2
 10
229.5
 20
97.5
 30
0.0
 11
229.5
 21
102.5
 31
0.0
  0
LINE
  5
1F27
  8
2
 10
229.5
 20
97.5
 30
0.0
 11
235.0
 21
97.499999999999957
 31
0.0
  0
LINE
  5
1F28
  8
2
 10
229.5
 20
102.5
 30
0.0
 11
235.0
 21
102.4999999999999
 31
0.0
  0
LINE
  5
1FB8
  8
3
 10
213.0
 20
104.35889894354059
 30
0.0
 11
227.08000000000001
 21
95.641101056459306
 31
0.0
  0
LINE
  5
1FB9
  8
3
 10
213.0
 20
95.641101056459306
 30
0.0
 11
227.08000000000001
 21
104.35889894354059
 31
0.0
  0
CIRCLE
  5
211F
  8
0
 10
290.0
 20
199.99999999999989
 30
0.0
 40
7.5
  0
ENDSEC
  0
EOF
