  0
SECTION
  2
HEADER
  9
$ACADVER
  1
AC1009
  9
$INSBASE
 10
0.0
 20
0.0
 30
0.0
  9
$EXTMIN
 10
-0.0204638472032742
 20
-2.960436562073669
 30
0.0
  9
$EXTMAX
 10
355.06418739353637
 20
162.55361172259211
 30
0.0
  9
$LIMMIN
 10
0.0
 20
0.0
  9
$LIMMAX
 10
187.5
 20
135.0
  9
$ORTHOMODE
 70
     0
  9
$REGENMODE
 70
     1
  9
$FILLMODE
 70
     1
  9
$QTEXTMODE
 70
     0
  9
$MIRRTEXT
 70
     0
  9
$DRAGMODE
 70
     2
  9
$LTSCALE
 40
5.0
  9
$OSMODE
 70
  3071
  9
$ATTMODE
 70
     1
  9
$TEXTSIZE
 40
2.5
  9
$TRACEWID
 40
0.05
  9
$TEXTSTYLE
  7
STANDARD
  9
$CLAYER
  8
0
  9
$CELTYPE
  6
BYLAYER
  9
$CECOLOR
 62
   256
  9
$DIMSCALE
 40
0.5
  9
$DIMASZ
 40
3.0
  9
$DIMEXO
 40
2.0
  9
$DIMDLI
 40
10.0
  9
$DIMRND
 40
0.0
  9
$DIMDLE
 40
0.0
  9
$DIMEXE
 40
2.0
  9
$DIMTP
 40
0.0
  9
$DIMTM
 40
0.0
  9
$DIMTXT
 40
3.0
  9
$DIMCEN
 40
0.09
  9
$DIMTSZ
 40
0.0
  9
$DIMTOL
 70
     0
  9
$DIMLIM
 70
     0
  9
$DIMTIH
 70
     0
  9
$DIMTOH
 70
     0
  9
$DIMSE1
 70
     0
  9
$DIMSE2
 70
     0
  9
$DIMTAD
 70
     1
  9
$DIMZIN
 70
     0
  9
$DIMBLK
  1

  9
$DIMASO
 70
     0
  9
$DIMSHO
 70
     0
  9
$DIMPOST
  1

  9
$DIMAPOST
  1

  9
$DIMALT
 70
     0
  9
$DIMALTD
 70
     2
  9
$DIMALTF
 40
25.399999999999999
  9
$DIMLFAC
 40
1.0
  9
$DIMTOFL
 70
     1
  9
$DIMTVP
 40
1.6000000000000001
  9
$DIMTIX
 70
     1
  9
$DIMSOXD
 70
     0
  9
$DIMSAH
 70
     0
  9
$DIMBLK1
  1

  9
$DIMBLK2
  1

  9
$DIMSTYLE
  2
STANDARD
  9
$DIMCLRD
 70
     0
  9
$DIMCLRE
 70
     0
  9
$DIMCLRT
 70
     0
  9
$DIMTFAC
 40
1.0
  9
$DIMGAP
 40
0.09
  9
$LUNITS
 70
     2
  9
$LUPREC
 70
     4
  9
$SKETCHINC
 40
0.1
  9
$FILLETRAD
 40
0.0
  9
$AUNITS
 70
     0
  9
$AUPREC
 70
     0
  9
$MENU
  1
E:\r13\win\SUPPORT\ACAD
  9
$ELEVATION
 40
0.0
  9
$PELEVATION
 40
0.0
  9
$THICKNESS
 40
0.0
  9
$LIMCHECK
 70
     0
  9
$BLIPMODE
 70
     0
  9
$CHAMFERA
 40
1.6000000000000001
  9
$CHAMFERB
 40
1.6000000000000001
  9
$SKPOLY
 70
     0
  9
$TDCREATE
 40
2449840.5944097228
  9
$TDUPDATE
 40
2456597.5626328131
  9
$TDINDWG
 40
0.1654457176
  9
$TDUSRTIMER
 40
0.1654457176
  9
$USRTIMER
 70
     1
  9
$ANGBASE
 50
0.0
  9
$ANGDIR
 70
     0
  9
$PDMODE
 70
     0
  9
$PDSIZE
 40
0.0
  9
$PLINEWID
 40
0.0
  9
$COORDS
 70
     1
  9
$SPLFRAME
 70
     0
  9
$SPLINETYPE
 70
     6
  9
$SPLINESEGS
 70
     8
  9
$ATTDIA
 70
     0
  9
$ATTREQ
 70
     1
  9
$HANDLING
 70
     1
  9
$HANDSEED
  5
32EC
  9
$SURFTAB1
 70
     6
  9
$SURFTAB2
 70
     6
  9
$SURFTYPE
 70
     6
  9
$SURFU
 70
     6
  9
$SURFV
 70
     6
  9
$UCSNAME
  2

  9
$UCSORG
 10
0.0
 20
0.0
 30
0.0
  9
$UCSXDIR
 10
1.0
 20
0.0
 30
0.0
  9
$UCSYDIR
 10
0.0
 20
1.0
 30
0.0
  9
$PUCSNAME
  2

  9
$PUCSORG
 10
0.0
 20
0.0
 30
0.0
  9
$PUCSXDIR
 10
1.0
 20
0.0
 30
0.0
  9
$PUCSYDIR
 10
0.0
 20
1.0
 30
0.0
  9
$USERI1
 70
     0
  9
$USERI2
 70
     1
  9
$USERI3
 70
     1
  9
$USERI4
 70
     0
  9
$USERI5
 70
     0
  9
$USERR1
 40
0.0
  9
$USERR2
 40
0.0
  9
$USERR3
 40
0.0
  9
$USERR4
 40
0.0
  9
$USERR5
 40
0.0
  9
$WORLDVIEW
 70
     1
  9
$SHADEDGE
 70
     3
  9
$SHADEDIF
 70
    70
  9
$TILEMODE
 70
     1
  9
$MAXACTVP
 70
    16
  9
$PLIMCHECK
 70
     0
  9
$PEXTMIN
 10
1.0000000000000000E+020
 20
1.0000000000000000E+020
 30
1.0000000000000000E+020
  9
$PEXTMAX
 10
-1.0000000000000000E+020
 20
-1.0000000000000000E+020
 30
-1.0000000000000000E+020
  9
$PLIMMIN
 10
0.0
 20
0.0
  9
$PLIMMAX
 10
12.0
 20
9.0
  9
$UNITMODE
 70
     0
  9
$VISRETAIN
 70
     0
  9
$PLINEGEN
 70
     0
  9
$PSLTSCALE
 70
     0
  0
ENDSEC
  0
SECTION
  2
TABLES
  0
TABLE
  2
VPORT
 70
     1
  0
VPORT
  2
*ACTIVE
 70
     0
 10
0.0
 20
0.0
 11
1.0
 21
1.0
 12
183.03450416815929
 22
79.794784402653491
 13
0.0
 23
0.0
 14
5.0
 24
5.0
 15
5.0
 25
5.0
 16
0.0
 26
0.0
 36
1.0
 17
0.0
 27
0.0
 37
0.0
 40
200.85317953096759
 41
1.831871345029239
 42
50.0
 43
0.0
 44
0.0
 50
0.0
 51
0.0
 71
     0
 72
   100
 73
     1
 74
     0
 75
     0
 76
     0
 77
     0
 78
     0
  0
ENDTAB
  0
TABLE
  2
LTYPE
 70
     4
  0
LTYPE
  2
CONTINUOUS
 70
     0
  3
Solid Line
 72
    65
 73
     0
 40
0.0
  0
LTYPE
  2
CENTER
 70
     0
  3
____ _ ____ _ ____ _ ____ _ ____ _ ____ _ ____
 72
    65
 73
     4
 40
2.0
 49
1.25
 49
-0.25
 49
0.25
 49
-0.25
  0
LTYPE
  2
HIDDEN
 70
     0
  3
_ _ _ _ _ _ _ _ _ _ _ _ _ _ _ _ _ _ _ _ _ _ _
 72
    65
 73
     2
 40
0.375
 49
0.25
 49
-0.125
  0
LTYPE
  2
PHANTOM2
 70
     0
  3
___ _ _ ___ _ _ ___ _ _ ___ _ _
 72
    65
 73
     6
 40
1.25
 49
0.625
 49
-0.125
 49
0.125
 49
-0.125
 49
0.125
 49
-0.125
  0
ENDTAB
  0
TABLE
  2
LAYER
 70
     5
  0
LAYER
  2
0
 70
     0
 62
     7
  6
CONTINUOUS
  0
LAYER
  2
1
 70
     0
 62
     1
  6
CENTER
  0
LAYER
  2
2
 70
     0
 62
     2
  6
HIDDEN
  0
LAYER
  2
3
 70
     0
 62
     3
  6
CONTINUOUS
  0
LAYER
  2
4
 70
     0
 62
     1
  6
CONTINUOUS
  0
ENDTAB
  0
TABLE
  2
STYLE
 70
     5
  0
STYLE
  2
STANDARD
 70
     0
 40
0.0
 41
1.0
 50
0.0
 71
     0
 42
2.5
  3
TXT
  4
BIGFONT
  0
STYLE
  2
KANJI
 70
     0
 40
0.0
 41
1.0
 50
0.0
 71
     0
 42
5.0
  3
TXT.SHX
  4
bigfont
  0
STYLE
  2
STYLE2
 70
     0
 40
13.0
 41
1.0
 50
0.0
 71
     0
 42
2.5
  3
C:\Program Files\AutoCAD LT\txt.shx
  4
C:\Program Files\AutoCAD LT\bigfont.shx
  0
STYLE
  2
STANDARD2
 70
     0
 40
8.0
 41
1.0
 50
0.0
 71
     0
 42
0.2
  3
C:\Program Files\AutoCAD LT\txt.shx
  4
C:\Program Files\AutoCAD LT\bigfont.shx
  0
STYLE
  2
STANDARD1
 70
     0
 40
0.0
 41
1.0
 50
0.0
 71
     0
 42
3.0
  3
txt
  4

  0
ENDTAB
  0
TABLE
  2
VIEW
 70
     1
  0
VIEW
  2
ALL
 70
     0
 40
135.0
 10
110.49579799999999
 20
67.5
 41
0.0
 11
0.0
 21
0.0
 31
1.0
 12
0.0
 22
0.0
 32
0.0
 42
0.0
 43
0.0
 44
0.0
 50
0.0
 71
     0
  0
ENDTAB
  0
TABLE
  2
UCS
 70
     0
  0
ENDTAB
  0
TABLE
  2
APPID
 70
     4
  0
APPID
  2
ACAD
 70
     0
  0
APPID
  2
DCO15
 70
     0
  0
APPID
  2
ACAD_MLEADERVER
 70
     0
  0
APPID
  2
ACAD_NAV_VCDISPLAY
 70
     0
  0
ENDTAB
  0
TABLE
  2
DIMSTYLE
 70
     1
  0
DIMSTYLE
  2
STANDARD
 70
     0
  3

  4

  5

  6

  7

 40
1.0
 41
0.18
 42
0.0625
 43
0.38
 44
0.18
 45
0.0
 46
0.0
 47
0.0
 48
0.0
140
0.18
141
0.09
142
0.0
143
25.399999999999999
144
1.0
145
0.0
146
1.0
147
0.09
 71
     0
 72
     0
 73
     1
 74
     1
 75
     0
 76
     0
 77
     0
 78
     0
170
     0
171
     2
172
     0
173
     0
174
     0
175
     0
176
     0
177
     0
178
     0
  0
ENDTAB
  0
ENDSEC
  0
SECTION
  2
BLOCKS
  0
BLOCK
  8
0
  2
$MODEL_SPACE
 70
     0
 10
0.0
 20
0.0
 30
0.0
  3
$MODEL_SPACE
  1

  0
ENDBLK
  5
15D
  8
0
  0
BLOCK
 67
     1
  8
0
  2
$PAPER_SPACE
 70
     0
 10
0.0
 20
0.0
 30
0.0
  3
$PAPER_SPACE
  1

  0
ENDBLK
  5
15B
 67
     1
  8
0
  0
BLOCK
  8
0
  2
STDGX5
 70
     0
 10
0.0
 20
0.0
 30
0.0
  3
STDGX5
  1

  0
ENDBLK
  5
41
  8
0
  0
ENDSEC
  0
SECTION
  2
ENTITIES
  0
INSERT
  5
CA
  8
0
  2
STDGX5
 10
0.0
 20
0.0
 30
0.0
  0
INSERT
  5
69A
  8
0
  2
STDGX5
 10
194.3272563481562
 20
13.52129245667936
 30
0.0
  0
INSERT
  5
1343
  8
0
  2
STDGX5
 10
563.10080863610574
 20
-59.557035590067017
 30
0.0
  0
INSERT
  5
1345
  8
0
  2
STDGX5
 10
757.42806498426194
 20
-46.035743133387648
 30
0.0
  0
LINE
  5
2CF5
  8
2
 10
69.264187393536304
 20
149.30361172259211
 30
0.0
 11
75.064187393536372
 21
149.30361172259211
 31
0.0
  0
LINE
  5
2CF6
  8
2
 10
69.264187393536304
 20
155.80361172259211
 30
0.0
 11
75.064187393536372
 21
155.80361172259211
 31
0.0
  0
ARC
  5
2CF7
  8
0
 10
71.564187393536372
 20
145.9036117225921
 30
0.0
 40
2.0
 50
202.0243130000049
 51
337.9756869999951
  0
CIRCLE
  5
2CF9
  8
0
 10
71.564187393536372
 20
159.20361172259209
 30
0.0
 40
1.9839999999999991
  0
ARC
  5
2CFA
  8
0
 10
71.564187393536372
 20
159.20361172259209
 30
0.0
 40
2.0
 50
193.2970719999995
 51
341.03442499999761
  0
ARC
  5
2CFB
  8
0
 10
71.564187393536372
 20
159.20361172259209
 30
0.0
 40
2.0
 50
22.024313000004891
 51
157.9756869999951
  0
LINE
  5
2CFC
  8
0
 10
67.764187393536304
 20
162.55361172259211
 30
0.0
 11
73.564187393536372
 21
162.55361172259211
 31
0.0
  0
LINE
  5
2CFD
  8
0
 10
69.264187393536304
 20
149.55361172259211
 30
0.0
 11
71.064187393536372
 21
149.55361172259211
 31
0.0
  0
LINE
  5
2CFE
  8
0
 10
69.264187393536304
 20
155.55361172259211
 30
0.0
 11
71.064187393536372
 21
155.55361172259211
 31
0.0
  0
CIRCLE
  5
2CFF
  8
0
 10
71.564187393536372
 20
145.9036117225921
 30
0.0
 40
1.9839999999999991
  0
ARC
  5
2D00
  8
0
 10
71.564187393536372
 20
145.9036117225921
 30
0.0
 40
2.0
 50
202.0243130000049
 51
337.9756869999951
  0
CIRCLE
  5
2D01
  8
0
 10
71.564187393536372
 20
145.9036117225921
 30
0.0
 40
1.9839999999999991
  0
ARC
  5
2D02
  8
0
 10
71.564187393536372
 20
145.9036117225921
 30
0.0
 40
2.0
 50
18.96557500000241
 51
166.7029280000005
  0
LINE
  5
2D03
  8
0
 10
67.764187393536304
 20
142.55361172259211
 30
0.0
 11
73.564187393536372
 21
142.55361172259211
 31
0.0
  0
LINE
  5
2D04
  8
1
 10
62.064187393536372
 20
152.55361172259211
 30
0.0
 11
80.064187393536372
 21
152.55361172259211
 31
0.0
  0
LINE
  5
2D0C
  8
0
 10
68.664187393536395
 20
145.1536117225921
 30
0.0
 11
68.664187393536395
 21
159.95361172259209
 31
0.0
  0
LINE
  5
2D0D
  8
0
 10
67.064187393536372
 20
143.2536117225921
 30
0.0
 11
67.064187393536372
 21
161.85361172259221
 31
0.0
  0
LINE
  5
2D0E
  8
2
 10
67.314187393536372
 20
150.80361172259219
 30
0.0
 11
68.664187393536395
 21
149.55361172259211
 31
0.0
  0
LINE
  5
2D0F
  8
0
 10
68.664187393536395
 20
145.1536117225921
 30
0.0
 11
69.710137893536398
 21
145.1536117225921
 31
0.0
  0
LINE
  5
2D10
  8
0
 10
69.464187393536349
 20
146.3636117225922
 30
0.0
 11
69.617805893536456
 21
146.3636117225922
 31
0.0
  0
ARC
  5
2D11
  8
0
 10
69.464187393536349
 20
146.5636117225921
 30
0.0
 40
0.2
 50
180.0
 51
270.0
  0
LINE
  5
2D12
  8
0
 10
68.664187393536395
 20
145.1536117225921
 30
0.0
 11
69.710137893536398
 21
145.1536117225921
 31
0.0
  0
LINE
  5
2D13
  8
0
 10
69.264187393536304
 20
149.55361172259211
 30
0.0
 11
69.264187393536304
 21
146.5636117225921
 31
0.0
  0
ARC
  5
2D14
  8
0
 10
67.764187393536304
 20
143.2536117225921
 30
0.0
 40
0.7
 50
180.0
 51
270.0
  0
LINE
  5
2D15
  8
2
 10
67.314187393536372
 20
154.30361172259211
 30
0.0
 11
68.664187393536395
 21
155.55361172259211
 31
0.0
  0
LINE
  5
2D16
  8
0
 10
69.464187393536349
 20
158.74361172259211
 30
0.0
 11
69.617805893536456
 21
158.74361172259211
 31
0.0
  0
ARC
  5
2D17
  8
0
 10
69.464187393536349
 20
158.54361172259209
 30
0.0
 40
0.2
 50
90.0
 51
180.0
  0
LINE
  5
2D18
  8
0
 10
69.264187393536304
 20
155.55361172259211
 30
0.0
 11
69.264187393536304
 21
158.54361172259209
 31
0.0
  0
LINE
  5
2D19
  8
0
 10
68.664187393536395
 20
159.95361172259209
 30
0.0
 11
69.710137893536398
 21
159.95361172259209
 31
0.0
  0
ARC
  5
2D1A
  8
0
 10
67.764187393536304
 20
161.85361172259221
 30
0.0
 40
0.7
 50
90.0
 51
180.0
  0
LINE
  5
2D1C
  8
0
 10
71.064187393536372
 20
149.55361172259211
 30
0.0
 11
71.064187393536372
 21
155.55361172259211
 31
0.0
  0
LINE
  5
2D1D
  8
0
 10
75.064187393536372
 20
147.2536117225921
 30
0.0
 11
75.064187393536372
 21
157.85361172259221
 31
0.0
  0
LINE
  5
2D20
  8
0
 10
73.455615393536277
 20
146.55361172259211
 30
0.0
 11
74.364187393536326
 21
146.55361172259211
 31
0.0
  0
ARC
  5
2D21
  8
0
 10
74.364187393536326
 20
147.2536117225921
 30
0.0
 40
0.7
 50
270.0
 51
0.0
  0
LINE
  5
2D22
  8
0
 10
73.418236893536232
 20
145.1536117225921
 30
0.0
 11
74.264187393536304
 21
145.1536117225921
 31
0.0
  0
LINE
  5
2D23
  8
0
 10
74.264187393536304
 20
143.2536117225921
 30
0.0
 11
74.264187393536304
 21
145.1536117225921
 31
0.0
  0
ARC
  5
2D24
  8
0
 10
73.564187393536372
 20
143.2536117225921
 30
0.0
 40
0.7
 50
270.0
 51
0.0
  0
LINE
  5
2D27
  8
0
 10
73.455615393536277
 20
158.55361172259211
 30
0.0
 11
74.364187393536326
 21
158.55361172259211
 31
0.0
  0
ARC
  5
2D28
  8
0
 10
74.364187393536326
 20
157.85361172259221
 30
0.0
 40
0.7
 50
0.0
 51
90.0
  0
LINE
  5
2D29
  8
0
 10
73.418236893536232
 20
159.95361172259209
 30
0.0
 11
74.264187393536304
 21
159.95361172259209
 31
0.0
  0
ARC
  5
2D2A
  8
0
 10
73.564187393536372
 20
161.85361172259221
 30
0.0
 40
0.7
 50
0.0
 51
90.0
  0
LINE
  5
2D2B
  8
0
 10
74.264187393536304
 20
159.95361172259209
 30
0.0
 11
74.264187393536304
 21
161.85361172259221
 31
0.0
  0
LINE
  5
2F70
  8
2
 10
75.064187393536386
 20
154.55361172259211
 30
0.0
 11
71.064187393536372
 21
154.55361172259211
 31
0.0
  0
LINE
  5
2F71
  8
2
 10
75.064187393536372
 20
154.20361172259209
 30
0.0
 11
71.064187393536372
 21
154.20361172259209
 31
0.0
  0
LINE
  5
2F72
  8
2
 10
75.064187393536372
 20
150.9036117225921
 30
0.0
 11
71.064187393536372
 21
150.9036117225921
 31
0.0
  0
LINE
  5
2F73
  8
2
 10
75.064187393536386
 20
150.55361172259211
 30
0.0
 11
71.064187393536372
 21
150.55361172259211
 31
0.0
  0
LINE
  5
2F76
  8
2
 10
67.064187393536372
 20
150.80361172259219
 30
0.0
 11
67.314187393536372
 21
150.80361172259219
 31
0.0
  0
LINE
  5
2F77
  8
2
 10
67.314187393536372
 20
150.80361172259219
 30
0.0
 11
67.314187393536372
 21
154.30361172259211
 31
0.0
  0
LINE
  5
2F78
  8
2
 10
67.314187393536372
 20
154.30361172259211
 30
0.0
 11
67.064187393536372
 21
154.30361172259211
 31
0.0
  0
LINE
  5
3043
  8
0
 10
110.0641873935364
 20
158.55361172259211
 30
0.0
 11
260.06418739353637
 21
158.55361172259211
 31
0.0
  0
LINE
  5
3044
  8
0
 10
110.0641873935364
 20
146.55361172259211
 30
0.0
 11
260.06418739353637
 21
146.55361172259211
 31
0.0
  0
LINE
  5
3045
  8
1
 10
100.0641873935363
 20
152.55361172259211
 30
0.0
 11
355.06418739353637
 21
152.55361172259211
 31
0.0
  0
LINE
  5
3046
  8
2
 10
110.0641873935364
 20
149.55361172259211
 30
0.0
 11
260.06418739353637
 21
149.55361172259211
 31
0.0
  0
LINE
  5
3047
  8
2
 10
110.0641873935364
 20
155.55361172259211
 30
0.0
 11
260.06418739353637
 21
155.55361172259211
 31
0.0
  0
LINE
  5
3048
  8
2
 10
110.0641873935364
 20
157.20361172259209
 30
0.0
 11
260.06418739353637
 21
157.20361172259209
 31
0.0
  0
LINE
  5
3049
  8
2
 10
110.0641873935364
 20
147.88761172259211
 30
0.0
 11
260.06418739353637
 21
147.88761172259211
 31
0.0
  0
LINE
  5
304A
  8
2
 10
195.06418739353629
 20
143.90361172259219
 30
0.0
 11
345.06418739353637
 21
143.90361172259219
 31
0.0
  0
LINE
  5
304B
  8
2
 10
195.06418739353629
 20
161.20361172259209
 30
0.0
 11
345.06418739353637
 21
161.20361172259209
 31
0.0
  0
LINE
  5
304C
  8
0
 10
195.06418739353629
 20
145.15361172259219
 30
0.0
 11
345.06418739353637
 21
145.15361172259219
 31
0.0
  0
LINE
  5
304D
  8
0
 10
195.06418739353629
 20
159.95361172259209
 30
0.0
 11
345.06418739353637
 21
159.95361172259209
 31
0.0
  0
LINE
  5
304E
  8
0
 10
195.06418739353629
 20
142.55361172259211
 30
0.0
 11
345.06418739353637
 21
142.55361172259211
 31
0.0
  0
LINE
  5
304F
  8
0
 10
195.06418739353629
 20
162.55361172259211
 30
0.0
 11
345.06418739353637
 21
162.55361172259211
 31
0.0
  0
LINE
  5
3053
  8
0
 10
110.0641873935364
 20
158.55361172259211
 30
0.0
 11
110.0641873935364
 21
146.55361172259211
 31
0.0
  0
LINE
  5
305B
  8
0
 10
195.06418739353629
 20
146.55361172259211
 30
0.0
 11
195.06418739353629
 21
142.55361172259211
 31
0.0
  0
LINE
  5
305C
  8
0
 10
195.06418739353629
 20
146.55361172259211
 30
0.0
 11
195.06418739353629
 21
142.55361172259211
 31
0.0
  0
LINE
  5
305D
  8
0
 10
195.06418739353629
 20
162.55361172259211
 30
0.0
 11
195.06418739353629
 21
158.55361172259211
 31
0.0
  0
LINE
  5
3066
  8
0
 10
260.06418739353637
 20
158.55361172259211
 30
0.0
 11
260.06418739353637
 21
146.55361172259211
 31
0.0
  0
LINE
  5
306D
  8
0
 10
345.06418739353637
 20
162.55361172259211
 30
0.0
 11
345.06418739353637
 21
142.55361172259211
 31
0.0
  0
CIRCLE
  5
314A
  8
0
 10
140.06418739353629
 20
152.55361172259211
 30
0.0
 40
3.25
  0
CIRCLE
  5
314B
  8
3
 10
125.0641873935363
 20
152.55361172259211
 30
0.0
 40
2.0
  0
CIRCLE
  5
314C
  8
0
 10
125.0641873935363
 20
152.55361172259211
 30
0.0
 40
1.649999999999999
  0
LINE
  5
314D
  8
1
 10
140.06418739353629
 20
158.80361172259211
 30
0.0
 11
140.06418739353629
 21
146.30361172259211
 31
0.0
  0
LINE
  5
314E
  8
1
 10
125.0641873935363
 20
149.55361172259211
 30
0.0
 11
125.0641873935363
 21
155.55361172259211
 31
0.0
  0
CIRCLE
  5
314F
  8
3
 10
185.0641873935364
 20
152.55361172259211
 30
0.0
 40
2.0
  0
CIRCLE
  5
3150
  8
0
 10
185.0641873935364
 20
152.55361172259211
 30
0.0
 40
1.649999999999999
  0
LINE
  5
3151
  8
1
 10
185.0641873935364
 20
149.55361172259211
 30
0.0
 11
185.0641873935364
 21
155.55361172259211
 31
0.0
  0
CIRCLE
  5
3152
  8
3
 10
245.0641873935364
 20
152.55361172259211
 30
0.0
 40
2.0
  0
CIRCLE
  5
3153
  8
0
 10
245.0641873935364
 20
152.55361172259211
 30
0.0
 40
1.649999999999999
  0
LINE
  5
3154
  8
1
 10
245.0641873935364
 20
149.55361172259211
 30
0.0
 11
245.0641873935364
 21
155.55361172259211
 31
0.0
  0
CIRCLE
  5
3155
  8
0
 10
330.06418739353637
 20
152.55361172259211
 30
0.0
 40
1.75
  0
CIRCLE
  5
3156
  8
0
 10
330.06418739353637
 20
152.55361172259211
 30
0.0
 40
3.0
  0
LINE
  5
3157
  8
1
 10
330.06418739353637
 20
158.55361172259211
 30
0.0
 11
330.06418739353637
 21
146.55361172259211
 31
0.0
  0
LINE
  5
3158
  8
1
 10
270.06418739353637
 20
158.55361172259211
 30
0.0
 11
270.06418739353637
 21
146.55361172259211
 31
0.0
  0
CIRCLE
  5
3159
  8
0
 10
270.06418739353637
 20
152.55361172259211
 30
0.0
 40
3.0
  0
CIRCLE
  5
315A
  8
0
 10
270.06418739353637
 20
152.55361172259211
 30
0.0
 40
1.75
  0
CIRCLE
  5
315B
  8
2
 10
210.0641873935364
 20
152.55361172259211
 30
0.0
 40
3.0
  0
LINE
  5
315C
  8
1
 10
210.0641873935364
 20
158.55361172259211
 30
0.0
 11
210.0641873935364
 21
146.55361172259211
 31
0.0
  0
CIRCLE
  5
315D
  8
2
 10
210.0641873935364
 20
152.55361172259211
 30
0.0
 40
1.75
  0
TEXT
  5
3259
  8
0
 62
     3
 10
0.0
 20
0.0
 30
0.0
 40
10.0
  1
ARS20S-150
  7
STANDARD1
  0
ENDSEC
  0
EOF
