  0
SECTION
  2
HEADER
  9
$ACADVER
  1
AC1009
  9
$INSBASE
 10
0.0
 20
0.0
 30
0.0
  9
$EXTMIN
 10
-0.0204638472032742
 20
-2.960436562073669
 30
0.0
  9
$EXTMAX
 10
842.0
 20
244.99999999999989
 30
0.0
  9
$LIMMIN
 10
0.0
 20
0.0
  9
$LIMMAX
 10
187.5
 20
135.0
  9
$ORTHOMODE
 70
     1
  9
$REGENMODE
 70
     1
  9
$FILLMODE
 70
     1
  9
$QTEXTMODE
 70
     0
  9
$MIRRTEXT
 70
     0
  9
$DRAGMODE
 70
     2
  9
$LTSCALE
 40
10.0
  9
$OSMODE
 70
    37
  9
$ATTMODE
 70
     1
  9
$TEXTSIZE
 40
2.5
  9
$TRACEWID
 40
0.05
  9
$TEXTSTYLE
  7
STANDARD
  9
$CLAYER
  8
0
  9
$CELTYPE
  6
BYLAYER
  9
$CECOLOR
 62
   256
  9
$DIMSCALE
 40
0.5
  9
$DIMASZ
 40
3.0
  9
$DIMEXO
 40
2.0
  9
$DIMDLI
 40
10.0
  9
$DIMRND
 40
0.0
  9
$DIMDLE
 40
0.0
  9
$DIMEXE
 40
2.0
  9
$DIMTP
 40
0.0
  9
$DIMTM
 40
0.0
  9
$DIMTXT
 40
3.0
  9
$DIMCEN
 40
0.09
  9
$DIMTSZ
 40
0.0
  9
$DIMTOL
 70
     0
  9
$DIMLIM
 70
     0
  9
$DIMTIH
 70
     0
  9
$DIMTOH
 70
     0
  9
$DIMSE1
 70
     0
  9
$DIMSE2
 70
     0
  9
$DIMTAD
 70
     1
  9
$DIMZIN
 70
     0
  9
$DIMBLK
  1

  9
$DIMASO
 70
     0
  9
$DIMSHO
 70
     0
  9
$DIMPOST
  1

  9
$DIMAPOST
  1

  9
$DIMALT
 70
     0
  9
$DIMALTD
 70
     2
  9
$DIMALTF
 40
25.399999999999999
  9
$DIMLFAC
 40
1.0
  9
$DIMTOFL
 70
     1
  9
$DIMTVP
 40
1.6000000000000001
  9
$DIMTIX
 70
     1
  9
$DIMSOXD
 70
     0
  9
$DIMSAH
 70
     0
  9
$DIMBLK1
  1

  9
$DIMBLK2
  1

  9
$DIMSTYLE
  2
STANDARD
  9
$DIMCLRD
 70
     0
  9
$DIMCLRE
 70
     0
  9
$DIMCLRT
 70
     0
  9
$DIMTFAC
 40
1.0
  9
$DIMGAP
 40
0.09
  9
$LUNITS
 70
     2
  9
$LUPREC
 70
     1
  9
$SKETCHINC
 40
0.1
  9
$FILLETRAD
 40
0.0
  9
$AUNITS
 70
     0
  9
$AUPREC
 70
     0
  9
$MENU
  1
E:\r13\win\SUPPORT\ACAD
  9
$ELEVATION
 40
0.0
  9
$PELEVATION
 40
0.0
  9
$THICKNESS
 40
0.0
  9
$LIMCHECK
 70
     0
  9
$BLIPMODE
 70
     0
  9
$CHAMFERA
 40
1.6000000000000001
  9
$CHAMFERB
 40
1.6000000000000001
  9
$SKPOLY
 70
     0
  9
$TDCREATE
 40
2449840.5944097228
  9
$TDUPDATE
 40
2458472.6574827321
  9
$TDINDWG
 40
0.2053143981
  9
$TDUSRTIMER
 40
0.2053143981
  9
$USRTIMER
 70
     1
  9
$ANGBASE
 50
0.0
  9
$ANGDIR
 70
     0
  9
$PDMODE
 70
     0
  9
$PDSIZE
 40
0.0
  9
$PLINEWID
 40
0.0
  9
$COORDS
 70
     1
  9
$SPLFRAME
 70
     0
  9
$SPLINETYPE
 70
     6
  9
$SPLINESEGS
 70
     8
  9
$ATTDIA
 70
     0
  9
$ATTREQ
 70
     1
  9
$HANDLING
 70
     1
  9
$HANDSEED
  5
2AF1
  9
$SURFTAB1
 70
     6
  9
$SURFTAB2
 70
     6
  9
$SURFTYPE
 70
     6
  9
$SURFU
 70
     6
  9
$SURFV
 70
     6
  9
$UCSNAME
  2

  9
$UCSORG
 10
0.0
 20
0.0
 30
0.0
  9
$UCSXDIR
 10
1.0
 20
0.0
 30
0.0
  9
$UCSYDIR
 10
0.0
 20
1.0
 30
0.0
  9
$PUCSNAME
  2

  9
$PUCSORG
 10
0.0
 20
0.0
 30
0.0
  9
$PUCSXDIR
 10
1.0
 20
0.0
 30
0.0
  9
$PUCSYDIR
 10
0.0
 20
1.0
 30
0.0
  9
$USERI1
 70
     0
  9
$USERI2
 70
     1
  9
$USERI3
 70
     1
  9
$USERI4
 70
     0
  9
$USERI5
 70
     0
  9
$USERR1
 40
0.0
  9
$USERR2
 40
0.0
  9
$USERR3
 40
0.0
  9
$USERR4
 40
0.0
  9
$USERR5
 40
0.0
  9
$WORLDVIEW
 70
     1
  9
$SHADEDGE
 70
     3
  9
$SHADEDIF
 70
    70
  9
$TILEMODE
 70
     1
  9
$MAXACTVP
 70
    16
  9
$PLIMCHECK
 70
     0
  9
$PEXTMIN
 10
1.0000000000000000E+020
 20
1.0000000000000000E+020
 30
1.0000000000000000E+020
  9
$PEXTMAX
 10
-1.0000000000000000E+020
 20
-1.0000000000000000E+020
 30
-1.0000000000000000E+020
  9
$PLIMMIN
 10
0.0
 20
0.0
  9
$PLIMMAX
 10
12.0
 20
9.0
  9
$UNITMODE
 70
     0
  9
$VISRETAIN
 70
     0
  9
$PLINEGEN
 70
     0
  9
$PSLTSCALE
 70
     0
  0
ENDSEC
  0
SECTION
  2
TABLES
  0
TABLE
  2
VPORT
 70
     1
  0
VPORT
  2
*ACTIVE
 70
     0
 10
0.0
 20
0.0
 11
1.0
 21
1.0
 12
551.90311418685121
 22
200.0
 13
0.0
 23
0.0
 14
5.0
 24
5.0
 15
5.0
 25
5.0
 16
0.0
 26
0.0
 36
1.0
 17
0.0
 27
0.0
 37
0.0
 40
400.0
 41
2.7595155709342558
 42
50.0
 43
0.0
 44
0.0
 50
0.0
 51
0.0
 71
     0
 72
   100
 73
     1
 74
     0
 75
     0
 76
     0
 77
     0
 78
     0
  0
ENDTAB
  0
TABLE
  2
LTYPE
 70
     5
  0
LTYPE
  2
CONTINUOUS
 70
     0
  3
Solid Line
 72
    65
 73
     0
 40
0.0
  0
LTYPE
  2
CENTER
 70
     0
  3
____ _ ____ _ ____ _ ____ _ ____ _ ____ _ ____
 72
    65
 73
     4
 40
2.0
 49
1.25
 49
-0.25
 49
0.25
 49
-0.25
  0
LTYPE
  2
HIDDEN
 70
     0
  3
_ _ _ _ _ _ _ _ _ _ _ _ _ _ _ _ _ _ _ _ _ _ _
 72
    65
 73
     2
 40
0.375
 49
0.25
 49
-0.125
  0
LTYPE
  2
PHANTOM
 70
     0
  3
______  __  __  ______  __  __  ______  __  __ 
 72
    65
 73
     6
 40
2.5
 49
1.25
 49
-0.25
 49
0.25
 49
-0.25
 49
0.25
 49
-0.25
  0
LTYPE
  2
PHANTOM2
 70
     0
  3
___ _ _ ___ _ _ ___ _ _ ___ _ _
 72
    65
 73
     6
 40
1.25
 49
0.625
 49
-0.125
 49
0.125
 49
-0.125
 49
0.125
 49
-0.125
  0
ENDTAB
  0
TABLE
  2
LAYER
 70
     4
  0
LAYER
  2
0
 70
     0
 62
     7
  6
CONTINUOUS
  0
LAYER
  2
1
 70
     0
 62
     1
  6
CENTER
  0
LAYER
  2
2
 70
     0
 62
     2
  6
HIDDEN
  0
LAYER
  2
5
 70
     0
 62
     3
  6
PHANTOM
  0
ENDTAB
  0
TABLE
  2
STYLE
 70
     2
  0
STYLE
  2
STANDARD
 70
     0
 40
0.0
 41
1.0
 50
0.0
 71
     0
 42
2.5
  3
TXT
  4
BIGFONT
  0
STYLE
  2
STANDARD1
 70
     0
 40
0.0
 41
1.0
 50
0.0
 71
     0
 42
3.0
  3
txt
  4

  0
ENDTAB
  0
TABLE
  2
VIEW
 70
     1
  0
VIEW
  2
ALL
 70
     0
 40
135.0
 10
110.49579799999999
 20
67.5
 41
0.0
 11
0.0
 21
0.0
 31
1.0
 12
0.0
 22
0.0
 32
0.0
 42
0.0
 43
0.0
 44
0.0
 50
0.0
 71
     0
  0
ENDTAB
  0
TABLE
  2
UCS
 70
     0
  0
ENDTAB
  0
TABLE
  2
APPID
 70
     5
  0
APPID
  2
ACAD
 70
     0
  0
APPID
  2
DCO15
 70
     0
  0
APPID
  2
ACAD_MLEADERVER
 70
     0
  0
APPID
  2
ACAD_EXEMPT_FROM_CAD_STANDARDS
 70
     0
  0
APPID
  2
ACAD_NAV_VCDISPLAY
 70
     0
  0
ENDTAB
  0
TABLE
  2
DIMSTYLE
 70
     1
  0
DIMSTYLE
  2
STANDARD
 70
     0
  3

  4

  5

  6

  7

 40
1.0
 41
0.18
 42
0.0625
 43
0.38
 44
0.18
 45
0.0
 46
0.0
 47
0.0
 48
0.0
140
0.18
141
0.09
142
0.0
143
25.399999999999999
144
1.0
145
0.0
146
1.0
147
0.09
 71
     0
 72
     0
 73
     1
 74
     1
 75
     0
 76
     0
 77
     0
 78
     0
170
     0
171
     2
172
     0
173
     0
174
     0
175
     0
176
     0
177
     0
178
     0
  0
ENDTAB
  0
ENDSEC
  0
SECTION
  2
BLOCKS
  0
BLOCK
  8
0
  2
$MODEL_SPACE
 70
     0
 10
0.0
 20
0.0
 30
0.0
  3
$MODEL_SPACE
  1

  0
ENDBLK
  5
15D
  8
0
  0
BLOCK
 67
     1
  8
0
  2
$PAPER_SPACE
 70
     0
 10
0.0
 20
0.0
 30
0.0
  3
$PAPER_SPACE
  1

  0
ENDBLK
  5
15B
 67
     1
  8
0
  0
ENDSEC
  0
SECTION
  2
ENTITIES
  0
LINE
  5
127A
  8
0
 10
112.0
 20
160.0
 30
0.0
 11
110.40000000000001
 21
160.0
 31
0.0
  0
LINE
  5
127B
  8
1
 10
114.5
 20
155.0
 30
0.0
 11
107.90000000000011
 21
155.0
 31
0.0
  0
LINE
  5
127C
  8
0
 10
109.5
 20
142.362742
 30
0.0
 11
110.40000000000001
 21
143.262742
 31
0.0
  0
LINE
  5
127D
  8
0
 10
109.0
 20
141.6999999999999
 30
0.0
 11
109.5
 21
141.19999999999999
 31
0.0
  0
LINE
  5
127E
  8
0
 10
109.5
 20
140.0
 30
0.0
 11
109.5
 21
142.362742
 31
0.0
  0
LINE
  5
1280
  8
0
 10
109.0
 20
118.3
 30
0.0
 11
109.5
 21
118.8
 31
0.0
  0
LINE
  5
1281
  8
0
 10
110.0
 20
126.0
 30
0.0
 11
110.0
 21
134.0
 31
0.0
  0
LINE
  5
1282
  8
2
 10
110.40000000000001
 20
140.0
 30
0.0
 11
110.40000000000001
 21
120.0
 31
0.0
  0
LINE
  5
1283
  8
0
 10
108.2
 20
140.0
 30
0.0
 11
108.2
 21
143.39999999999989
 31
0.0
  0
LINE
  5
1284
  8
0
 10
102.7
 20
140.0
 30
0.0
 11
102.7
 21
143.90000000000001
 31
0.0
  0
ARC
  5
1285
  8
2
 10
106.0
 20
138.0
 30
0.0
 40
2.0
 50
90.0
 51
180.0
  0
LINE
  5
1287
  8
0
 10
106.5
 20
134.0
 30
0.0
 11
106.5
 21
140.0
 31
0.0
  0
LINE
  5
1288
  8
0
 10
107.0
 20
148.0
 30
0.0
 11
104.0
 21
148.0
 31
0.0
  0
ARC
  5
1289
  8
0
 10
107.5
 20
145.5499999999999
 30
0.0
 40
0.5
 50
270.0
 51
0.0
  0
LINE
  5
128A
  8
0
 10
107.5
 20
145.0499999999999
 30
0.0
 11
106.99185850000001
 21
145.0499999999999
 31
0.0
  0
LINE
  5
128B
  8
0
 10
108.0
 20
145.5499999999999
 30
0.0
 11
108.0
 21
147.0
 31
0.0
  0
LINE
  5
128C
  8
0
 10
107.2999999999999
 20
143.90000000000001
 30
0.0
 11
107.7
 21
143.90000000000001
 31
0.0
  0
ARC
  5
128D
  8
0
 10
107.7
 20
143.39999999999989
 30
0.0
 40
0.5
 50
0.0
 51
90.0
  0
ARC
  5
128F
  8
0
 10
102.2272775
 20
144.3343845
 30
0.0
 40
0.5
 50
314.99999999999989
 51
351.99587599999961
  0
LINE
  5
1290
  8
0
 10
102.1464465
 20
143.546447
 30
0.0
 11
102.5808309999999
 21
143.98083099999991
 31
0.0
  0
ARC
  5
1291
  8
0
 10
102.5
 20
143.1928935
 30
0.0
 40
0.5
 50
134.99999999999989
 51
180.0
  0
LINE
  5
1292
  8
0
 10
102.72240650000001
 20
144.26476199999999
 30
0.0
 11
102.7511295
 21
144.38226750000001
 31
0.0
  0
ARC
  5
1294
  8
0
 10
107.0
 20
147.0
 30
0.0
 40
1.0
 50
0.0
 51
90.0
  0
ARC
  5
1295
  8
0
 10
105.0
 20
143.90000000000001
 30
0.0
 40
2.2999999999999989
 50
0.0
 51
180.0
  0
ARC
  5
1296
  8
2
 10
106.0
 20
122.0
 30
0.0
 40
2.0
 50
180.0
 51
270.0
  0
LINE
  5
1297
  8
0
 10
112.0
 20
120.0
 30
0.0
 11
102.0
 21
120.0
 31
0.0
  0
LINE
  5
1298
  8
0
 10
106.5
 20
126.0
 30
0.0
 11
106.5
 21
120.0
 31
0.0
  0
LINE
  5
129A
  8
2
 10
104.0
 20
122.0
 30
0.0
 11
104.0
 21
138.0
 31
0.0
  0
LINE
  5
129C
  8
1
 10
117.0
 20
130.0
 30
0.0
 11
94.999999999999986
 21
130.0
 31
0.0
  0
LINE
  5
129D
  8
1
 10
114.5
 20
136.69999999999999
 30
0.0
 11
100.2
 21
136.6999999999999
 31
0.0
  0
LINE
  5
129E
  8
1
 10
114.5
 20
123.3
 30
0.0
 11
100.2
 21
123.3
 31
0.0
  0
LINE
  5
12A0
  8
0
 10
110.0
 20
126.0
 30
0.0
 11
106.5
 21
126.0
 31
0.0
  0
LINE
  5
12A1
  8
0
 10
112.0
 20
140.0
 30
0.0
 11
102.0
 21
140.0
 31
0.0
  0
LINE
  5
12A2
  8
0
 10
110.0
 20
134.0
 30
0.0
 11
106.5
 21
134.0
 31
0.0
  0
LINE
  5
12A3
  8
0
 10
108.2
 20
141.6999999999999
 30
0.0
 11
109.0
 21
141.6999999999999
 31
0.0
  0
LINE
  5
12A4
  8
0
 10
108.2
 20
118.3
 30
0.0
 11
109.0
 21
118.3
 31
0.0
  0
LINE
  5
12A5
  8
0
 10
109.5
 20
117.6372584999999
 30
0.0
 11
110.40000000000001
 21
116.7372585
 31
0.0
  0
LINE
  5
12A6
  8
0
 10
112.0
 20
100.0
 30
0.0
 11
110.40000000000001
 21
100.0
 31
0.0
  0
ARC
  5
12A9
  8
0
 10
105.0
 20
116.09999999999999
 30
0.0
 40
2.2999999999999989
 50
180.0
 51
0.0
  0
LINE
  5
12AB
  8
0
 10
102.72240650000001
 20
115.735238
 30
0.0
 11
102.7511295
 21
115.6177325
 31
0.0
  0
ARC
  5
12AC
  8
0
 10
102.5
 20
116.8071069999999
 30
0.0
 40
0.5
 50
180.0
 51
225.00000000000011
  0
LINE
  5
12AD
  8
0
 10
102.1464465
 20
116.4535535
 30
0.0
 11
102.5808309999999
 21
116.0191694999999
 31
0.0
  0
ARC
  5
12AE
  8
0
 10
102.2272775
 20
115.665616
 30
0.0
 40
0.5
 50
8.0041240000003828
 51
45.000000000000092
  0
LINE
  5
12AF
  8
0
 10
107.2999999999999
 20
116.09999999999999
 30
0.0
 11
107.7
 21
116.09999999999999
 31
0.0
  0
ARC
  5
12B0
  8
0
 10
107.5
 20
114.45
 30
0.0
 40
0.5
 50
0.0
 51
90.0
  0
LINE
  5
12B1
  8
0
 10
107.5
 20
114.95
 30
0.0
 11
106.99185850000001
 21
114.95
 31
0.0
  0
ARC
  5
12B2
  8
0
 10
107.7
 20
116.59999999999999
 30
0.0
 40
0.5
 50
270.0
 51
0.0
  0
ARC
  5
12B3
  8
0
 10
107.0
 20
113.0
 30
0.0
 40
1.0
 50
270.0
 51
0.0
  0
LINE
  5
12B5
  8
0
 10
108.0
 20
114.45
 30
0.0
 11
108.0
 21
113.0
 31
0.0
  0
LINE
  5
12B6
  8
0
 10
107.0
 20
112.0
 30
0.0
 11
104.0
 21
112.0
 31
0.0
  0
ARC
  5
12B7
  8
0
 10
104.0
 20
116.0
 30
0.0
 40
4.0
 50
180.0
 51
270.0
  0
LINE
  5
12B8
  8
1
 10
114.5
 20
105.0
 30
0.0
 11
107.90000000000011
 21
105.0
 31
0.0
  0
LINE
  5
12B9
  8
0
 10
100.0
 20
116.0
 30
0.0
 11
100.0
 21
144.0
 31
0.0
  0
LINE
  5
12BA
  8
0
 10
102.0
 20
116.8071069999999
 30
0.0
 11
102.0
 21
143.1928935
 31
0.0
  0
LINE
  5
12BB
  8
0
 10
112.0
 20
100.0
 30
0.0
 11
112.0
 21
160.0
 31
0.0
  0
LINE
  5
12BC
  8
0
 10
110.40000000000001
 20
100.0
 30
0.0
 11
110.40000000000001
 21
120.0
 31
0.0
  0
LINE
  5
12BD
  8
0
 10
109.5
 20
117.6372584999999
 30
0.0
 11
109.5
 21
120.0
 31
0.0
  0
LINE
  5
12BE
  8
0
 10
102.7
 20
120.0
 30
0.0
 11
102.7
 21
116.09999999999999
 31
0.0
  0
LINE
  5
12BF
  8
0
 10
108.2
 20
120.0
 30
0.0
 11
108.2
 21
116.59999999999999
 31
0.0
  0
ARC
  5
12C0
  8
0
 10
104.0
 20
144.0
 30
0.0
 40
4.0
 50
90.0
 51
180.0
  0
LINE
  5
12C2
  8
0
 10
110.40000000000001
 20
140.0
 30
0.0
 11
110.40000000000001
 21
160.0
 31
0.0
  0
LINE
  5
16A9
  8
1
 10
197.25
 20
105.0
 30
0.0
 11
188.75
 21
105.0
 31
0.0
  0
LINE
  5
16AA
  8
1
 10
193.0
 20
109.25
 30
0.0
 11
193.0
 21
100.75
 31
0.0
  0
LINE
  5
16AB
  8
1
 10
197.25
 20
154.99999999999989
 30
0.0
 11
188.75
 21
154.99999999999989
 31
0.0
  0
LINE
  5
16AC
  8
1
 10
193.0
 20
159.24999999999989
 30
0.0
 11
193.0
 21
150.74999999999989
 31
0.0
  0
LINE
  5
16AD
  8
1
 10
257.24999999999989
 20
154.99999999999989
 30
0.0
 11
248.74999999999989
 21
154.99999999999989
 31
0.0
  0
LINE
  5
16AE
  8
1
 10
252.99999999999989
 20
159.24999999999989
 30
0.0
 11
252.99999999999989
 21
150.74999999999989
 31
0.0
  0
LINE
  5
16AF
  8
1
 10
257.24999999999989
 20
105.0
 30
0.0
 11
248.74999999999989
 21
105.0
 31
0.0
  0
LINE
  5
16B0
  8
1
 10
252.99999999999989
 20
109.25
 30
0.0
 11
252.99999999999989
 21
100.75
 31
0.0
  0
LINE
  5
16B6
  8
1
 10
806.99999999999977
 20
136.99999999999969
 30
0.0
 11
806.99999999999977
 21
122.9999999999997
 31
0.0
  0
LINE
  5
16B7
  8
1
 10
257.49999999999989
 20
123.3
 30
0.0
 11
232.49999999999989
 21
123.3
 31
0.0
  0
LINE
  5
16B8
  8
1
 10
244.99999999999989
 20
135.80000000000001
 30
0.0
 11
244.99999999999989
 21
110.8
 31
0.0
  0
LINE
  5
16B9
  8
1
 10
207.0
 20
136.99999999999989
 30
0.0
 11
207.0
 21
122.9999999999999
 31
0.0
  0
LINE
  5
16BA
  8
1
 10
213.5
 20
123.3
 30
0.0
 11
188.5
 21
123.3
 31
0.0
  0
LINE
  5
16BB
  8
1
 10
201.0
 20
135.80000000000001
 30
0.0
 11
201.0
 21
110.8
 31
0.0
  0
LINE
  5
16BC
  8
1
 10
235.5
 20
136.69999999999999
 30
0.0
 11
210.5
 21
136.69999999999999
 31
0.0
  0
LINE
  5
16BD
  8
1
 10
223.0
 20
149.19999999999999
 30
0.0
 11
223.0
 21
124.2
 31
0.0
  0
ARC
  5
16BE
  8
0
 10
829.99999999999966
 20
137.99999999999989
 30
0.0
 40
2.0
 50
0.0
 51
90.0
  0
LINE
  5
16BF
  8
1
 10
825.74999999999977
 20
136.99999999999989
 30
0.0
 11
832.24999999999977
 21
136.99999999999989
 31
0.0
  0
LINE
  5
16C0
  8
0
 10
825.99999999999977
 20
133.99999999999989
 30
0.0
 11
831.99999999999977
 21
133.99999999999989
 31
0.0
  0
CIRCLE
  5
16C1
  8
0
 10
828.99999999999966
 20
136.99999999999989
 30
0.0
 40
1.75
  0
LINE
  5
16C2
  8
0
 10
827.99999999999966
 20
139.99999999999989
 30
0.0
 11
829.99999999999966
 21
139.99999999999989
 31
0.0
  0
ARC
  5
16C3
  8
0
 10
827.99999999999966
 20
137.99999999999989
 30
0.0
 40
2.0
 50
90.0
 51
180.0
  0
CIRCLE
  5
16C4
  8
0
 10
828.99999999999966
 20
136.99999999999989
 30
0.0
 40
1.3
  0
LINE
  5
16C5
  8
1
 10
828.99999999999966
 20
133.74999999999989
 30
0.0
 11
828.99999999999966
 21
140.24999999999989
 31
0.0
  0
ARC
  5
16C6
  8
5
 10
820.99999999999966
 20
154.99999999999989
 30
0.0
 40
5.0
 50
0.0
 51
90.0
  0
LINE
  5
16C7
  8
0
 10
825.99999999999977
 20
125.9999999999999
 30
0.0
 11
831.99999999999977
 21
125.9999999999999
 31
0.0
  0
ARC
  5
16C8
  8
0
 10
829.99999999999966
 20
122.0
 30
0.0
 40
2.0
 50
270.0
 51
0.0
  0
CIRCLE
  5
16C9
  8
0
 10
828.99999999999966
 20
123.0
 30
0.0
 40
1.75
  0
LINE
  5
16CA
  8
1
 10
825.74999999999977
 20
123.0
 30
0.0
 11
832.24999999999977
 21
123.0
 31
0.0
  0
LINE
  5
16CB
  8
0
 10
827.99999999999966
 20
120.0
 30
0.0
 11
829.99999999999966
 21
120.0
 31
0.0
  0
CIRCLE
  5
16CC
  8
0
 10
828.99999999999966
 20
123.0
 30
0.0
 40
1.3
  0
ARC
  5
16CD
  8
0
 10
827.99999999999966
 20
122.0
 30
0.0
 40
2.0
 50
180.0
 51
270.0
  0
LINE
  5
16CE
  8
1
 10
828.99999999999966
 20
126.25
 30
0.0
 11
828.99999999999966
 21
119.75
 31
0.0
  0
LINE
  5
16CF
  8
0
 10
825.99999999999977
 20
137.99999999999989
 30
0.0
 11
825.99999999999977
 21
122.0
 31
0.0
  0
ARC
  5
16D1
  8
5
 10
820.99999999999966
 20
105.0
 30
0.0
 40
5.0
 50
270.0
 51
0.0
  0
LINE
  5
16D2
  8
5
 10
825.99999999999977
 20
105.0
 30
0.0
 11
825.99999999999977
 21
154.99999999999989
 31
0.0
  0
LINE
  5
16D5
  8
0
 10
831.99999999999977
 20
147.99999999999989
 30
0.0
 11
831.99999999999977
 21
112.0
 31
0.0
  0
CIRCLE
  5
16D6
  8
0
 10
252.99999999999989
 20
154.99999999999989
 30
0.0
 40
2.25
  0
ARC
  5
16D7
  8
0
 10
252.99999999999989
 20
154.99999999999989
 30
0.0
 40
5.0
 50
0.0
 51
90.0
  0
LINE
  5
16D8
  8
0
 10
257.99999999999989
 20
142.49999999999989
 30
0.0
 11
257.99999999999989
 21
154.99999999999989
 31
0.0
  0
ARC
  5
16D9
  8
0
 10
256.04999999999978
 20
141.24999999999989
 30
0.0
 40
1.25
 50
90.0
 51
270.0
  0
LINE
  5
16DA
  8
0
 10
256.04999999999978
 20
139.99999999999989
 30
0.0
 11
257.99999999999989
 21
139.99999999999989
 31
0.0
  0
LINE
  5
16DB
  8
0
 10
256.04999999999978
 20
142.49999999999989
 30
0.0
 11
257.99999999999989
 21
142.49999999999989
 31
0.0
  0
ARC
  5
16DC
  8
5
 10
760.99999999999966
 20
154.99999999999989
 30
0.0
 40
5.0
 50
90.0
 51
180.0
  0
LINE
  5
16DD
  8
2
 10
251.734984
 20
116.59999999999989
 30
0.0
 11
257.99999999999989
 21
116.59999999999989
 31
0.0
  0
CIRCLE
  5
16DE
  8
0
 10
252.99999999999989
 20
105.0
 30
0.0
 40
2.25
  0
LINE
  5
16DF
  8
0
 10
257.99999999999989
 20
117.5
 30
0.0
 11
257.99999999999989
 21
105.0
 31
0.0
  0
LINE
  5
16E0
  8
0
 10
256.04999999999978
 20
120.0
 30
0.0
 11
257.99999999999989
 21
120.0
 31
0.0
  0
LINE
  5
16E1
  8
0
 10
256.04999999999978
 20
117.5
 30
0.0
 11
257.99999999999989
 21
117.5
 31
0.0
  0
ARC
  5
16E2
  8
0
 10
256.04999999999978
 20
118.75
 30
0.0
 40
1.25
 50
90.0
 51
270.0
  0
ARC
  5
16E3
  8
0
 10
252.99999999999989
 20
105.0
 30
0.0
 40
5.0
 50
270.0
 51
0.0
  0
ARC
  5
16E4
  8
5
 10
760.99999999999966
 20
105.0
 30
0.0
 40
5.0
 50
180.0
 51
270.0
  0
LINE
  5
16E5
  8
0
 10
257.99999999999989
 20
139.99999999999989
 30
0.0
 11
257.99999999999989
 21
120.0
 31
0.0
  0
LINE
  5
16E6
  8
2
 10
256.39999999999992
 20
139.99999999999989
 30
0.0
 11
256.39999999999992
 21
120.0
 31
0.0
  0
LINE
  5
16E7
  8
5
 10
755.99999999999966
 20
154.99999999999989
 30
0.0
 11
755.99999999999966
 21
105.0
 31
0.0
  0
CIRCLE
  5
16E8
  8
0
 10
223.0
 20
136.69999999999999
 30
0.0
 40
2.5
  0
CIRCLE
  5
16E9
  8
0
 10
193.0
 20
154.99999999999989
 30
0.0
 40
2.25
  0
ARC
  5
16EA
  8
0
 10
193.0
 20
154.99999999999989
 30
0.0
 40
5.0
 50
90.0
 51
180.0
  0
LINE
  5
16EB
  8
0
 10
189.9499999999999
 20
142.49999999999989
 30
0.0
 11
188.0
 21
142.49999999999989
 31
0.0
  0
LINE
  5
16EC
  8
0
 10
189.9499999999999
 20
139.99999999999989
 30
0.0
 11
188.0
 21
139.99999999999989
 31
0.0
  0
ARC
  5
16ED
  8
0
 10
189.9499999999999
 20
141.24999999999989
 30
0.0
 40
1.25
 50
270.0
 51
90.0
  0
LINE
  5
16EE
  8
0
 10
188.0
 20
142.49999999999989
 30
0.0
 11
188.0
 21
154.99999999999989
 31
0.0
  0
LINE
  5
16EF
  8
2
 10
188.0
 20
143.39999999999989
 30
0.0
 11
216.265017
 21
143.39999999999989
 31
0.0
  0
CIRCLE
  5
16F0
  8
0
 10
244.99999999999989
 20
123.3
 30
0.0
 40
2.5
  0
CIRCLE
  5
16F1
  8
0
 10
193.0
 20
105.0
 30
0.0
 40
2.25
  0
LINE
  5
16F2
  8
2
 10
188.0
 20
116.59999999999989
 30
0.0
 11
194.26501699999989
 21
116.59999999999989
 31
0.0
  0
LINE
  5
16F3
  8
0
 10
189.9499999999999
 20
120.0
 30
0.0
 11
188.0
 21
120.0
 31
0.0
  0
LINE
  5
16F4
  8
0
 10
189.9499999999999
 20
117.5
 30
0.0
 11
188.0
 21
117.5
 31
0.0
  0
ARC
  5
16F5
  8
0
 10
189.9499999999999
 20
118.75
 30
0.0
 40
1.25
 50
270.0
 51
90.0
  0
LINE
  5
16F6
  8
0
 10
188.0
 20
117.5
 30
0.0
 11
188.0
 21
105.0
 31
0.0
  0
CIRCLE
  5
16F8
  8
0
 10
201.0
 20
123.3
 30
0.0
 40
2.5
  0
CIRCLE
  5
16F9
  8
0
 10
201.0
 20
123.3
 30
0.0
 40
5.0
  0
CIRCLE
  5
16FA
  8
0
 10
201.0
 20
123.3
 30
0.0
 40
5.9000000000000004
  0
ARC
  5
16FB
  8
0
 10
193.0
 20
105.0
 30
0.0
 40
5.0
 50
180.0
 51
270.0
  0
LINE
  5
16FC
  8
2
 10
207.73498399999991
 20
116.59999999999989
 30
0.0
 11
238.26501699999989
 21
116.59999999999989
 31
0.0
  0
ARC
  5
16FE
  8
2
 10
223.0
 20
136.69999999999999
 30
0.0
 40
9.5
 50
118.4843549999984
 51
61.515645000001513
  0
LINE
  5
1700
  8
0
 10
188.0
 20
139.99999999999989
 30
0.0
 11
188.0
 21
120.0
 31
0.0
  0
LINE
  5
1701
  8
2
 10
189.59999999999991
 20
139.99999999999989
 30
0.0
 11
189.59999999999991
 21
120.0
 31
0.0
  0
CIRCLE
  5
1702
  8
2
 10
207.0
 20
129.99999999999989
 30
0.0
 40
4.0
  0
CIRCLE
  5
1703
  8
2
 10
207.0
 20
129.99999999999989
 30
0.0
 40
2.25
  0
ARC
  5
1704
  8
2
 10
201.0
 20
123.3
 30
0.0
 40
9.5
 50
298.48435499999852
 51
241.51564500000151
  0
CIRCLE
  5
1705
  8
0
 10
223.0
 20
136.69999999999999
 30
0.0
 40
5.0
  0
CIRCLE
  5
1706
  8
0
 10
223.0
 20
136.69999999999999
 30
0.0
 40
5.9000000000000004
  0
ARC
  5
1707
  8
2
 10
244.99999999999989
 20
123.3
 30
0.0
 40
9.5
 50
298.48435499999852
 51
241.51564500000151
  0
LINE
  5
1708
  8
2
 10
188.0
 20
114.95
 30
0.0
 11
257.99999999999989
 21
114.95
 31
0.0
  0
LINE
  5
1709
  8
2
 10
188.0
 20
112.0
 30
0.0
 11
257.99999999999989
 21
112.0
 31
0.0
  0
LINE
  5
170A
  8
0
 10
252.99999999999989
 20
100.0
 30
0.0
 11
193.0
 21
100.0
 31
0.0
  0
CIRCLE
  5
170B
  8
0
 10
244.99999999999989
 20
123.3
 30
0.0
 40
5.9000000000000004
  0
CIRCLE
  5
170C
  8
0
 10
244.99999999999989
 20
123.3
 30
0.0
 40
5.0
  0
LINE
  5
170D
  8
2
 10
188.0
 20
145.05000000000001
 30
0.0
 11
257.99999999999989
 21
145.05000000000001
 31
0.0
  0
LINE
  5
170E
  8
2
 10
188.0
 20
147.99999999999989
 30
0.0
 11
257.99999999999989
 21
147.99999999999989
 31
0.0
  0
LINE
  5
170F
  8
0
 10
252.99999999999989
 20
159.99999999999989
 30
0.0
 11
193.0
 21
159.99999999999989
 31
0.0
  0
LINE
  5
1710
  8
2
 10
229.73498399999991
 20
143.39999999999989
 30
0.0
 11
257.99999999999989
 21
143.39999999999989
 31
0.0
  0
LINE
  5
1711
  8
0
 10
831.99999999999977
 20
112.0
 30
0.0
 11
257.99999999999989
 21
112.0
 31
0.0
  0
LINE
  5
1712
  8
0
 10
831.99999999999977
 20
114.9499999999999
 30
0.0
 11
257.99999999999989
 21
114.95
 31
0.0
  0
LINE
  5
1713
  8
0
 10
831.99999999999977
 20
116.59999999999989
 30
0.0
 11
257.99999999999989
 21
116.59999999999989
 31
0.0
  0
LINE
  5
1714
  8
0
 10
831.99999999999977
 20
147.99999999999989
 30
0.0
 11
257.99999999999989
 21
147.99999999999989
 31
0.0
  0
LINE
  5
1715
  8
0
 10
831.99999999999977
 20
145.05000000000001
 30
0.0
 11
257.99999999999989
 21
145.05000000000001
 31
0.0
  0
LINE
  5
1716
  8
0
 10
831.99999999999977
 20
143.40000000000001
 30
0.0
 11
257.99999999999989
 21
143.39999999999989
 31
0.0
  0
LINE
  5
1717
  8
5
 10
760.99999999999966
 20
159.99999999999989
 30
0.0
 11
820.99999999999966
 21
159.99999999999989
 31
0.0
  0
LINE
  5
1718
  8
5
 10
760.99999999999966
 20
100.0
 30
0.0
 11
820.99999999999966
 21
100.0
 31
0.0
  0
CIRCLE
  5
1719
  8
0
 10
806.99999999999977
 20
129.99999999999989
 30
0.0
 40
2.25
  0
LINE
  5
171D
  8
1
 10
185.0
 20
133.74999999999989
 30
0.0
 11
185.0
 21
140.24999999999989
 31
0.0
  0
ARC
  5
171E
  8
0
 10
184.0
 20
137.99999999999989
 30
0.0
 40
2.0
 50
90.0
 51
180.0
  0
CIRCLE
  5
171F
  8
0
 10
185.0
 20
136.99999999999989
 30
0.0
 40
1.3
  0
LINE
  5
1720
  8
0
 10
186.0
 20
139.99999999999989
 30
0.0
 11
184.0
 21
139.99999999999989
 31
0.0
  0
LINE
  5
1721
  8
1
 10
185.0
 20
126.25
 30
0.0
 11
185.0
 21
119.75
 31
0.0
  0
ARC
  5
1722
  8
0
 10
184.0
 20
122.0
 30
0.0
 40
2.0
 50
180.0
 51
270.0
  0
CIRCLE
  5
1724
  8
0
 10
185.0
 20
123.0
 30
0.0
 40
1.3
  0
LINE
  5
1725
  8
0
 10
186.0
 20
120.0
 30
0.0
 11
184.0
 21
120.0
 31
0.0
  0
LINE
  5
1727
  8
0
 10
182.0
 20
147.99999999999989
 30
0.0
 11
182.0
 21
112.0
 31
0.0
  0
LINE
  5
1728
  8
1
 10
842.0
 20
129.9999999999998
 30
0.0
 11
172.0
 21
130.0
 31
0.0
  0
LINE
  5
1729
  8
0
 10
188.0
 20
116.59999999999989
 30
0.0
 11
182.0
 21
116.59999999999989
 31
0.0
  0
LINE
  5
172A
  8
0
 10
188.0
 20
114.95
 30
0.0
 11
182.0
 21
114.95
 31
0.0
  0
LINE
  5
172B
  8
0
 10
188.0
 20
112.0
 30
0.0
 11
182.0
 21
112.0
 31
0.0
  0
ARC
  5
172C
  8
0
 10
186.0
 20
122.0
 30
0.0
 40
2.0
 50
270.0
 51
0.0
  0
LINE
  5
172D
  8
0
 10
188.0
 20
125.9999999999999
 30
0.0
 11
182.0
 21
125.9999999999999
 31
0.0
  0
LINE
  5
172E
  8
1
 10
188.25
 20
123.0
 30
0.0
 11
181.75
 21
123.0
 31
0.0
  0
CIRCLE
  5
172F
  8
0
 10
185.0
 20
123.0
 30
0.0
 40
1.75
  0
LINE
  5
1730
  8
0
 10
188.0
 20
143.39999999999989
 30
0.0
 11
182.0
 21
143.39999999999989
 31
0.0
  0
ARC
  5
1731
  8
0
 10
186.0
 20
137.99999999999989
 30
0.0
 40
2.0
 50
0.0
 51
90.0
  0
CIRCLE
  5
1732
  8
0
 10
185.0
 20
136.99999999999989
 30
0.0
 40
1.75
  0
LINE
  5
1733
  8
1
 10
188.25
 20
136.99999999999989
 30
0.0
 11
181.75
 21
136.99999999999989
 31
0.0
  0
LINE
  5
1734
  8
0
 10
188.0
 20
133.99999999999989
 30
0.0
 11
182.0
 21
133.99999999999989
 31
0.0
  0
LINE
  5
1735
  8
0
 10
188.0
 20
147.99999999999989
 30
0.0
 11
182.0
 21
147.99999999999989
 31
0.0
  0
LINE
  5
1736
  8
0
 10
188.0
 20
145.05000000000001
 30
0.0
 11
182.0
 21
145.05000000000001
 31
0.0
  0
CIRCLE
  5
174F
  8
0
 10
806.99999999999977
 20
129.9999999999998
 30
0.0
 40
4.0
  0
LINE
  5
1750
  8
1
 10
706.99999999999966
 20
136.99999999999969
 30
0.0
 11
706.99999999999966
 21
122.9999999999997
 31
0.0
  0
CIRCLE
  5
1751
  8
0
 10
706.99999999999966
 20
129.9999999999998
 30
0.0
 40
4.0
  0
CIRCLE
  5
1752
  8
0
 10
706.99999999999966
 20
129.99999999999989
 30
0.0
 40
2.25
  0
LINE
  5
1754
  8
1
 10
606.99999999999966
 20
136.99999999999969
 30
0.0
 11
606.99999999999966
 21
122.9999999999997
 31
0.0
  0
CIRCLE
  5
1755
  8
0
 10
606.99999999999966
 20
129.99999999999989
 30
0.0
 40
2.25
  0
CIRCLE
  5
1757
  8
0
 10
606.99999999999966
 20
129.9999999999998
 30
0.0
 40
4.0
  0
LINE
  5
1758
  8
1
 10
406.99999999999972
 20
136.99999999999969
 30
0.0
 11
406.99999999999972
 21
122.9999999999997
 31
0.0
  0
CIRCLE
  5
1759
  8
0
 10
406.99999999999972
 20
129.9999999999998
 30
0.0
 40
4.0
  0
CIRCLE
  5
175A
  8
0
 10
406.99999999999972
 20
129.99999999999989
 30
0.0
 40
2.25
  0
LINE
  5
175C
  8
1
 10
506.99999999999972
 20
136.99999999999969
 30
0.0
 11
506.99999999999972
 21
122.9999999999997
 31
0.0
  0
CIRCLE
  5
175D
  8
0
 10
506.99999999999972
 20
129.99999999999989
 30
0.0
 40
2.25
  0
CIRCLE
  5
175F
  8
0
 10
506.99999999999972
 20
129.9999999999998
 30
0.0
 40
4.0
  0
LINE
  5
1760
  8
1
 10
306.99999999999977
 20
136.99999999999969
 30
0.0
 11
306.99999999999977
 21
122.9999999999997
 31
0.0
  0
CIRCLE
  5
1761
  8
0
 10
306.99999999999977
 20
129.9999999999998
 30
0.0
 40
4.0
  0
CIRCLE
  5
1762
  8
0
 10
306.99999999999977
 20
129.99999999999989
 30
0.0
 40
2.25
  0
TEXT
  5
184F
  8
0
 62
     3
 10
0.0
 20
0.0
 30
0.0
 40
10.0
  1
ARR36-650
  7
STANDARD1
  0
ARC
  5
26D0
  8
0
 10
229.6999999999999
 20
234.2999999999999
 30
0.0
 40
0.5000000000001137
 50
270.0
 51
323.13010235415032
  0
ARC
  5
26D1
  8
0
 10
216.29999999999981
 20
234.2999999999999
 30
0.0
 40
0.5000000000001137
 50
216.86989764584601
 51
270.0
  0
LINE
  5
26D2
  8
0
 10
229.5627419999997
 20
231.59999999999999
 30
0.0
 11
228.66274199999981
 21
232.4999999999998
 31
0.0
  0
LINE
  5
26D3
  8
0
 10
217.33725799999971
 20
232.4999999999998
 30
0.0
 11
216.43725799999979
 21
231.59999999999999
 31
0.0
  0
LINE
  5
26D4
  8
0
 10
227.99999999999969
 20
233.0
 30
0.0
 11
227.99999999999969
 21
233.79999999999981
 31
0.0
  0
LINE
  5
26D5
  8
0
 10
217.99999999999969
 20
233.79999999999981
 30
0.0
 11
217.99999999999969
 21
233.0
 31
0.0
  0
LINE
  5
26D6
  8
0
 10
217.99999999999969
 20
233.0
 30
0.0
 11
218.4999999999996
 21
232.4999999999998
 31
0.0
  0
LINE
  5
26D7
  8
0
 10
227.49999999999969
 20
232.4999999999998
 30
0.0
 11
227.99999999999969
 21
233.0
 31
0.0
  0
ARC
  5
26D8
  8
0
 10
207.6999999999999
 20
234.2999999999999
 30
0.0
 40
0.5000000000001137
 50
270.0
 51
323.13010235417102
  0
ARC
  5
26D9
  8
0
 10
194.29999999999981
 20
234.2999999999999
 30
0.0
 40
0.5000000000002274
 50
216.86989764582319
 51
270.0
  0
ARC
  5
26DA
  8
0
 10
251.6999999999999
 20
234.2999999999999
 30
0.0
 40
0.5000000000001137
 50
270.0
 51
323.13010235417102
  0
ARC
  5
26DB
  8
0
 10
238.2999999999999
 20
234.2999999999999
 30
0.0
 40
0.5000000000001137
 50
216.86989764583129
 51
270.0
  0
LINE
  5
26DC
  8
0
 10
207.5627419999997
 20
231.59999999999999
 30
0.0
 11
206.66274199999989
 21
232.4999999999998
 31
0.0
  0
LINE
  5
26DD
  8
0
 10
195.33725799999971
 20
232.4999999999998
 30
0.0
 11
194.43725799999979
 21
231.59999999999999
 31
0.0
  0
LINE
  5
26DE
  8
0
 10
251.5627419999997
 20
231.59999999999999
 30
0.0
 11
250.66274199999989
 21
232.4999999999998
 31
0.0
  0
LINE
  5
26DF
  8
0
 10
239.33725799999971
 20
232.4999999999998
 30
0.0
 11
238.43725799999959
 21
231.59999999999999
 31
0.0
  0
LINE
  5
26E0
  8
0
 10
205.9999999999996
 20
233.0
 30
0.0
 11
205.9999999999996
 21
233.79999999999981
 31
0.0
  0
LINE
  5
26E1
  8
0
 10
195.9999999999996
 20
233.79999999999981
 30
0.0
 11
195.9999999999996
 21
233.0
 31
0.0
  0
LINE
  5
26E2
  8
0
 10
249.9999999999996
 20
233.0
 30
0.0
 11
249.9999999999996
 21
233.79999999999981
 31
0.0
  0
LINE
  5
26E3
  8
0
 10
239.99999999999969
 20
233.79999999999981
 30
0.0
 11
239.99999999999969
 21
233.0
 31
0.0
  0
LINE
  5
26E4
  8
0
 10
239.99999999999969
 20
233.0
 30
0.0
 11
240.49999999999969
 21
232.4999999999998
 31
0.0
  0
LINE
  5
26E5
  8
0
 10
249.4999999999996
 20
232.4999999999998
 30
0.0
 11
249.9999999999996
 21
233.0
 31
0.0
  0
LINE
  5
26E6
  8
0
 10
195.9999999999996
 20
233.0
 30
0.0
 11
196.4999999999996
 21
232.4999999999998
 31
0.0
  0
LINE
  5
26E7
  8
0
 10
205.49999999999969
 20
232.4999999999998
 30
0.0
 11
205.9999999999996
 21
233.0
 31
0.0
  0
LINE
  5
26E8
  8
0
 10
832.0
 20
241.99999999999989
 30
0.0
 11
182.0
 21
241.99999999999989
 31
0.0
  0
LINE
  5
26E9
  8
0
 10
832.0
 20
233.99999999999989
 30
0.0
 11
832.0
 21
241.99999999999989
 31
0.0
  0
LINE
  5
26EA
  8
0
 10
182.0
 20
233.99999999999989
 30
0.0
 11
182.0
 21
241.99999999999989
 31
0.0
  0
LINE
  5
26ED
  8
0
 10
832.0
 20
233.99999999999989
 30
0.0
 11
182.0
 21
233.99999999999989
 31
0.0
  0
LINE
  5
26F0
  8
0
 10
257.99999999999989
 20
229.99999999999989
 30
0.0
 11
257.99999999999989
 21
231.59999999999999
 31
0.0
  0
LINE
  5
26F4
  8
0
 10
187.9999999999996
 20
229.99999999999989
 30
0.0
 11
187.9999999999996
 21
231.59999999999999
 31
0.0
  0
LINE
  5
26F6
  8
0
 10
257.99999999999977
 20
229.9999999999998
 30
0.0
 11
187.9999999999996
 21
229.99999999999989
 31
0.0
  0
LINE
  5
26F7
  8
0
 10
257.99999999999977
 20
231.59999999999999
 30
0.0
 11
187.9999999999996
 21
231.59999999999999
 31
0.0
  0
LINE
  5
26F8
  8
0
 10
229.6999999999999
 20
233.79999999999981
 30
0.0
 11
216.30000080703729
 21
233.79999999999981
 31
0.0
  0
LINE
  5
26F9
  8
0
 10
228.66274199999961
 20
232.4999999999998
 30
0.0
 11
217.33725799999971
 21
232.4999999999998
 31
0.0
  0
LINE
  5
26FA
  8
0
 10
227.99999999999969
 20
233.0
 30
0.0
 11
217.99999999999969
 21
233.0
 31
0.0
  0
LINE
  5
26FB
  8
0
 10
207.6999999999999
 20
233.79999999999981
 30
0.0
 11
194.30000080703721
 21
233.79999999999981
 31
0.0
  0
LINE
  5
26FC
  8
0
 10
251.6999999999999
 20
233.79999999999981
 30
0.0
 11
238.30000080703721
 21
233.79999999999981
 31
0.0
  0
LINE
  5
26FD
  8
0
 10
206.66274199999989
 20
232.4999999999998
 30
0.0
 11
195.33725799999971
 21
232.4999999999998
 31
0.0
  0
LINE
  5
26FE
  8
0
 10
250.66274199999989
 20
232.4999999999998
 30
0.0
 11
239.33725799999971
 21
232.4999999999998
 31
0.0
  0
LINE
  5
26FF
  8
0
 10
205.9999999999996
 20
233.0
 30
0.0
 11
195.9999999999996
 21
233.0
 31
0.0
  0
LINE
  5
2700
  8
0
 10
249.9999999999996
 20
233.0
 30
0.0
 11
239.99999999999969
 21
233.0
 31
0.0
  0
LINE
  5
27FC
  8
1
 10
207.0
 20
244.99999999999989
 30
0.0
 11
207.0
 21
231.0
 31
0.0
  0
LINE
  5
27FD
  8
1
 10
306.99999999999977
 20
244.99999999999989
 30
0.0
 11
306.99999999999977
 21
231.0
 31
0.0
  0
LINE
  5
27FE
  8
1
 10
406.99999999999972
 20
244.99999999999989
 30
0.0
 11
406.99999999999972
 21
231.0
 31
0.0
  0
LINE
  5
27FF
  8
1
 10
506.99999999999972
 20
244.99999999999989
 30
0.0
 11
506.99999999999972
 21
231.0
 31
0.0
  0
LINE
  5
2800
  8
1
 10
606.99999999999966
 20
244.99999999999989
 30
0.0
 11
606.99999999999966
 21
231.0
 31
0.0
  0
LINE
  5
2801
  8
1
 10
706.99999999999966
 20
244.99999999999989
 30
0.0
 11
706.99999999999966
 21
231.0
 31
0.0
  0
LINE
  5
2802
  8
1
 10
806.99999999999977
 20
244.99999999999989
 30
0.0
 11
806.99999999999977
 21
231.0
 31
0.0
  0
LINE
  5
2805
  8
1
 10
193.0
 20
227.49999999999989
 30
0.0
 11
193.0
 21
234.09999999999999
 31
0.0
  0
LINE
  5
2806
  8
1
 10
252.99999999999989
 20
227.4999999999998
 30
0.0
 11
252.99999999999989
 21
234.09999999999999
 31
0.0
  0
LINE
  5
2809
  8
1
 10
201.0
 20
227.49999999999989
 30
0.0
 11
201.0
 21
241.7999999999999
 31
0.0
  0
LINE
  5
280A
  8
1
 10
223.0
 20
227.4999999999998
 30
0.0
 11
223.0
 21
241.7999999999999
 31
0.0
  0
LINE
  5
280B
  8
1
 10
244.99999999999989
 20
227.4999999999998
 30
0.0
 11
244.99999999999989
 21
241.7999999999999
 31
0.0
  0
ENDSEC
  0
EOF
