  0
SECTION
  2
HEADER
  9
$ACADVER
  1
AC1009
  9
$INSBASE
 10
0.0
 20
0.0
 30
0.0
  9
$EXTMIN
 10
-0.0204638472032742
 20
-2.960436562073669
 30
0.0
  9
$EXTMAX
 10
341.99999999999989
 20
245.0
 30
0.0
  9
$LIMMIN
 10
0.0
 20
0.0
  9
$LIMMAX
 10
187.5
 20
135.0
  9
$ORTHOMODE
 70
     1
  9
$REGENMODE
 70
     1
  9
$FILLMODE
 70
     1
  9
$QTEXTMODE
 70
     0
  9
$MIRRTEXT
 70
     0
  9
$DRAGMODE
 70
     2
  9
$LTSCALE
 40
10.0
  9
$OSMODE
 70
    37
  9
$ATTMODE
 70
     1
  9
$TEXTSIZE
 40
2.5
  9
$TRACEWID
 40
0.05
  9
$TEXTSTYLE
  7
STANDARD
  9
$CLAYER
  8
0
  9
$CELTYPE
  6
BYLAYER
  9
$CECOLOR
 62
   256
  9
$DIMSCALE
 40
1.0
  9
$DIMASZ
 40
3.0
  9
$DIMEXO
 40
2.0
  9
$DIMDLI
 40
10.0
  9
$DIMRND
 40
0.0
  9
$DIMDLE
 40
0.0
  9
$DIMEXE
 40
2.0
  9
$DIMTP
 40
0.0
  9
$DIMTM
 40
0.0
  9
$DIMTXT
 40
3.0
  9
$DIMCEN
 40
0.09
  9
$DIMTSZ
 40
0.0
  9
$DIMTOL
 70
     0
  9
$DIMLIM
 70
     0
  9
$DIMTIH
 70
     0
  9
$DIMTOH
 70
     0
  9
$DIMSE1
 70
     0
  9
$DIMSE2
 70
     0
  9
$DIMTAD
 70
     1
  9
$DIMZIN
 70
     8
  9
$DIMBLK
  1

  9
$DIMASO
 70
     0
  9
$DIMSHO
 70
     0
  9
$DIMPOST
  1

  9
$DIMAPOST
  1

  9
$DIMALT
 70
     0
  9
$DIMALTD
 70
     2
  9
$DIMALTF
 40
25.399999999999999
  9
$DIMLFAC
 40
1.0
  9
$DIMTOFL
 70
     1
  9
$DIMTVP
 40
1.6000000000000001
  9
$DIMTIX
 70
     1
  9
$DIMSOXD
 70
     0
  9
$DIMSAH
 70
     0
  9
$DIMBLK1
  1

  9
$DIMBLK2
  1

  9
$DIMSTYLE
  2
STANDARD
  9
$DIMCLRD
 70
     0
  9
$DIMCLRE
 70
     0
  9
$DIMCLRT
 70
     0
  9
$DIMTFAC
 40
1.0
  9
$DIMGAP
 40
1.0
  9
$LUNITS
 70
     2
  9
$LUPREC
 70
     1
  9
$SKETCHINC
 40
0.1
  9
$FILLETRAD
 40
0.0
  9
$AUNITS
 70
     0
  9
$AUPREC
 70
     0
  9
$MENU
  1
E:\r13\win\SUPPORT\ACAD
  9
$ELEVATION
 40
0.0
  9
$PELEVATION
 40
0.0
  9
$THICKNESS
 40
0.0
  9
$LIMCHECK
 70
     0
  9
$BLIPMODE
 70
     0
  9
$CHAMFERA
 40
1.6000000000000001
  9
$CHAMFERB
 40
1.6000000000000001
  9
$SKPOLY
 70
     0
  9
$TDCREATE
 40
2449840.5944097228
  9
$TDUPDATE
 40
2458472.6574532641
  9
$TDINDWG
 40
0.3000408218
  9
$TDUSRTIMER
 40
0.3000408218
  9
$USRTIMER
 70
     1
  9
$ANGBASE
 50
0.0
  9
$ANGDIR
 70
     0
  9
$PDMODE
 70
     0
  9
$PDSIZE
 40
0.0
  9
$PLINEWID
 40
0.0
  9
$COORDS
 70
     1
  9
$SPLFRAME
 70
     0
  9
$SPLINETYPE
 70
     6
  9
$SPLINESEGS
 70
     8
  9
$ATTDIA
 70
     0
  9
$ATTREQ
 70
     1
  9
$HANDLING
 70
     1
  9
$HANDSEED
  5
2824
  9
$SURFTAB1
 70
     6
  9
$SURFTAB2
 70
     6
  9
$SURFTYPE
 70
     6
  9
$SURFU
 70
     6
  9
$SURFV
 70
     6
  9
$UCSNAME
  2

  9
$UCSORG
 10
0.0
 20
0.0
 30
0.0
  9
$UCSXDIR
 10
1.0
 20
0.0
 30
0.0
  9
$UCSYDIR
 10
0.0
 20
1.0
 30
0.0
  9
$PUCSNAME
  2

  9
$PUCSORG
 10
0.0
 20
0.0
 30
0.0
  9
$PUCSXDIR
 10
1.0
 20
0.0
 30
0.0
  9
$PUCSYDIR
 10
0.0
 20
1.0
 30
0.0
  9
$USERI1
 70
     0
  9
$USERI2
 70
     1
  9
$USERI3
 70
     1
  9
$USERI4
 70
     0
  9
$USERI5
 70
     0
  9
$USERR1
 40
0.0
  9
$USERR2
 40
0.0
  9
$USERR3
 40
0.0
  9
$USERR4
 40
0.0
  9
$USERR5
 40
0.0
  9
$WORLDVIEW
 70
     1
  9
$SHADEDGE
 70
     3
  9
$SHADEDIF
 70
    70
  9
$TILEMODE
 70
     1
  9
$MAXACTVP
 70
    16
  9
$PLIMCHECK
 70
     0
  9
$PEXTMIN
 10
1.0000000000000000E+020
 20
1.0000000000000000E+020
 30
1.0000000000000000E+020
  9
$PEXTMAX
 10
-1.0000000000000000E+020
 20
-1.0000000000000000E+020
 30
-1.0000000000000000E+020
  9
$PLIMMIN
 10
0.0
 20
0.0
  9
$PLIMMAX
 10
12.0
 20
9.0
  9
$UNITMODE
 70
     0
  9
$VISRETAIN
 70
     0
  9
$PLINEGEN
 70
     0
  9
$PSLTSCALE
 70
     0
  0
ENDSEC
  0
SECTION
  2
TABLES
  0
TABLE
  2
VPORT
 70
     1
  0
VPORT
  2
*ACTIVE
 70
     0
 10
0.0
 20
0.0
 11
1.0
 21
1.0
 12
413.92733564013838
 22
150.0
 13
0.0
 23
0.0
 14
5.0
 24
5.0
 15
5.0
 25
5.0
 16
0.0
 26
0.0
 36
1.0
 17
0.0
 27
0.0
 37
0.0
 40
300.0
 41
2.7595155709342558
 42
50.0
 43
0.0
 44
0.0
 50
0.0
 51
0.0
 71
     0
 72
   100
 73
     1
 74
     0
 75
     0
 76
     1
 77
     0
 78
     0
  0
ENDTAB
  0
TABLE
  2
LTYPE
 70
     5
  0
LTYPE
  2
CONTINUOUS
 70
     0
  3
Solid Line
 72
    65
 73
     0
 40
0.0
  0
LTYPE
  2
CENTER
 70
     0
  3
____ _ ____ _ ____ _ ____ _ ____ _ ____ _ ____
 72
    65
 73
     4
 40
2.0
 49
1.25
 49
-0.25
 49
0.25
 49
-0.25
  0
LTYPE
  2
HIDDEN
 70
     0
  3
_ _ _ _ _ _ _ _ _ _ _ _ _ _ _ _ _ _ _ _ _ _ _
 72
    65
 73
     2
 40
0.375
 49
0.25
 49
-0.125
  0
LTYPE
  2
PHANTOM
 70
     0
  3
______  __  __  ______  __  __  ______  __  __ 
 72
    65
 73
     6
 40
2.5
 49
1.25
 49
-0.25
 49
0.25
 49
-0.25
 49
0.25
 49
-0.25
  0
LTYPE
  2
PHANTOM2
 70
     0
  3
___ _ _ ___ _ _ ___ _ _ ___ _ _
 72
    65
 73
     6
 40
1.25
 49
0.625
 49
-0.125
 49
0.125
 49
-0.125
 49
0.125
 49
-0.125
  0
ENDTAB
  0
TABLE
  2
LAYER
 70
     4
  0
LAYER
  2
0
 70
     0
 62
     7
  6
CONTINUOUS
  0
LAYER
  2
1
 70
     0
 62
     1
  6
CENTER
  0
LAYER
  2
2
 70
     0
 62
     2
  6
HIDDEN
  0
LAYER
  2
5
 70
     0
 62
     3
  6
PHANTOM
  0
ENDTAB
  0
TABLE
  2
STYLE
 70
     2
  0
STYLE
  2
STANDARD
 70
     0
 40
0.0
 41
1.0
 50
0.0
 71
     0
 42
2.5
  3
TXT
  4
BIGFONT
  0
STYLE
  2
STANDARD1
 70
     0
 40
0.0
 41
1.0
 50
0.0
 71
     0
 42
3.0
  3
txt
  4

  0
ENDTAB
  0
TABLE
  2
VIEW
 70
     1
  0
VIEW
  2
ALL
 70
     0
 40
135.0
 10
110.49579799999999
 20
67.5
 41
0.0
 11
0.0
 21
0.0
 31
1.0
 12
0.0
 22
0.0
 32
0.0
 42
0.0
 43
0.0
 44
0.0
 50
0.0
 71
     0
  0
ENDTAB
  0
TABLE
  2
UCS
 70
     0
  0
ENDTAB
  0
TABLE
  2
APPID
 70
     7
  0
APPID
  2
ACAD
 70
     0
  0
APPID
  2
DCO15
 70
     0
  0
APPID
  2
ACAD_MLEADERVER
 70
     0
  0
APPID
  2
ACAD_NAV_VCDISPLAY
 70
     0
  0
APPID
  2
ACAD_EXEMPT_FROM_CAD_STANDARDS
 70
     0
  0
APPID
  2
ACAD_DSTYLE_DIMJAG
 70
     0
  0
APPID
  2
ACAD_DSTYLE_DIMTALN
 70
     0
  0
ENDTAB
  0
TABLE
  2
DIMSTYLE
 70
     1
  0
DIMSTYLE
  2
STANDARD
 70
     0
  3

  4

  5

  6

  7

 40
1.0
 41
0.18
 42
0.0625
 43
0.38
 44
0.18
 45
0.0
 46
0.0
 47
0.0
 48
0.0
140
0.18
141
0.09
142
0.0
143
25.399999999999999
144
1.0
145
0.0
146
1.0
147
0.09
 71
     0
 72
     0
 73
     1
 74
     1
 75
     0
 76
     0
 77
     0
 78
     0
170
     0
171
     2
172
     0
173
     0
174
     0
175
     0
176
     0
177
     0
178
     0
  0
ENDTAB
  0
ENDSEC
  0
SECTION
  2
BLOCKS
  0
BLOCK
  8
0
  2
$MODEL_SPACE
 70
     0
 10
0.0
 20
0.0
 30
0.0
  3
$MODEL_SPACE
  1

  0
ENDBLK
  5
15D
  8
0
  0
BLOCK
 67
     1
  8
0
  2
$PAPER_SPACE
 70
     0
 10
0.0
 20
0.0
 30
0.0
  3
$PAPER_SPACE
  1

  0
ENDBLK
  5
15B
 67
     1
  8
0
  0
ENDSEC
  0
SECTION
  2
ENTITIES
  0
LINE
  5
102C
  8
1
 10
306.99999999999989
 20
137.0
 30
0.0
 11
306.99999999999989
 21
123.0
 31
0.0
  0
LINE
  5
102D
  8
1
 10
257.49999999999989
 20
123.3
 30
0.0
 11
232.49999999999989
 21
123.3
 31
0.0
  0
LINE
  5
102E
  8
1
 10
244.99999999999989
 20
135.80000000000001
 30
0.0
 11
244.99999999999989
 21
110.8
 31
0.0
  0
LINE
  5
102F
  8
1
 10
207.0
 20
137.0
 30
0.0
 11
207.0
 21
123.0
 31
0.0
  0
LINE
  5
1030
  8
1
 10
213.5
 20
123.3
 30
0.0
 11
188.5
 21
123.3
 31
0.0
  0
LINE
  5
1031
  8
1
 10
201.0
 20
135.80000000000001
 30
0.0
 11
201.0
 21
110.8
 31
0.0
  0
LINE
  5
1032
  8
1
 10
235.5
 20
136.69999999999999
 30
0.0
 11
210.5
 21
136.69999999999999
 31
0.0
  0
LINE
  5
1033
  8
1
 10
223.0
 20
149.19999999999999
 30
0.0
 11
223.0
 21
124.2
 31
0.0
  0
ARC
  5
1035
  8
0
 10
329.99999999999989
 20
138.0
 30
0.0
 40
2.0
 50
0.0
 51
90.0
  0
LINE
  5
1036
  8
1
 10
325.74999999999989
 20
137.0
 30
0.0
 11
332.24999999999989
 21
137.0
 31
0.0
  0
LINE
  5
1037
  8
0
 10
325.99999999999989
 20
134.0
 30
0.0
 11
331.99999999999989
 21
134.0
 31
0.0
  0
CIRCLE
  5
1038
  8
0
 10
328.99999999999989
 20
137.0
 30
0.0
 40
1.75
  0
LINE
  5
1039
  8
0
 10
327.99999999999989
 20
140.0
 30
0.0
 11
329.99999999999989
 21
140.0
 31
0.0
  0
ARC
  5
103A
  8
0
 10
327.99999999999989
 20
138.0
 30
0.0
 40
2.0
 50
90.0
 51
180.0
  0
CIRCLE
  5
103B
  8
0
 10
328.99999999999989
 20
137.0
 30
0.0
 40
1.3
  0
LINE
  5
103C
  8
1
 10
328.99999999999989
 20
133.75
 30
0.0
 11
328.99999999999989
 21
140.25
 31
0.0
  0
ARC
  5
103F
  8
5
 10
320.99999999999989
 20
155.0
 30
0.0
 40
5.0
 50
0.0
 51
90.0
  0
LINE
  5
1046
  8
0
 10
325.99999999999989
 20
126.0
 30
0.0
 11
331.99999999999989
 21
126.0
 31
0.0
  0
ARC
  5
1047
  8
0
 10
329.99999999999989
 20
122.0
 30
0.0
 40
2.0
 50
270.0
 51
0.0
  0
CIRCLE
  5
1048
  8
0
 10
328.99999999999989
 20
123.0
 30
0.0
 40
1.75
  0
LINE
  5
1049
  8
1
 10
325.74999999999989
 20
123.0
 30
0.0
 11
332.24999999999989
 21
123.0
 31
0.0
  0
LINE
  5
104A
  8
0
 10
327.99999999999989
 20
120.0
 30
0.0
 11
329.99999999999989
 21
120.0
 31
0.0
  0
CIRCLE
  5
104B
  8
0
 10
328.99999999999989
 20
123.0
 30
0.0
 40
1.3
  0
ARC
  5
104C
  8
0
 10
327.99999999999989
 20
122.0
 30
0.0
 40
2.0
 50
180.0
 51
270.0
  0
LINE
  5
104D
  8
1
 10
328.99999999999989
 20
126.25
 30
0.0
 11
328.99999999999989
 21
119.75
 31
0.0
  0
LINE
  5
104E
  8
0
 10
325.99999999999989
 20
138.0
 30
0.0
 11
325.99999999999989
 21
122.0
 31
0.0
  0
ARC
  5
1050
  8
5
 10
320.99999999999989
 20
105.0
 30
0.0
 40
5.0
 50
270.0
 51
0.0
  0
LINE
  5
1051
  8
5
 10
325.99999999999989
 20
105.0
 30
0.0
 11
325.99999999999989
 21
155.0
 31
0.0
  0
LINE
  5
1054
  8
0
 10
331.99999999999989
 20
148.0
 30
0.0
 11
331.99999999999989
 21
112.0
 31
0.0
  0
LINE
  5
1055
  8
1
 10
248.74999999999989
 20
155.0
 30
0.0
 11
257.24999999999989
 21
155.0
 31
0.0
  0
CIRCLE
  5
1056
  8
0
 10
252.99999999999989
 20
155.0
 30
0.0
 40
2.25
  0
ARC
  5
1057
  8
0
 10
252.99999999999989
 20
155.0
 30
0.0
 40
5.0
 50
0.0
 51
90.0
  0
LINE
  5
1058
  8
1
 10
252.99999999999989
 20
150.75
 30
0.0
 11
252.99999999999989
 21
159.25
 31
0.0
  0
LINE
  5
1059
  8
0
 10
257.99999999999989
 20
142.5
 30
0.0
 11
257.99999999999989
 21
155.0
 31
0.0
  0
ARC
  5
105A
  8
0
 10
256.04999999999978
 20
141.25
 30
0.0
 40
1.25
 50
90.0
 51
270.0
  0
LINE
  5
105B
  8
0
 10
256.04999999999978
 20
140.0
 30
0.0
 11
257.99999999999989
 21
140.0
 31
0.0
  0
LINE
  5
105C
  8
0
 10
256.04999999999978
 20
142.5
 30
0.0
 11
257.99999999999989
 21
142.5
 31
0.0
  0
ARC
  5
105D
  8
5
 10
260.99999999999989
 20
155.0
 30
0.0
 40
5.0
 50
90.0
 51
180.0
  0
LINE
  5
105E
  8
2
 10
251.734984
 20
116.59999999999999
 30
0.0
 11
257.99999999999989
 21
116.59999999999999
 31
0.0
  0
LINE
  5
105F
  8
1
 10
248.74999999999989
 20
105.0
 30
0.0
 11
257.24999999999989
 21
105.0
 31
0.0
  0
CIRCLE
  5
1060
  8
0
 10
252.99999999999989
 20
105.0
 30
0.0
 40
2.25
  0
LINE
  5
1061
  8
1
 10
252.99999999999989
 20
109.25
 30
0.0
 11
252.99999999999989
 21
100.75
 31
0.0
  0
LINE
  5
1062
  8
0
 10
257.99999999999989
 20
117.5
 30
0.0
 11
257.99999999999989
 21
105.0
 31
0.0
  0
LINE
  5
1063
  8
0
 10
256.04999999999978
 20
120.0
 30
0.0
 11
257.99999999999989
 21
120.0
 31
0.0
  0
LINE
  5
1064
  8
0
 10
256.04999999999978
 20
117.5
 30
0.0
 11
257.99999999999989
 21
117.5
 31
0.0
  0
ARC
  5
1065
  8
0
 10
256.04999999999978
 20
118.75
 30
0.0
 40
1.25
 50
90.0
 51
270.0
  0
ARC
  5
1066
  8
0
 10
252.99999999999989
 20
105.0
 30
0.0
 40
5.0
 50
270.0
 51
0.0
  0
ARC
  5
1067
  8
5
 10
260.99999999999989
 20
105.0
 30
0.0
 40
5.0
 50
180.0
 51
270.0
  0
LINE
  5
1068
  8
0
 10
257.99999999999989
 20
140.0
 30
0.0
 11
257.99999999999989
 21
120.0
 31
0.0
  0
LINE
  5
1069
  8
2
 10
256.39999999999992
 20
140.0
 30
0.0
 11
256.39999999999992
 21
120.0
 31
0.0
  0
LINE
  5
106A
  8
5
 10
255.99999999999989
 20
155.0
 30
0.0
 11
255.99999999999989
 21
105.0
 31
0.0
  0
CIRCLE
  5
106B
  8
0
 10
223.0
 20
136.69999999999999
 30
0.0
 40
2.5
  0
LINE
  5
106C
  8
1
 10
193.0
 20
150.75
 30
0.0
 11
193.0
 21
159.25
 31
0.0
  0
CIRCLE
  5
106D
  8
0
 10
193.0
 20
155.0
 30
0.0
 40
2.25
  0
ARC
  5
106E
  8
0
 10
193.0
 20
155.0
 30
0.0
 40
5.0
 50
90.0
 51
180.0
  0
LINE
  5
106F
  8
0
 10
189.9499999999999
 20
142.5
 30
0.0
 11
188.0
 21
142.5
 31
0.0
  0
LINE
  5
1070
  8
1
 10
197.25
 20
155.0
 30
0.0
 11
188.75
 21
155.0
 31
0.0
  0
LINE
  5
1071
  8
0
 10
189.9499999999999
 20
140.0
 30
0.0
 11
188.0
 21
140.0
 31
0.0
  0
ARC
  5
1072
  8
0
 10
189.9499999999999
 20
141.25
 30
0.0
 40
1.25
 50
270.0
 51
90.0
  0
LINE
  5
1073
  8
0
 10
188.0
 20
142.5
 30
0.0
 11
188.0
 21
155.0
 31
0.0
  0
LINE
  5
1074
  8
2
 10
188.0
 20
143.40000000000001
 30
0.0
 11
216.265017
 21
143.40000000000001
 31
0.0
  0
CIRCLE
  5
1075
  8
0
 10
244.99999999999989
 20
123.3
 30
0.0
 40
2.5
  0
LINE
  5
1076
  8
1
 10
193.0
 20
109.25
 30
0.0
 11
193.0
 21
100.75
 31
0.0
  0
CIRCLE
  5
1077
  8
0
 10
193.0
 20
105.0
 30
0.0
 40
2.25
  0
LINE
  5
1078
  8
2
 10
188.0
 20
116.59999999999999
 30
0.0
 11
194.26501699999989
 21
116.59999999999999
 31
0.0
  0
LINE
  5
1079
  8
0
 10
189.9499999999999
 20
120.0
 30
0.0
 11
188.0
 21
120.0
 31
0.0
  0
LINE
  5
107A
  8
0
 10
189.9499999999999
 20
117.5
 30
0.0
 11
188.0
 21
117.5
 31
0.0
  0
LINE
  5
107B
  8
1
 10
197.25
 20
105.0
 30
0.0
 11
188.75
 21
105.0
 31
0.0
  0
ARC
  5
107C
  8
0
 10
189.9499999999999
 20
118.75
 30
0.0
 40
1.25
 50
270.0
 51
90.0
  0
LINE
  5
107D
  8
0
 10
188.0
 20
117.5
 30
0.0
 11
188.0
 21
105.0
 31
0.0
  0
CIRCLE
  5
107F
  8
0
 10
201.0
 20
123.3
 30
0.0
 40
2.5
  0
CIRCLE
  5
1080
  8
0
 10
201.0
 20
123.3
 30
0.0
 40
5.0
  0
CIRCLE
  5
1081
  8
0
 10
201.0
 20
123.3
 30
0.0
 40
5.9000000000000004
  0
ARC
  5
1082
  8
0
 10
193.0
 20
105.0
 30
0.0
 40
5.0
 50
180.0
 51
270.0
  0
LINE
  5
1083
  8
2
 10
207.73498399999991
 20
116.59999999999999
 30
0.0
 11
238.26501699999989
 21
116.59999999999999
 31
0.0
  0
ARC
  5
1085
  8
2
 10
223.0
 20
136.69999999999999
 30
0.0
 40
9.5
 50
118.4843549999986
 51
61.515645000001378
  0
LINE
  5
1087
  8
0
 10
188.0
 20
140.0
 30
0.0
 11
188.0
 21
120.0
 31
0.0
  0
LINE
  5
1088
  8
2
 10
189.59999999999991
 20
140.0
 30
0.0
 11
189.59999999999991
 21
120.0
 31
0.0
  0
CIRCLE
  5
108A
  8
2
 10
207.0
 20
130.0
 30
0.0
 40
2.25
  0
ARC
  5
108B
  8
2
 10
201.0
 20
123.3
 30
0.0
 40
9.5
 50
298.48435499999857
 51
241.5156450000014
  0
CIRCLE
  5
108C
  8
0
 10
223.0
 20
136.69999999999999
 30
0.0
 40
5.0
  0
CIRCLE
  5
108D
  8
0
 10
223.0
 20
136.69999999999999
 30
0.0
 40
5.9000000000000004
  0
ARC
  5
108E
  8
2
 10
244.99999999999989
 20
123.3
 30
0.0
 40
9.5
 50
298.48435499999857
 51
241.5156450000014
  0
LINE
  5
108F
  8
2
 10
188.0
 20
114.95
 30
0.0
 11
257.99999999999989
 21
114.95
 31
0.0
  0
LINE
  5
1090
  8
2
 10
188.0
 20
112.0
 30
0.0
 11
257.99999999999989
 21
112.0
 31
0.0
  0
LINE
  5
1091
  8
0
 10
252.99999999999989
 20
100.0
 30
0.0
 11
193.0
 21
100.0
 31
0.0
  0
CIRCLE
  5
1092
  8
0
 10
244.99999999999989
 20
123.3
 30
0.0
 40
5.9000000000000004
  0
CIRCLE
  5
1093
  8
0
 10
244.99999999999989
 20
123.3
 30
0.0
 40
5.0
  0
LINE
  5
1094
  8
2
 10
188.0
 20
145.05000000000001
 30
0.0
 11
257.99999999999989
 21
145.05000000000001
 31
0.0
  0
LINE
  5
1095
  8
2
 10
188.0
 20
148.0
 30
0.0
 11
257.99999999999989
 21
148.0
 31
0.0
  0
LINE
  5
1096
  8
0
 10
252.99999999999989
 20
160.0
 30
0.0
 11
193.0
 21
160.0
 31
0.0
  0
LINE
  5
1097
  8
2
 10
229.73498399999991
 20
143.40000000000001
 30
0.0
 11
257.99999999999989
 21
143.40000000000001
 31
0.0
  0
LINE
  5
1098
  8
0
 10
331.99999999999989
 20
112.0
 30
0.0
 11
257.99999999999989
 21
112.0
 31
0.0
  0
LINE
  5
1099
  8
0
 10
331.99999999999989
 20
114.95
 30
0.0
 11
257.99999999999989
 21
114.95
 31
0.0
  0
LINE
  5
109A
  8
0
 10
331.99999999999989
 20
116.59999999999999
 30
0.0
 11
257.99999999999989
 21
116.59999999999999
 31
0.0
  0
LINE
  5
109B
  8
0
 10
331.99999999999989
 20
148.0
 30
0.0
 11
257.99999999999989
 21
148.0
 31
0.0
  0
LINE
  5
109C
  8
0
 10
331.99999999999989
 20
145.05000000000001
 30
0.0
 11
257.99999999999989
 21
145.05000000000001
 31
0.0
  0
LINE
  5
109D
  8
0
 10
331.99999999999989
 20
143.40000000000001
 30
0.0
 11
257.99999999999989
 21
143.40000000000001
 31
0.0
  0
LINE
  5
109E
  8
5
 10
260.99999999999989
 20
160.0
 30
0.0
 11
320.99999999999989
 21
160.0
 31
0.0
  0
LINE
  5
109F
  8
5
 10
260.99999999999989
 20
100.0
 30
0.0
 11
320.99999999999989
 21
100.0
 31
0.0
  0
CIRCLE
  5
10A0
  8
0
 10
306.99999999999989
 20
130.0
 30
0.0
 40
2.25
  0
LINE
  5
10A4
  8
1
 10
185.0
 20
133.75
 30
0.0
 11
185.0
 21
140.25
 31
0.0
  0
ARC
  5
10A5
  8
0
 10
184.0
 20
138.0
 30
0.0
 40
2.0
 50
90.0
 51
180.0
  0
CIRCLE
  5
10A6
  8
0
 10
185.0
 20
137.0
 30
0.0
 40
1.3
  0
LINE
  5
10A7
  8
0
 10
186.0
 20
140.0
 30
0.0
 11
184.0
 21
140.0
 31
0.0
  0
LINE
  5
10A8
  8
1
 10
185.0
 20
126.25
 30
0.0
 11
185.0
 21
119.75
 31
0.0
  0
ARC
  5
10A9
  8
0
 10
184.0
 20
122.0
 30
0.0
 40
2.0
 50
180.0
 51
270.0
  0
CIRCLE
  5
10AB
  8
0
 10
185.0
 20
123.0
 30
0.0
 40
1.3
  0
LINE
  5
10AC
  8
0
 10
186.0
 20
120.0
 30
0.0
 11
184.0
 21
120.0
 31
0.0
  0
LINE
  5
10AE
  8
0
 10
182.0
 20
148.0
 30
0.0
 11
182.0
 21
112.0
 31
0.0
  0
LINE
  5
10AF
  8
1
 10
341.99999999999989
 20
130.0
 30
0.0
 11
172.0
 21
130.0
 31
0.0
  0
LINE
  5
10B0
  8
0
 10
188.0
 20
116.59999999999999
 30
0.0
 11
182.0
 21
116.59999999999999
 31
0.0
  0
LINE
  5
10B1
  8
0
 10
188.0
 20
114.95
 30
0.0
 11
182.0
 21
114.95
 31
0.0
  0
LINE
  5
10B2
  8
0
 10
188.0
 20
112.0
 30
0.0
 11
182.0
 21
112.0
 31
0.0
  0
ARC
  5
10B3
  8
0
 10
186.0
 20
122.0
 30
0.0
 40
2.0
 50
270.0
 51
0.0
  0
LINE
  5
10B4
  8
0
 10
188.0
 20
126.0
 30
0.0
 11
182.0
 21
126.0
 31
0.0
  0
LINE
  5
10B5
  8
1
 10
188.25
 20
123.0
 30
0.0
 11
181.75
 21
123.0
 31
0.0
  0
CIRCLE
  5
10B6
  8
0
 10
185.0
 20
123.0
 30
0.0
 40
1.75
  0
LINE
  5
10B7
  8
0
 10
188.0
 20
143.40000000000001
 30
0.0
 11
182.0
 21
143.40000000000001
 31
0.0
  0
ARC
  5
10B8
  8
0
 10
186.0
 20
138.0
 30
0.0
 40
2.0
 50
0.0
 51
90.0
  0
CIRCLE
  5
10B9
  8
0
 10
185.0
 20
137.0
 30
0.0
 40
1.75
  0
LINE
  5
10BA
  8
1
 10
188.25
 20
137.0
 30
0.0
 11
181.75
 21
137.0
 31
0.0
  0
LINE
  5
10BB
  8
0
 10
188.0
 20
134.0
 30
0.0
 11
182.0
 21
134.0
 31
0.0
  0
LINE
  5
10BC
  8
0
 10
188.0
 20
148.0
 30
0.0
 11
182.0
 21
148.0
 31
0.0
  0
LINE
  5
10BD
  8
0
 10
188.0
 20
145.05000000000001
 30
0.0
 11
182.0
 21
145.05000000000001
 31
0.0
  0
LINE
  5
10BE
  8
0
 10
112.0
 20
160.0
 30
0.0
 11
110.40000000000001
 21
160.0
 31
0.0
  0
LINE
  5
10BF
  8
1
 10
114.502673
 20
155.0
 30
0.0
 11
107.90000000000001
 21
155.0
 31
0.0
  0
LINE
  5
10C0
  8
0
 10
109.5
 20
142.362742
 30
0.0
 11
110.40000000000001
 21
143.262742
 31
0.0
  0
LINE
  5
10C1
  8
0
 10
109.0
 20
141.6999999999999
 30
0.0
 11
109.5
 21
141.19999999999999
 31
0.0
  0
LINE
  5
10C2
  8
0
 10
109.5
 20
140.0
 30
0.0
 11
109.5
 21
142.362742
 31
0.0
  0
LINE
  5
10C4
  8
0
 10
109.0
 20
118.3
 30
0.0
 11
109.5
 21
118.8
 31
0.0
  0
LINE
  5
10C5
  8
0
 10
110.0
 20
126.0
 30
0.0
 11
110.0
 21
134.0
 31
0.0
  0
LINE
  5
10C6
  8
2
 10
110.40000000000001
 20
140.0
 30
0.0
 11
110.40000000000001
 21
120.0
 31
0.0
  0
LINE
  5
10C7
  8
0
 10
108.2
 20
140.0
 30
0.0
 11
108.2
 21
143.39999999999989
 31
0.0
  0
LINE
  5
10C8
  8
0
 10
102.7
 20
140.0
 30
0.0
 11
102.7
 21
143.90000000000001
 31
0.0
  0
ARC
  5
10C9
  8
2
 10
106.0
 20
138.0
 30
0.0
 40
2.0
 50
90.0
 51
180.0
  0
LINE
  5
10CB
  8
0
 10
106.5
 20
134.0
 30
0.0
 11
106.5
 21
140.0
 31
0.0
  0
LINE
  5
10CC
  8
0
 10
107.0
 20
148.0
 30
0.0
 11
104.0
 21
148.0
 31
0.0
  0
ARC
  5
10CD
  8
0
 10
107.5
 20
145.5499999999999
 30
0.0
 40
0.5
 50
270.0
 51
0.0
  0
LINE
  5
10CE
  8
0
 10
107.5
 20
145.0499999999999
 30
0.0
 11
106.99185850000001
 21
145.0499999999999
 31
0.0
  0
LINE
  5
10CF
  8
0
 10
108.0
 20
145.5499999999999
 30
0.0
 11
108.0
 21
147.0
 31
0.0
  0
LINE
  5
10D0
  8
0
 10
107.3
 20
143.90000000000001
 30
0.0
 11
107.7
 21
143.90000000000001
 31
0.0
  0
ARC
  5
10D1
  8
0
 10
107.7
 20
143.39999999999989
 30
0.0
 40
0.5
 50
0.0
 51
90.0
  0
ARC
  5
10D3
  8
0
 10
102.2272775
 20
144.3343845
 30
0.0
 40
0.5
 50
314.99999999999989
 51
351.99587599999961
  0
LINE
  5
10D4
  8
0
 10
102.1464465
 20
143.546447
 30
0.0
 11
102.580831
 21
143.98083099999991
 31
0.0
  0
ARC
  5
10D5
  8
0
 10
102.5
 20
143.1928935
 30
0.0
 40
0.5
 50
134.9999999999998
 51
180.0
  0
LINE
  5
10D6
  8
0
 10
102.72240650000001
 20
144.26476199999999
 30
0.0
 11
102.7511295
 21
144.38226750000001
 31
0.0
  0
ARC
  5
10D8
  8
0
 10
107.0
 20
147.0
 30
0.0
 40
1.0
 50
0.0
 51
90.0
  0
ARC
  5
10D9
  8
0
 10
105.0
 20
143.90000000000001
 30
0.0
 40
2.2999999999999989
 50
0.0
 51
180.0
  0
ARC
  5
10DA
  8
2
 10
106.0
 20
122.0
 30
0.0
 40
2.0
 50
180.0
 51
270.0
  0
LINE
  5
10DC
  8
0
 10
106.5
 20
126.0
 30
0.0
 11
106.5
 21
120.0
 31
0.0
  0
LINE
  5
10DE
  8
2
 10
104.0
 20
122.0
 30
0.0
 11
104.0
 21
138.0
 31
0.0
  0
LINE
  5
10E0
  8
1
 10
117.0
 20
130.0
 30
0.0
 11
94.999999999999986
 21
130.0
 31
0.0
  0
LINE
  5
10E1
  8
1
 10
114.5
 20
136.69999999999999
 30
0.0
 11
100.2
 21
136.6999999999999
 31
0.0
  0
LINE
  5
10E2
  8
1
 10
114.5
 20
123.3
 30
0.0
 11
100.2
 21
123.3
 31
0.0
  0
LINE
  5
10E3
  8
0
 10
112.0
 20
120.0
 30
0.0
 11
102.0
 21
120.0
 31
0.0
  0
LINE
  5
10E4
  8
0
 10
110.0
 20
126.0
 30
0.0
 11
106.5
 21
126.0
 31
0.0
  0
LINE
  5
10E5
  8
0
 10
112.0
 20
140.0
 30
0.0
 11
102.0
 21
140.0
 31
0.0
  0
LINE
  5
10E6
  8
0
 10
110.0
 20
134.0
 30
0.0
 11
106.5
 21
134.0
 31
0.0
  0
LINE
  5
10E7
  8
0
 10
108.2
 20
141.6999999999999
 30
0.0
 11
109.0
 21
141.6999999999999
 31
0.0
  0
LINE
  5
10E8
  8
0
 10
108.2
 20
118.3
 30
0.0
 11
109.0
 21
118.3
 31
0.0
  0
LINE
  5
10E9
  8
0
 10
109.5
 20
117.6372584999999
 30
0.0
 11
110.40000000000001
 21
116.7372585
 31
0.0
  0
LINE
  5
10EA
  8
0
 10
112.0
 20
100.0
 30
0.0
 11
110.40000000000001
 21
100.0
 31
0.0
  0
ARC
  5
10ED
  8
0
 10
105.0
 20
116.09999999999999
 30
0.0
 40
2.2999999999999989
 50
180.0
 51
0.0
  0
LINE
  5
10EF
  8
0
 10
102.72240650000001
 20
115.735238
 30
0.0
 11
102.7511295
 21
115.6177325
 31
0.0
  0
ARC
  5
10F0
  8
0
 10
102.5
 20
116.8071069999999
 30
0.0
 40
0.5
 50
180.0
 51
225.0000000000002
  0
LINE
  5
10F1
  8
0
 10
102.1464465
 20
116.4535535
 30
0.0
 11
102.580831
 21
116.0191694999999
 31
0.0
  0
ARC
  5
10F2
  8
0
 10
102.2272775
 20
115.665616
 30
0.0
 40
0.5
 50
8.0041240000003828
 51
45.000000000000092
  0
LINE
  5
10F3
  8
0
 10
107.3
 20
116.09999999999999
 30
0.0
 11
107.7
 21
116.09999999999999
 31
0.0
  0
ARC
  5
10F4
  8
0
 10
107.5
 20
114.45
 30
0.0
 40
0.5
 50
0.0
 51
90.0
  0
LINE
  5
10F5
  8
0
 10
107.5
 20
114.95
 30
0.0
 11
106.99185850000001
 21
114.95
 31
0.0
  0
ARC
  5
10F6
  8
0
 10
107.7
 20
116.59999999999999
 30
0.0
 40
0.5
 50
270.0
 51
0.0
  0
ARC
  5
10F7
  8
0
 10
107.0
 20
113.0
 30
0.0
 40
1.0
 50
270.0
 51
0.0
  0
LINE
  5
10F9
  8
0
 10
108.0
 20
114.45
 30
0.0
 11
108.0
 21
113.0
 31
0.0
  0
LINE
  5
10FA
  8
0
 10
107.0
 20
112.0
 30
0.0
 11
104.0
 21
112.0
 31
0.0
  0
ARC
  5
10FB
  8
0
 10
104.0
 20
116.0
 30
0.0
 40
4.0
 50
180.0
 51
270.0
  0
LINE
  5
10FC
  8
1
 10
114.502673
 20
105.0
 30
0.0
 11
107.90000000000001
 21
105.0
 31
0.0
  0
LINE
  5
10FD
  8
0
 10
100.0
 20
116.0
 30
0.0
 11
100.0
 21
144.0
 31
0.0
  0
LINE
  5
10FE
  8
0
 10
102.0
 20
116.8071069999999
 30
0.0
 11
102.0
 21
143.1928935
 31
0.0
  0
LINE
  5
1100
  8
0
 10
110.40000000000001
 20
100.0
 30
0.0
 11
110.40000000000001
 21
120.0
 31
0.0
  0
LINE
  5
1101
  8
0
 10
109.5
 20
117.6372584999999
 30
0.0
 11
109.5
 21
120.0
 31
0.0
  0
LINE
  5
1102
  8
0
 10
102.7
 20
120.0
 30
0.0
 11
102.7
 21
116.09999999999999
 31
0.0
  0
LINE
  5
1103
  8
0
 10
108.2
 20
120.0
 30
0.0
 11
108.2
 21
116.59999999999999
 31
0.0
  0
ARC
  5
1104
  8
0
 10
104.0
 20
144.0
 30
0.0
 40
4.0
 50
90.0
 51
180.0
  0
LINE
  5
1105
  8
0
 10
112.0
 20
100.0
 30
0.0
 11
112.0
 21
160.0
 31
0.0
  0
LINE
  5
1106
  8
0
 10
110.40000000000001
 20
140.0
 30
0.0
 11
110.40000000000001
 21
160.0
 31
0.0
  0
CIRCLE
  5
1120
  8
0
 10
306.99999999999989
 20
130.0
 30
0.0
 40
4.0
  0
CIRCLE
  5
1121
  8
2
 10
207.0
 20
130.0
 30
0.0
 40
4.0
  0
TEXT
  5
120D
  8
0
 62
     3
 10
0.0
 20
0.0
 30
0.0
 40
10.0
  1
ARR36-150
  7
STANDARD1
  0
ARC
  5
23EC
  8
0
 10
229.6999999999999
 20
234.2999999999999
 30
0.0
 40
0.5000000000000285
 50
270.0
 51
323.13010235418488
  0
ARC
  5
23ED
  8
0
 10
216.30000000000001
 20
234.2999999999999
 30
0.0
 40
0.5000000000000285
 50
216.86989764581639
 51
270.0
  0
LINE
  5
23EE
  8
0
 10
229.56274199999999
 20
231.59999999999999
 30
0.0
 11
228.66274200000009
 21
232.49999999999989
 31
0.0
  0
LINE
  5
23EF
  8
0
 10
217.33725799999991
 20
232.49999999999989
 30
0.0
 11
216.4372579999999
 21
231.59999999999999
 31
0.0
  0
LINE
  5
23F0
  8
0
 10
227.99999999999989
 20
233.0
 30
0.0
 11
227.99999999999989
 21
233.79999999999981
 31
0.0
  0
LINE
  5
23F1
  8
0
 10
217.99999999999989
 20
233.79999999999981
 30
0.0
 11
217.99999999999989
 21
233.0
 31
0.0
  0
LINE
  5
23F2
  8
0
 10
217.99999999999989
 20
233.0
 30
0.0
 11
218.49999999999989
 21
232.49999999999989
 31
0.0
  0
LINE
  5
23F3
  8
0
 10
227.49999999999989
 20
232.49999999999989
 30
0.0
 11
228.0
 21
233.0
 31
0.0
  0
ARC
  5
23F4
  8
0
 10
207.6999999999999
 20
234.2999999999999
 30
0.0
 40
0.5000000000000398
 50
270.0
 51
323.1301023541788
  0
ARC
  5
23F5
  8
0
 10
194.2999999999999
 20
234.2999999999999
 30
0.0
 40
0.5000000000000285
 50
216.8698976458258
 51
270.0
  0
ARC
  5
23F6
  8
0
 10
251.6999999999999
 20
234.2999999999999
 30
0.0
 40
0.5000000000000398
 50
270.0
 51
323.1301023541788
  0
ARC
  5
23F7
  8
0
 10
238.30000000000001
 20
234.2999999999999
 30
0.0
 40
0.5000000000000285
 50
216.8698976458258
 51
270.0
  0
LINE
  5
23F8
  8
0
 10
251.5627419999999
 20
231.59999999999999
 30
0.0
 11
250.66274200000001
 21
232.49999999999989
 31
0.0
  0
LINE
  5
23F9
  8
0
 10
239.33725799999991
 20
232.49999999999989
 30
0.0
 11
238.4372579999999
 21
231.59999999999999
 31
0.0
  0
LINE
  5
23FA
  8
0
 10
207.5627419999999
 20
231.59999999999999
 30
0.0
 11
206.66274200000001
 21
232.49999999999989
 31
0.0
  0
LINE
  5
23FB
  8
0
 10
195.33725799999991
 20
232.49999999999989
 30
0.0
 11
194.43725800000001
 21
231.59999999999999
 31
0.0
  0
LINE
  5
23FC
  8
0
 10
249.99999999999989
 20
233.0
 30
0.0
 11
249.99999999999989
 21
233.79999999999981
 31
0.0
  0
LINE
  5
23FD
  8
0
 10
239.99999999999989
 20
233.79999999999981
 30
0.0
 11
239.99999999999989
 21
233.0
 31
0.0
  0
LINE
  5
23FE
  8
0
 10
206.0
 20
233.0
 30
0.0
 11
206.0
 21
233.79999999999981
 31
0.0
  0
LINE
  5
23FF
  8
0
 10
195.99999999999989
 20
233.79999999999981
 30
0.0
 11
195.99999999999989
 21
233.0
 31
0.0
  0
LINE
  5
2400
  8
0
 10
195.99999999999989
 20
233.0
 30
0.0
 11
196.5
 21
232.49999999999989
 31
0.0
  0
LINE
  5
2401
  8
0
 10
205.49999999999989
 20
232.49999999999989
 30
0.0
 11
206.0
 21
233.0
 31
0.0
  0
LINE
  5
2402
  8
0
 10
239.99999999999989
 20
233.0
 30
0.0
 11
240.49999999999989
 21
232.49999999999989
 31
0.0
  0
LINE
  5
2403
  8
0
 10
249.49999999999989
 20
232.49999999999989
 30
0.0
 11
250.0
 21
233.0
 31
0.0
  0
LINE
  5
2404
  8
0
 10
331.99999999999989
 20
242.0
 30
0.0
 11
181.99999999999989
 21
242.0
 31
0.0
  0
LINE
  5
2405
  8
0
 10
331.99999999999989
 20
234.0
 30
0.0
 11
331.99999999999989
 21
242.0
 31
0.0
  0
LINE
  5
2406
  8
0
 10
181.99999999999989
 20
234.0
 30
0.0
 11
181.99999999999989
 21
242.0
 31
0.0
  0
LINE
  5
2409
  8
0
 10
331.99999999999989
 20
234.0
 30
0.0
 11
181.99999999999989
 21
234.0
 31
0.0
  0
LINE
  5
240D
  8
0
 10
187.99999999999989
 20
230.0
 30
0.0
 11
187.99999999999989
 21
231.59999999999999
 31
0.0
  0
LINE
  5
240F
  8
0
 10
257.99999999999989
 20
230.0
 30
0.0
 11
257.99999999999989
 21
231.59999999999999
 31
0.0
  0
LINE
  5
2410
  8
0
 10
257.99999999999989
 20
230.0
 30
0.0
 11
187.99999999999989
 21
230.0
 31
0.0
  0
LINE
  5
2411
  8
0
 10
257.99999999999989
 20
231.59999999999999
 30
0.0
 11
187.99999999999989
 21
231.59999999999999
 31
0.0
  0
LINE
  5
2414
  8
0
 10
229.6999999999999
 20
233.79999999999981
 30
0.0
 11
216.3000000982494
 21
233.79999999999981
 31
0.0
  0
LINE
  5
2415
  8
0
 10
228.66274200000001
 20
232.49999999999989
 30
0.0
 11
217.33725799999991
 21
232.49999999999989
 31
0.0
  0
LINE
  5
2416
  8
0
 10
227.99999999999989
 20
233.0
 30
0.0
 11
217.99999999999989
 21
233.0
 31
0.0
  0
LINE
  5
2417
  8
0
 10
207.6999999999999
 20
233.79999999999981
 30
0.0
 11
194.30000009824931
 21
233.79999999999981
 31
0.0
  0
LINE
  5
2418
  8
0
 10
251.6999999999999
 20
233.79999999999981
 30
0.0
 11
238.3000000982494
 21
233.79999999999981
 31
0.0
  0
LINE
  5
2419
  8
0
 10
250.66274199999989
 20
232.49999999999989
 30
0.0
 11
239.33725799999991
 21
232.49999999999989
 31
0.0
  0
LINE
  5
241A
  8
0
 10
206.66274200000001
 20
232.49999999999989
 30
0.0
 11
195.33725799999991
 21
232.49999999999989
 31
0.0
  0
LINE
  5
241B
  8
0
 10
249.99999999999989
 20
233.0
 30
0.0
 11
239.99999999999989
 21
233.0
 31
0.0
  0
LINE
  5
241C
  8
0
 10
206.0
 20
233.0
 30
0.0
 11
195.99999999999989
 21
233.0
 31
0.0
  0
LINE
  5
2503
  8
1
 10
207.0
 20
245.0
 30
0.0
 11
207.0
 21
231.0
 31
0.0
  0
LINE
  5
2504
  8
1
 10
306.99999999999989
 20
245.0
 30
0.0
 11
306.99999999999989
 21
231.0
 31
0.0
  0
LINE
  5
250E
  8
1
 10
193.0
 20
227.5
 30
0.0
 11
193.0
 21
234.09999999999999
 31
0.0
  0
LINE
  5
250F
  8
1
 10
201.0
 20
227.5
 30
0.0
 11
201.0
 21
241.80000000000001
 31
0.0
  0
LINE
  5
2511
  8
1
 10
223.0
 20
227.5
 30
0.0
 11
223.0
 21
241.80000000000001
 31
0.0
  0
LINE
  5
2512
  8
1
 10
244.99999999999989
 20
227.5
 30
0.0
 11
244.99999999999989
 21
241.80000000000001
 31
0.0
  0
LINE
  5
2513
  8
1
 10
252.99999999999989
 20
227.5
 30
0.0
 11
252.99999999999989
 21
234.09999999999999
 31
0.0
  0
ENDSEC
  0
EOF
