  0
SECTION
  2
HEADER
  9
$ACADVER
  1
AC1009
  9
$INSBASE
 10
0.0
 20
0.0
 30
0.0
  9
$EXTMIN
 10
-0.0204638472032742
 20
-2.960436562073669
 30
0.0
  9
$EXTMAX
 10
122.39999990690001
 20
102.40000107749999
 30
0.0
  9
$LIMMIN
 10
0.0
 20
0.0
  9
$LIMMAX
 10
187.5
 20
135.0
  9
$ORTHOMODE
 70
     1
  9
$REGENMODE
 70
     1
  9
$FILLMODE
 70
     1
  9
$QTEXTMODE
 70
     0
  9
$MIRRTEXT
 70
     0
  9
$DRAGMODE
 70
     2
  9
$LTSCALE
 40
5.0
  9
$OSMODE
 70
    37
  9
$ATTMODE
 70
     1
  9
$TEXTSIZE
 40
0.2
  9
$TRACEWID
 40
0.05
  9
$TEXTSTYLE
  7
STANDARD
  9
$CLAYER
  8
0
  9
$CELTYPE
  6
BYLAYER
  9
$CECOLOR
 62
   256
  9
$DIMSCALE
 40
0.5
  9
$DIMASZ
 40
3.0
  9
$DIMEXO
 40
2.0
  9
$DIMDLI
 40
0.38
  9
$DIMRND
 40
0.0
  9
$DIMDLE
 40
0.0
  9
$DIMEXE
 40
2.0
  9
$DIMTP
 40
0.0
  9
$DIMTM
 40
0.0
  9
$DIMTXT
 40
3.2000000000000002
  9
$DIMCEN
 40
0.0
  9
$DIMTSZ
 40
0.0
  9
$DIMTOL
 70
     0
  9
$DIMLIM
 70
     0
  9
$DIMTIH
 70
     0
  9
$DIMTOH
 70
     0
  9
$DIMSE1
 70
     0
  9
$DIMSE2
 70
     0
  9
$DIMTAD
 70
     1
  9
$DIMZIN
 70
     0
  9
$DIMBLK
  1

  9
$DIMASO
 70
     0
  9
$DIMSHO
 70
     0
  9
$DIMPOST
  1

  9
$DIMAPOST
  1

  9
$DIMALT
 70
     0
  9
$DIMALTD
 70
     2
  9
$DIMALTF
 40
25.399999999999999
  9
$DIMLFAC
 40
1.0
  9
$DIMTOFL
 70
     1
  9
$DIMTVP
 40
1.6000000000000001
  9
$DIMTIX
 70
     1
  9
$DIMSOXD
 70
     0
  9
$DIMSAH
 70
     0
  9
$DIMBLK1
  1

  9
$DIMBLK2
  1

  9
$DIMSTYLE
  2
STANDARD
  9
$DIMCLRD
 70
   256
  9
$DIMCLRE
 70
   256
  9
$DIMCLRT
 70
   256
  9
$DIMTFAC
 40
1.0
  9
$DIMGAP
 40
0.09
  9
$LUNITS
 70
     2
  9
$LUPREC
 70
     1
  9
$SKETCHINC
 40
0.1
  9
$FILLETRAD
 40
0.0
  9
$AUNITS
 70
     0
  9
$AUPREC
 70
     1
  9
$MENU
  1
E:\r13\win\SUPPORT\ACAD
  9
$ELEVATION
 40
0.0
  9
$PELEVATION
 40
0.0
  9
$THICKNESS
 40
0.0
  9
$LIMCHECK
 70
     0
  9
$BLIPMODE
 70
     0
  9
$CHAMFERA
 40
0.0
  9
$CHAMFERB
 40
0.0
  9
$SKPOLY
 70
     0
  9
$TDCREATE
 40
2449839.7732986109
  9
$TDUPDATE
 40
2459941.5704717818
  9
$TDINDWG
 40
0.2083816204
  9
$TDUSRTIMER
 40
2456598.450175961
  9
$USRTIMER
 70
     1
  9
$ANGBASE
 50
0.0
  9
$ANGDIR
 70
     0
  9
$PDMODE
 70
     0
  9
$PDSIZE
 40
0.0
  9
$PLINEWID
 40
0.0
  9
$COORDS
 70
     1
  9
$SPLFRAME
 70
     0
  9
$SPLINETYPE
 70
     6
  9
$SPLINESEGS
 70
     8
  9
$ATTDIA
 70
     0
  9
$ATTREQ
 70
     1
  9
$HANDLING
 70
     1
  9
$HANDSEED
  5
88D9
  9
$SURFTAB1
 70
     6
  9
$SURFTAB2
 70
     6
  9
$SURFTYPE
 70
     6
  9
$SURFU
 70
     6
  9
$SURFV
 70
     6
  9
$UCSNAME
  2

  9
$UCSORG
 10
0.0
 20
0.0
 30
0.0
  9
$UCSXDIR
 10
1.0
 20
0.0
 30
0.0
  9
$UCSYDIR
 10
0.0
 20
1.0
 30
0.0
  9
$PUCSNAME
  2

  9
$PUCSORG
 10
0.0
 20
0.0
 30
0.0
  9
$PUCSXDIR
 10
1.0
 20
0.0
 30
0.0
  9
$PUCSYDIR
 10
0.0
 20
1.0
 30
0.0
  9
$USERI1
 70
     0
  9
$USERI2
 70
     1
  9
$USERI3
 70
     1
  9
$USERI4
 70
     0
  9
$USERI5
 70
     0
  9
$USERR1
 40
0.0
  9
$USERR2
 40
0.0
  9
$USERR3
 40
0.0
  9
$USERR4
 40
0.0
  9
$USERR5
 40
0.0
  9
$WORLDVIEW
 70
     1
  9
$SHADEDGE
 70
     3
  9
$SHADEDIF
 70
    70
  9
$TILEMODE
 70
     1
  9
$MAXACTVP
 70
    16
  9
$PLIMCHECK
 70
     0
  9
$PEXTMIN
 10
1.0000000000000000E+020
 20
1.0000000000000000E+020
 30
1.0000000000000000E+020
  9
$PEXTMAX
 10
-1.0000000000000000E+020
 20
-1.0000000000000000E+020
 30
-1.0000000000000000E+020
  9
$PLIMMIN
 10
0.0
 20
0.0
  9
$PLIMMAX
 10
12.0
 20
9.0
  9
$UNITMODE
 70
     0
  9
$VISRETAIN
 70
     0
  9
$PLINEGEN
 70
     0
  9
$PSLTSCALE
 70
     0
  0
ENDSEC
  0
SECTION
  2
TABLES
  0
TABLE
  2
VPORT
 70
     1
  0
VPORT
  2
*ACTIVE
 70
     0
 10
0.0
 20
0.0
 11
1.0
 21
1.0
 12
284.70552884615392
 22
125.0
 13
0.0
 23
0.0
 14
5.0
 24
5.0
 15
5.0
 25
5.0
 16
0.0
 26
0.0
 36
1.0
 17
0.0
 27
0.0
 37
0.0
 40
250.0
 41
2.2776442307692299
 42
50.0
 43
0.0
 44
0.0
 50
0.0
 51
0.0
 71
     0
 72
   500
 73
     1
 74
     0
 75
     0
 76
     0
 77
     0
 78
     2
  0
ENDTAB
  0
TABLE
  2
LTYPE
 70
     3
  0
LTYPE
  2
CONTINUOUS
 70
     0
  3
Solid Line
 72
    65
 73
     0
 40
0.0
  0
LTYPE
  2
CENTER
 70
     0
  3
____ _ ____ _ ____ _ ____ _ ____ _ ____ _ ____
 72
    65
 73
     4
 40
2.0
 49
1.25
 49
-0.25
 49
0.25
 49
-0.25
  0
LTYPE
  2
PHANTOM2
 70
     0
  3
___ _ _ ___ _ _ ___ _ _ ___ _ _
 72
    65
 73
     6
 40
1.25
 49
0.625
 49
-0.125
 49
0.125
 49
-0.125
 49
0.125
 49
-0.125
  0
ENDTAB
  0
TABLE
  2
LAYER
 70
     4
  0
LAYER
  2
0
 70
     0
 62
     7
  6
CONTINUOUS
  0
LAYER
  2
1
 70
     0
 62
     1
  6
CENTER
  0
LAYER
  2
DEFPOINTS
 70
     0
 62
     7
  6
CONTINUOUS
  0
LAYER
  2
3
 70
     0
 62
     3
  6
CONTINUOUS
  0
ENDTAB
  0
TABLE
  2
STYLE
 70
     2
  0
STYLE
  2
STANDARD
 70
     0
 40
0.0
 41
1.0
 50
0.0
 71
     0
 42
0.2
  3
TXT
  4
BIGFONT
  0
STYLE
  2
STANDARD1
 70
     0
 40
0.0
 41
1.0
 50
0.0
 71
     0
 42
3.0
  3
txt
  4

  0
ENDTAB
  0
TABLE
  2
VIEW
 70
     1
  0
VIEW
  2
ALL
 70
     0
 40
270.0
 10
220.99159663865549
 20
135.0
 41
0.0
 11
0.0
 21
0.0
 31
1.0
 12
0.0
 22
0.0
 32
0.0
 42
50.0
 43
0.0
 44
0.0
 50
0.0
 71
     0
  0
ENDTAB
  0
TABLE
  2
UCS
 70
     0
  0
ENDTAB
  0
TABLE
  2
APPID
 70
     7
  0
APPID
  2
ACAD
 70
     0
  0
APPID
  2
ACAD_MLEADERVER
 70
     0
  0
APPID
  2
ACAD_NAV_VCDISPLAY
 70
     0
  0
APPID
  2
ACAD_EXEMPT_FROM_CAD_STANDARDS
 70
     0
  0
APPID
  2
ACAD_DSTYLE_DIMJAG
 70
     0
  0
APPID
  2
ACAD_DSTYLE_DIMTALN
 70
     0
  0
APPID
  2
ACAD_PSEXT
 70
     0
  0
ENDTAB
  0
TABLE
  2
DIMSTYLE
 70
     1
  0
DIMSTYLE
  2
STANDARD
 70
     0
  3

  4

  5

  6

  7

 40
1.0
 41
0.18
 42
0.0625
 43
0.38
 44
0.18
 45
0.0
 46
0.0
 47
0.0
 48
0.0
140
0.18
141
0.09
142
0.0
143
25.399999999999999
144
1.0
145
0.0
146
1.0
147
0.09
 71
     0
 72
     0
 73
     1
 74
     1
 75
     0
 76
     0
 77
     0
 78
     0
170
     0
171
     2
172
     0
173
     0
174
     0
175
     0
176
     0
177
     0
178
     0
  0
ENDTAB
  0
ENDSEC
  0
SECTION
  2
BLOCKS
  0
BLOCK
  8
0
  2
$MODEL_SPACE
 70
     0
 10
0.0
 20
0.0
 30
0.0
  3
$MODEL_SPACE
  1

  0
ENDBLK
  5
1D4
  8
0
  0
BLOCK
 67
     1
  8
0
  2
$PAPER_SPACE
 70
     0
 10
0.0
 20
0.0
 30
0.0
  3
$PAPER_SPACE
  1

  0
ENDBLK
  5
1D2
 67
     1
  8
0
  0
ENDSEC
  0
SECTION
  2
ENTITIES
  0
TEXT
  5
75F8
  8
0
 62
     3
 10
0.0
 20
0.0
 30
0.0
 40
10.0
  1
APS100-M8B
  7
STANDARD1
  0
CIRCLE
  5
7E67
  8
0
 10
105.5499999069
 20
85.550001077450005
 30
0.0
 40
6.2500000000795799
  0
CIRCLE
  5
7E68
  8
0
 10
105.5499999069
 20
85.550001077450005
 30
0.0
 40
7.533692341844981
  0
CIRCLE
  5
7E69
  8
0
 10
105.5499999069
 20
85.550001077450005
 30
0.0
 40
3.7500000000250111
  0
CIRCLE
  5
7E6A
  8
0
 10
105.5499999069
 20
85.550001077450005
 30
0.0
 40
8.2997367849639812
  0
CIRCLE
  5
7E6B
  8
0
 10
105.5499999069
 20
85.550001077450005
 30
0.0
 40
9.8990666646784575
  0
CIRCLE
  5
7E6C
  8
0
 10
105.5499999069
 20
85.550001077450005
 30
0.0
 40
10.25
  0
LINE
  5
7E74
  8
0
 10
107.2820506974
 20
88.550001103450015
 30
0.0
 11
107.7575636313
 21
87.726388545749984
 31
0.0
  0
LINE
  5
7E75
  8
0
 10
106.3310248878
 20
88.550001103450015
 30
0.0
 11
107.2820506974
 21
88.550001103450015
 31
0.0
  0
ARC
  5
7E76
  8
0
 10
105.5499999069
 20
85.550001077450005
 30
0.0
 40
3.1000000000000001
 50
75.407449398000054
 51
104.5925506019999
  0
LINE
  5
7E77
  8
0
 10
103.8179491165
 20
88.550001103450015
 30
0.0
 11
104.7689749261
 21
88.550001103450015
 31
0.0
  0
LINE
  5
7E78
  8
0
 10
103.3424361826
 20
87.726388545749984
 30
0.0
 11
103.8179491165
 21
88.550001103450015
 31
0.0
  0
ARC
  5
7E79
  8
0
 10
105.5499999069
 20
85.550001077450005
 30
0.0
 40
3.1000000000000059
 50
135.40744939799981
 51
164.5925506020003
  0
LINE
  5
7E7A
  8
0
 10
102.08589832600001
 20
85.550001077450005
 30
0.0
 11
102.5614111435
 21
86.373613635149994
 31
0.0
  0
LINE
  5
7E7B
  8
0
 10
102.5614111435
 20
84.726388519649987
 30
0.0
 11
102.08589832600001
 21
85.550001077450005
 31
0.0
  0
ARC
  5
7E7C
  8
0
 10
105.5499999069
 20
85.550001077450005
 30
0.0
 40
3.100000000000001
 50
195.40744939799961
 51
224.59255060200019
  0
LINE
  5
7E7D
  8
0
 10
103.8179491165
 20
82.55000105134998
 30
0.0
 11
103.3424361826
 21
83.373613609049968
 31
0.0
  0
LINE
  5
7E7E
  8
0
 10
104.7689749261
 20
82.55000105134998
 30
0.0
 11
103.8179491165
 21
82.55000105134998
 31
0.0
  0
ARC
  5
7E7F
  8
0
 10
105.5499999069
 20
85.550001077450005
 30
0.0
 40
3.1000000000000001
 50
255.4074493980001
 51
284.59255060200002
  0
LINE
  5
7E80
  8
0
 10
107.2820506974
 20
82.55000105134998
 30
0.0
 11
106.3310248878
 21
82.55000105134998
 31
0.0
  0
LINE
  5
7E81
  8
0
 10
107.7575636313
 20
83.373613609049968
 30
0.0
 11
107.2820506974
 21
82.55000105134998
 31
0.0
  0
ARC
  5
7E82
  8
0
 10
105.5499999069
 20
85.550001077450005
 30
0.0
 40
3.100000000000001
 50
315.40744939799981
 51
344.5925506020003
  0
LINE
  5
7E83
  8
0
 10
109.0141014878
 20
85.550001077450005
 30
0.0
 11
108.5385886703
 21
84.726388519649987
 31
0.0
  0
LINE
  5
7E84
  8
0
 10
108.5385886703
 20
86.373613635149994
 30
0.0
 11
109.0141014878
 21
85.550001077450005
 31
0.0
  0
ARC
  5
7E85
  8
0
 10
105.5499999069
 20
85.550001077450005
 30
0.0
 40
3.1000000000000059
 50
15.40744939799966
 51
44.592550602000173
  0
LINE
  5
7E86
  8
0
 10
107.1499998665
 20
88.550001103450015
 30
0.0
 11
107.3480761128
 21
88.435641676249986
 31
0.0
  0
POLYLINE
  5
7E87
  8
0
 66
     1
 10
0.0
 20
0.0
 30
0.0
 70
   128
  0
VERTEX
  5
88C3
  8
0
 10
108.9480760724
 20
85.664360431849985
 30
0.0
  0
VERTEX
  5
88C4
  8
0
 10
108.949999952
 20
85.550001077450005
 30
0.0
  0
VERTEX
  5
88C5
  8
0
 10
108.9480760724
 20
85.435641722949967
 30
0.0
  0
SEQEND
  5
88C6
  8
0
  0
LINE
  5
7E88
  8
0
 10
107.3480761128
 20
82.66436047854998
 30
0.0
 11
107.1499998665
 21
82.55000105134998
 31
0.0
  0
LINE
  5
7E89
  8
0
 10
103.9499999473
 20
82.55000105134998
 30
0.0
 11
103.751923701
 21
82.66436047854998
 31
0.0
  0
POLYLINE
  5
7E8A
  8
0
 66
     1
 10
0.0
 20
0.0
 30
0.0
 70
   128
  0
VERTEX
  5
88C7
  8
0
 10
102.1519237415
 20
85.435641722949967
 30
0.0
  0
VERTEX
  5
88C8
  8
0
 10
102.1499998619
 20
85.550001077450005
 30
0.0
  0
VERTEX
  5
88C9
  8
0
 10
102.1519237415
 20
85.664360431849985
 30
0.0
  0
SEQEND
  5
88CA
  8
0
  0
LINE
  5
7E8B
  8
0
 10
103.751923701
 20
88.435641676249986
 30
0.0
 11
103.9499999473
 21
88.550001103450015
 31
0.0
  0
CIRCLE
  5
7E8D
  8
0
 10
105.5499999069
 20
85.550001077450005
 30
0.0
 40
11.850000000000019
  0
CIRCLE
  5
7E8F
  8
0
 10
16.850000000000001
 20
85.550001077499985
 30
0.0
 40
7.5
  0
CIRCLE
  5
7E90
  8
0
 10
16.850000000000001
 20
85.550001077499985
 30
0.0
 40
4.25
  0
CIRCLE
  5
7E91
  8
3
 10
16.850000000000001
 20
85.550001077499985
 30
0.0
 40
3.9999999997917248
  0
CIRCLE
  5
7E92
  8
0
 10
16.850000000000001
 20
85.550001077499985
 30
0.0
 40
3.399999999999181
  0
CIRCLE
  5
7E93
  8
0
 10
16.850000000000001
 20
85.550001077499985
 30
0.0
 40
11.849999999999991
  0
ARC
  5
7E94
  8
0
 10
16.850000000000001
 20
85.550001077499985
 30
0.0
 40
9.4999999999999876
 50
186.33591921529569
 51
173.6640807847042
  0
ARC
  5
7E95
  8
0
 10
16.850000000000001
 20
85.550001077499985
 30
0.0
 40
8.6339745962155661
 50
183.75675441332521
 51
176.2432455866747
  0
CIRCLE
  5
7E96
  8
0
 10
16.850000000000001
 20
85.550001077499985
 30
0.0
 40
7.5999999999999943
  0
ARC
  5
7E97
  8
0
 10
16.850000000000001
 20
85.550001077499985
 30
0.0
 40
3.100000000000001
 50
315.40744939799981
 51
344.5925506020003
  0
LINE
  5
7E98
  8
0
 10
20.248076165400011
 20
85.435641722999975
 30
0.0
 11
19.838588763400001
 21
84.726388519699981
 31
0.0
  0
LINE
  5
7E99
  8
0
 10
19.838588763400001
 20
86.373613635199973
 30
0.0
 11
20.248076165400011
 21
85.664360431899965
 31
0.0
  0
ARC
  5
7E9A
  8
0
 10
16.850000000000001
 20
85.550001077499985
 30
0.0
 40
3.1000000000000059
 50
15.40744939799966
 51
44.592550602000173
  0
LINE
  5
7E9B
  8
0
 10
18.648076205900001
 20
88.435641676299966
 30
0.0
 11
19.0575637243
 21
87.726388545799978
 31
0.0
  0
LINE
  5
7E9C
  8
0
 10
17.631024980799989
 20
88.550001103499994
 30
0.0
 11
18.44999995960001
 21
88.550001103499994
 31
0.0
  0
ARC
  5
7E9D
  8
0
 10
16.850000000000001
 20
85.550001077499985
 30
0.0
 40
3.0999999999999961
 50
75.407449398000054
 51
104.5925506019999
  0
LINE
  5
7E9E
  8
0
 10
15.25000004040001
 20
88.550001103499994
 30
0.0
 11
16.0689750192
 21
88.550001103499994
 31
0.0
  0
LINE
  5
7E9F
  8
0
 10
14.64243627560001
 20
87.726388545799978
 30
0.0
 11
15.05192379409999
 21
88.435641676299966
 31
0.0
  0
ARC
  5
7EA0
  8
0
 10
16.850000000000001
 20
85.550001077499985
 30
0.0
 40
3.1000000000000059
 50
135.40744939799981
 51
164.5925506020003
  0
LINE
  5
7EA1
  8
0
 10
13.451923834500009
 20
85.664360431899965
 30
0.0
 11
13.86141123659999
 21
86.373613635199973
 31
0.0
  0
LINE
  5
7EA2
  8
0
 10
13.86141123659999
 20
84.726388519699981
 30
0.0
 11
13.451923834500009
 21
85.435641722999975
 31
0.0
  0
ARC
  5
7EA3
  8
0
 10
16.850000000000001
 20
85.550001077499985
 30
0.0
 40
3.100000000000001
 50
195.40744939799961
 51
224.59255060200019
  0
LINE
  5
7EA4
  8
0
 10
15.05192379409999
 20
82.664360478599974
 30
0.0
 11
14.64243627560001
 21
83.373613609099976
 31
0.0
  0
LINE
  5
7EA5
  8
0
 10
16.0689750192
 20
82.550001051399974
 30
0.0
 11
15.25000004040001
 21
82.550001051399974
 31
0.0
  0
ARC
  5
7EA6
  8
0
 10
16.850000000000001
 20
85.550001077499985
 30
0.0
 40
3.0999999999999961
 50
255.4074493980001
 51
284.59255060200002
  0
LINE
  5
7EA7
  8
0
 10
18.44999995960001
 20
82.550001051399974
 30
0.0
 11
17.631024980799989
 21
82.550001051399974
 31
0.0
  0
LINE
  5
7EA8
  8
0
 10
19.0575637243
 20
83.373613609099976
 30
0.0
 11
18.648076205900001
 21
82.664360478599974
 31
0.0
  0
LINE
  5
7EB4
  8
1
 10
0.0000000000000018
 20
85.550001077499985
 30
0.0
 11
33.699999999999967
 21
85.550001077499985
 31
0.0
  0
LINE
  5
7EB5
  8
1
 10
16.850000000000001
 20
102.40000107749999
 30
0.0
 11
16.850000000000001
 21
68.700001077499991
 31
0.0
  0
LINE
  5
7EB6
  8
1
 10
43.699999999999967
 20
85.550001077450005
 30
0.0
 11
78.699999906899976
 21
85.550001077450005
 31
0.0
  0
LINE
  5
7EB7
  8
1
 10
88.699999906899976
 20
85.550001077450005
 30
0.0
 11
122.39999990690001
 21
85.550001077450005
 31
0.0
  0
LINE
  5
7EB8
  8
1
 10
105.5499999069
 20
102.40000107745
 30
0.0
 11
105.5499999069
 21
68.700001077449969
 31
0.0
  0
LINE
  5
80A1
  8
0
 10
53.055768673149949
 20
30.0
 30
0.0
 11
53.411537156249949
 21
30.0
 31
0.0
  0
LINE
  5
80A2
  8
0
 10
53.411537156249949
 20
53.700000718299997
 30
0.0
 11
53.055768673149949
 21
53.700000718299997
 31
0.0
  0
LINE
  5
80A3
  8
0
 10
57.633431934649941
 20
30.59334933760001
 30
0.0
 11
59.666697707849963
 21
33.497153520600001
 31
0.0
  0
LINE
  5
80A4
  8
0
 10
59.666697707849963
 20
50.202847197700009
 30
0.0
 11
57.633431934649941
 21
53.106651380700001
 31
0.0
  0
LINE
  5
80A5
  8
0
 10
57.633431934649941
 20
53.106651380700001
 30
0.0
 11
53.411537156249949
 21
53.700000718299997
 31
0.0
  0
LINE
  5
80A6
  8
0
 10
53.411537156249949
 20
30.0
 30
0.0
 11
57.633431934649941
 21
30.59334933760001
 31
0.0
  0
ARC
  5
80A7
  8
0
 10
67.109178690749957
 20
51.700000359200011
 30
0.0
 40
0.3999999999999915
 50
90.0
 51
164.9999999999996
  0
ARC
  5
80A8
  8
0
 10
67.109178690749957
 20
32.000000359200001
 30
0.0
 40
0.4000000000000057
 50
195.00000000000031
 51
270.0
  0
LINE
  5
80A9
  8
0
 10
70.828366865249961
 20
52.100000642299989
 30
0.0
 11
67.109178592249947
 21
52.100000642299989
 31
0.0
  0
LINE
  5
80AD
  8
0
 10
67.109178592249947
 20
31.600000076000001
 30
0.0
 11
70.828366865249961
 21
31.600000076000001
 31
0.0
  0
ARC
  5
80AE
  8
0
 10
70.828367738449941
 20
50.600000359199989
 30
0.0
 40
1.500000000000014
 50
49.999999999999787
 51
90.0
  0
ARC
  5
80AF
  8
0
 10
70.828367738449941
 20
33.100000359200003
 30
0.0
 40
1.500000000000014
 50
270.0
 51
310.0
  0
LINE
  5
80B0
  8
0
 10
66.722808246349956
 20
51.803528070499993
 30
0.0
 11
66.164687116449954
 21
49.720590673399997
 31
0.0
  0
LINE
  5
80B1
  8
0
 10
66.164687116449954
 20
33.979410044899993
 30
0.0
 11
66.722808246349956
 21
31.896472647799978
 31
0.0
  0
LINE
  5
80B2
  8
0
 10
71.79254836294993
 20
31.950933597999992
 30
0.0
 11
73.698555891249953
 21
33.5502631218
 31
0.0
  0
LINE
  5
80B3
  8
0
 10
73.698555891249953
 20
50.149737596499989
 30
0.0
 11
71.79254836294993
 21
51.749067120299983
 31
0.0
  0
ARC
  5
80B4
  8
0
 10
61.305001812749971
 20
51.350000359200003
 30
0.0
 40
1.999999999999986
 50
215.00000000000011
 51
270.0
  0
ARC
  5
80B5
  8
0
 10
61.305001812749971
 20
32.350000359200003
 30
0.0
 40
1.9999999999999949
 50
90.0
 51
144.99999999999989
  0
ARC
  5
80B6
  8
0
 10
73.055768673149942
 20
49.383692701000001
 30
0.0
 40
1.0000000000000031
 50
0.0
 51
49.999999999999787
  0
ARC
  5
80B7
  8
0
 10
73.055768673149942
 20
34.316308017299988
 30
0.0
 40
0.9999999999999932
 50
310.0
 51
0.0
  0
ARC
  5
80B8
  8
0
 10
65.681724122449936
 20
49.850000359199989
 30
0.0
 40
0.5000000000000116
 50
270.0
 51
344.9999999999996
  0
ARC
  5
80B9
  8
0
 10
65.681724122449936
 20
33.850000359200003
 30
0.0
 40
0.5000000000000152
 50
15.000000000000369
 51
90.0
  0
LINE
  5
80BA
  8
0
 10
51.555768660149973
 20
49.350000191500001
 30
0.0
 11
49.05576848314994
 21
49.350000191500001
 31
0.0
  0
LINE
  5
80BB
  8
0
 10
49.05576848314994
 20
34.350000526800002
 30
0.0
 11
51.555768660149973
 21
34.350000526800002
 31
0.0
  0
LINE
  5
80BC
  8
0
 10
51.555768660149973
 20
34.350000526800002
 30
0.0
 11
51.728973704249981
 21
34.650000482799982
 31
0.0
  0
LINE
  5
80BD
  8
0
 10
51.728973704249981
 20
49.050000235499994
 30
0.0
 11
51.555768660149973
 21
49.350000191500001
 31
0.0
  0
LINE
  5
80BE
  8
0
 10
65.681723718349957
 20
49.350000191500001
 30
0.0
 11
61.305002149949964
 21
49.350000191500001
 31
0.0
  0
LINE
  5
80BF
  8
0
 10
61.305002149949964
 20
34.350000526800002
 30
0.0
 11
65.681723718349957
 21
34.350000526800002
 31
0.0
  0
LINE
  5
80C0
  8
0
 10
53.055768673149949
 20
49.050000235499994
 30
0.0
 11
51.728973704249981
 21
49.050000235499994
 31
0.0
  0
LINE
  5
80C1
  8
0
 10
51.728973704249981
 20
34.650000482799982
 30
0.0
 11
53.055768673149949
 21
34.650000482799982
 31
0.0
  0
LINE
  5
80C3
  8
0
 10
54.123074122549959
 20
39.84035036529999
 30
0.0
 11
54.123074122549959
 21
43.859650352999992
 31
0.0
  0
ARC
  5
80C4
  8
0
 10
55.602996185849953
 20
38.215139445599988
 30
0.0
 40
2.1980627486907598
 50
132.32109013939979
 51
175.55756918429961
  0
LINE
  5
80C5
  8
0
 10
53.411537156249949
 20
30.0
 30
0.0
 11
53.411537156249949
 21
38.385395631199991
 31
0.0
  0
LINE
  5
80C6
  8
0
 10
53.411537156249949
 20
45.314605087099991
 30
0.0
 11
53.411537156249949
 21
53.700000718299997
 31
0.0
  0
ARC
  5
80C7
  8
0
 10
55.554943597449949
 20
45.461361439900003
 30
0.0
 40
2.1484246784521051
 50
183.9168571491997
 51
228.20448352699989
  0
LINE
  5
80C8
  8
0
 10
53.055768673149949
 20
30.0
 30
0.0
 11
53.055768673149949
 21
53.700000718299997
 31
0.0
  0
LINE
  5
80C9
  8
0
 10
57.555768479449974
 20
39.953591623400001
 30
0.0
 11
57.555768479449974
 21
43.746409094900002
 31
0.0
  0
LINE
  5
80CA
  8
0
 10
54.123074122549959
 20
39.84035036529999
 30
0.0
 11
57.555768479449974
 21
39.953591623400001
 31
0.0
  0
LINE
  5
80CB
  8
0
 10
57.555768479449974
 20
43.746409094900002
 30
0.0
 11
54.123074122549959
 21
43.859650352999992
 31
0.0
  0
LINE
  5
80CC
  8
0
 10
57.555768479449974
 20
39.953591623400001
 30
0.0
 11
57.633431934649941
 21
38.558874018500013
 31
0.0
  0
LINE
  5
80CD
  8
0
 10
57.633431934649941
 20
38.558874018500013
 30
0.0
 11
53.411537156249949
 21
38.385395631199991
 31
0.0
  0
LINE
  5
80CE
  8
0
 10
57.633431934649941
 20
45.141126699799997
 30
0.0
 11
57.555768479449974
 21
43.746409094900002
 31
0.0
  0
LINE
  5
80CF
  8
0
 10
53.411537156249949
 20
45.314605087099991
 30
0.0
 11
57.633431934649941
 21
45.141126699799997
 31
0.0
  0
LINE
  5
80D0
  8
0
 10
57.633431934649941
 20
45.141126699799997
 30
0.0
 11
57.633431934649941
 21
53.106651380700001
 31
0.0
  0
LINE
  5
80D1
  8
0
 10
57.633431934649941
 20
30.59334933760001
 30
0.0
 11
57.633431934649941
 21
38.558874018500013
 31
0.0
  0
LINE
  5
817B
  8
0
 10
74.055768390049963
 20
34.316308070000012
 30
0.0
 11
74.055768390049977
 21
49.384445163537187
 31
0.0
  0
LINE
  5
8192
  8
0
 10
51.555768660149973
 20
49.350000191500001
 30
0.0
 11
51.555768660149973
 21
34.350000526800002
 31
0.0
  0
LINE
  5
8194
  8
0
 10
49.05576848314994
 20
49.350000191500001
 30
0.0
 11
49.05576848314994
 21
34.350000526800002
 31
0.0
  0
LINE
  5
8196
  8
0
 10
51.728973704249981
 20
49.050000235499994
 30
0.0
 11
51.728973704249981
 21
34.650000482799982
 31
0.0
  0
LINE
  5
81DD
  8
0
 10
59.666697707849963
 20
33.497153520600001
 30
0.0
 11
59.666697707849963
 21
50.202847197700009
 31
0.0
  0
LINE
  5
81DE
  8
0
 10
66.722808246349985
 20
31.8964726478
 30
0.0
 11
66.722808246349956
 21
51.803528070499993
 31
0.0
  0
LINE
  5
81E0
  8
0
 10
67.109178592249947
 20
31.60000035920001
 30
0.0
 11
67.109178592249947
 21
52.100000642299989
 31
0.0
  0
LINE
  5
81E2
  8
0
 10
70.828366865249961
 20
31.60000007599999
 30
0.0
 11
70.828366865249961
 21
52.100000642299989
 31
0.0
  0
LINE
  5
81E4
  8
0
 10
71.79254836294993
 20
31.950933597999992
 30
0.0
 11
71.79254836294993
 21
51.749067120299983
 31
0.0
  0
LINE
  5
81E5
  8
0
 10
66.164687116449954
 20
49.720590673399997
 30
0.0
 11
66.164687116449954
 21
33.979410044899993
 31
0.0
  0
LINE
  5
81E6
  8
0
 10
73.698555891249953
 20
33.5502631218
 30
0.0
 11
73.698555891249953
 21
50.149737596499989
 31
0.0
  0
LINE
  5
81E8
  8
0
 10
61.305002149949964
 20
49.350000191500001
 30
0.0
 11
61.305002149949949
 21
34.35000035919996
 31
0.0
  0
LINE
  5
81E9
  8
0
 10
65.681723718349957
 20
34.350000359199854
 30
0.0
 11
65.681723718349957
 21
49.350000191500001
 31
0.0
  0
LINE
  5
823E
  8
1
 10
44.05576848314994
 20
41.850000359199989
 30
0.0
 11
79.055768390049934
 21
41.850000359199989
 31
0.0
  0
ARC
  5
824C
  8
0
 10
66.753410207599984
 20
95.400001077449986
 30
0.0
 40
0.3999999999999915
 50
90.0
 51
164.9999999999996
  0
ARC
  5
824D
  8
0
 10
66.753410207599984
 20
75.700001077449997
 30
0.0
 40
0.4000000000000057
 50
195.00000000000031
 51
270.0
  0
LINE
  5
824E
  8
0
 10
70.472598382099989
 20
95.800001360549984
 30
0.0
 11
66.753410109099974
 21
95.800001360549984
 31
0.0
  0
LINE
  5
824F
  8
0
 10
66.753410109099974
 20
75.300000794249996
 30
0.0
 11
70.472598382099989
 21
75.300000794249996
 31
0.0
  0
ARC
  5
8250
  8
0
 10
70.472599255299968
 20
94.300001077450005
 30
0.0
 40
1.500000000000014
 50
50.0
 51
90.0
  0
ARC
  5
8251
  8
0
 10
70.472599255299968
 20
76.800001077449991
 30
0.0
 40
1.500000000000014
 50
270.0
 51
310.0
  0
LINE
  5
8252
  8
0
 10
66.367039763199983
 20
95.503528788749989
 30
0.0
 11
65.808918633299982
 21
93.420591391650007
 31
0.0
  0
LINE
  5
8253
  8
0
 10
65.808918633299982
 20
77.679410763149988
 30
0.0
 11
66.367039763199983
 21
75.596473366049977
 31
0.0
  0
LINE
  5
8254
  8
0
 10
71.436779879799957
 20
75.650934316249973
 30
0.0
 11
73.34278740809998
 21
77.250263840049996
 31
0.0
  0
LINE
  5
8255
  8
0
 10
73.34278740809998
 20
93.849738314749985
 30
0.0
 11
71.436779879799957
 21
95.449067838549965
 31
0.0
  0
ARC
  5
8256
  8
0
 10
60.949233329599998
 20
95.050001077449991
 30
0.0
 40
1.999999999999986
 50
215.00000000000011
 51
270.0
  0
ARC
  5
8257
  8
0
 10
60.949233329599998
 20
76.050001077449991
 30
0.0
 40
1.9999999999999949
 50
90.0
 51
144.99999999999989
  0
ARC
  5
8258
  8
0
 10
72.700000189999969
 20
93.083693419249997
 30
0.0
 40
1.0000000000000031
 50
0.0
 51
50.0
  0
ARC
  5
8259
  8
0
 10
72.700000189999969
 20
78.016308735549984
 30
0.0
 40
0.9999999999999932
 50
310.0
 51
0.0
  0
ARC
  5
825A
  8
0
 10
65.325955639299963
 20
93.550001077449991
 30
0.0
 40
0.5000000000000116
 50
270.0
 51
344.9999999999996
  0
ARC
  5
825B
  8
0
 10
65.325955639299963
 20
77.550001077449991
 30
0.0
 40
0.5000000000000152
 50
15.000000000000369
 51
90.0
  0
LINE
  5
825C
  8
0
 10
51.200000177
 20
93.050000909749997
 30
0.0
 11
48.699999999999967
 21
93.050000909749997
 31
0.0
  0
LINE
  5
825D
  8
0
 10
48.699999999999967
 20
78.050001245049984
 30
0.0
 11
51.200000177
 21
78.050001245049984
 31
0.0
  0
LINE
  5
825E
  8
0
 10
51.200000177
 20
78.050001245049984
 30
0.0
 11
51.373205221100008
 21
78.350001201049963
 31
0.0
  0
LINE
  5
825F
  8
0
 10
51.373205221100008
 20
92.750000953749975
 30
0.0
 11
51.200000177
 21
93.050000909749997
 31
0.0
  0
LINE
  5
8260
  8
0
 10
65.325955235199984
 20
93.050000909749997
 30
0.0
 11
60.949233666799991
 21
93.050000909749997
 31
0.0
  0
LINE
  5
8261
  8
0
 10
60.949233666799991
 20
78.050001245049984
 30
0.0
 11
65.325955235199984
 21
78.050001245049984
 31
0.0
  0
LINE
  5
8262
  8
0
 10
52.700000189999983
 20
92.750000953749975
 30
0.0
 11
51.373205221100008
 21
92.750000953749975
 31
0.0
  0
LINE
  5
8263
  8
0
 10
51.373205221100008
 20
78.350001201049963
 30
0.0
 11
52.700000189999983
 21
78.350001201049963
 31
0.0
  0
LINE
  5
8269
  8
0
 10
52.700000189999983
 20
73.700000718249996
 30
0.0
 11
52.700000189999983
 21
97.400001436549999
 31
0.0
  0
LINE
  5
8273
  8
0
 10
73.69999990689999
 20
78.015556273017069
 30
0.0
 11
73.69999990689999
 21
93.083693366549994
 31
0.0
  0
LINE
  5
8275
  8
0
 10
51.200000177
 20
93.050000909749997
 30
0.0
 11
51.200000177
 21
78.050001245049984
 31
0.0
  0
LINE
  5
8276
  8
0
 10
48.699999999999967
 20
93.050000909749997
 30
0.0
 11
48.699999999999967
 21
78.050001245049984
 31
0.0
  0
LINE
  5
8278
  8
0
 10
51.373205221100008
 20
92.750000953749975
 30
0.0
 11
51.373205221100008
 21
78.350001201049963
 31
0.0
  0
LINE
  5
8279
  8
0
 10
59.31092922469999
 20
77.197154238849976
 30
0.0
 11
59.31092922469999
 21
93.902847915950005
 31
0.0
  0
LINE
  5
827A
  8
0
 10
66.367039763200012
 20
75.596473366049992
 30
0.0
 11
66.367039763199983
 21
95.503528788749989
 31
0.0
  0
LINE
  5
827B
  8
0
 10
66.753410109099974
 20
75.300001077450005
 30
0.0
 11
66.753410109099974
 21
95.800001360549984
 31
0.0
  0
LINE
  5
827C
  8
0
 10
70.472598382099989
 20
75.300000794249996
 30
0.0
 11
70.472598382099989
 21
95.800001360549984
 31
0.0
  0
LINE
  5
827D
  8
0
 10
71.436779879799957
 20
75.650934316249973
 30
0.0
 11
71.436779879799957
 21
95.449067838549965
 31
0.0
  0
LINE
  5
827E
  8
0
 10
65.808918633299982
 20
93.420591391650007
 30
0.0
 11
65.808918633299982
 21
77.679410763149988
 31
0.0
  0
LINE
  5
827F
  8
0
 10
73.34278740809998
 20
77.250263840049996
 30
0.0
 11
73.34278740809998
 21
93.849738314749985
 31
0.0
  0
LINE
  5
8280
  8
0
 10
60.949233666799991
 20
93.050000909749997
 30
0.0
 11
60.949233666799991
 21
78.050001077449963
 31
0.0
  0
LINE
  5
8281
  8
0
 10
65.325955235199984
 20
78.050001077449849
 30
0.0
 11
65.325955235199984
 21
93.050000909749997
 31
0.0
  0
LINE
  5
8617
  8
0
 10
57.277663451399967
 20
96.314789913699997
 30
0.0
 11
53.055768673099983
 21
96.882212162099989
 31
0.0
  0
LINE
  5
8618
  8
0
 10
57.277663451399967
 20
74.785212241199986
 30
0.0
 11
57.277663451399967
 21
96.314789913699997
 31
0.0
  0
LINE
  5
8619
  8
0
 10
53.055768673099983
 20
74.217789992799993
 30
0.0
 11
57.277663451399967
 21
74.785212241199986
 31
0.0
  0
LINE
  5
861A
  8
0
 10
53.055768673099983
 20
74.217789992799993
 30
0.0
 11
53.055768673099983
 21
96.882212162099989
 31
0.0
  0
LINE
  5
861B
  8
0
 10
53.767305639299963
 20
97.228348441500003
 30
0.0
 11
53.767305639299963
 21
97.400001436500006
 31
0.0
  0
POLYLINE
  5
861C
  8
0
 66
     1
 10
0.0
 20
0.0
 30
0.0
 70
   128
  0
VERTEX
  5
88CB
  8
0
 10
53.055768673099983
 20
96.882212162099989
 30
0.0
  0
VERTEX
  5
88CC
  8
0
 10
53.081259117499982
 20
96.961726620899995
 30
0.0
  0
VERTEX
  5
88CD
  8
0
 10
53.157771690799969
 20
97.034770250399987
 30
0.0
  0
VERTEX
  5
88CE
  8
0
 10
53.315412733899983
 20
97.113209962899987
 30
0.0
  0
VERTEX
  5
88CF
  8
0
 10
53.529510638899978
 20
97.178429551499988
 30
0.0
  0
VERTEX
  5
88D0
  8
0
 10
53.767305639299963
 20
97.228348441500003
 30
0.0
  0
SEQEND
  5
88D1
  8
0
  0
POLYLINE
  5
861D
  8
0
 66
     1
 10
0.0
 20
0.0
 30
0.0
 70
   128
  0
VERTEX
  5
88D2
  8
0
 10
53.767305639299963
 20
73.871653713399979
 30
0.0
  0
VERTEX
  5
88D3
  8
0
 10
53.522756454799982
 20
73.923258297199993
 30
0.0
  0
VERTEX
  5
88D4
  8
0
 10
53.311146461599968
 20
73.988424800399983
 30
0.0
  0
VERTEX
  5
88D5
  8
0
 10
53.176595233399972
 20
74.053003639099984
 30
0.0
  0
VERTEX
  5
88D6
  8
0
 10
53.086533080799981
 20
74.13078770049998
 30
0.0
  0
VERTEX
  5
88D7
  8
0
 10
53.055768673099983
 20
74.217789992799993
 30
0.0
  0
SEQEND
  5
88D8
  8
0
  0
LINE
  5
861E
  8
0
 10
53.767305639299963
 20
73.700000718299975
 30
0.0
 11
53.767305639299963
 21
73.871653713399979
 31
0.0
  0
LINE
  5
861F
  8
0
 10
57.199999996199971
 20
74.182435125199987
 30
0.0
 11
57.199999996199971
 21
74.341735988899984
 31
0.0
  0
LINE
  5
8620
  8
0
 10
57.277663451399967
 20
74.785212241199986
 30
0.0
 11
57.199999996199971
 21
74.341735988899984
 31
0.0
  0
LINE
  5
8621
  8
0
 10
57.199999996199971
 20
96.758266165899997
 30
0.0
 11
57.277663451399967
 21
96.314789913699997
 31
0.0
  0
LINE
  5
8622
  8
0
 10
57.199999996199971
 20
96.758266165899997
 30
0.0
 11
57.199999996199971
 21
96.917567029699995
 31
0.0
  0
LINE
  5
8623
  8
0
 10
57.199999996199971
 20
74.341735988899984
 30
0.0
 11
53.767305639299963
 21
73.871653713399979
 31
0.0
  0
LINE
  5
8624
  8
0
 10
53.767305639299963
 20
97.228348441500003
 30
0.0
 11
57.199999996199971
 21
96.758266165899997
 31
0.0
  0
LINE
  5
8625
  8
0
 10
52.700000189899981
 20
73.700000718299975
 30
0.0
 11
53.767305639299963
 21
73.700000718299975
 31
0.0
  0
LINE
  5
8626
  8
0
 10
53.767305639299963
 20
97.400001436500006
 30
0.0
 11
52.700000189899981
 21
97.400001436500006
 31
0.0
  0
LINE
  5
8627
  8
0
 10
57.199999996199971
 20
96.917567029699995
 30
0.0
 11
53.767305639299963
 21
97.400001436500006
 31
0.0
  0
LINE
  5
8628
  8
0
 10
53.767305639299963
 20
73.700000718299975
 30
0.0
 11
57.199999996199971
 21
74.182435125199987
 31
0.0
  0
LINE
  5
8629
  8
0
 10
57.199999996199971
 20
74.182435125199987
 30
0.0
 11
59.310929224599967
 21
77.197154238899998
 31
0.0
  0
LINE
  5
862A
  8
0
 10
59.310929224599967
 20
93.902847915999985
 30
0.0
 11
57.199999996199971
 21
96.917567029699995
 31
0.0
  0
LINE
  5
862B
  8
0
 10
108.8411262476
 20
96.314789913749991
 30
0.0
 11
107.44640864270001
 21
96.758266165949976
 31
0.0
  0
ARC
  5
862C
  8
0
 10
105.5499999069
 20
85.550001077450005
 30
0.0
 40
11.256651359412229
 50
287.00000000000023
 51
72.999999999999815
  0
LINE
  5
862D
  8
0
 10
107.44640864270001
 20
74.341735988949992
 30
0.0
 11
108.8411262476
 21
74.785212241249994
 31
0.0
  0
ARC
  5
862E
  8
0
 10
105.5499999069
 20
85.550001077450005
 30
0.0
 40
11.36756624383918
 50
260.39665694859968
 51
279.60334305140032
  0
LINE
  5
862F
  8
0
 10
102.2588735663
 20
74.785212241249994
 30
0.0
 11
103.65359117120001
 21
74.341735988949992
 31
0.0
  0
ARC
  5
8630
  8
0
 10
105.5499999069
 20
85.550001077450005
 30
0.0
 40
11.25665135941219
 50
107.0000000000002
 51
252.9999999999998
  0
LINE
  5
8631
  8
0
 10
103.65359117120001
 20
96.758266165949976
 30
0.0
 11
102.2588735663
 21
96.314789913749991
 31
0.0
  0
ARC
  5
8632
  8
0
 10
105.5499999069
 20
85.550001077450005
 30
0.0
 40
11.3675662438392
 50
80.396656948599755
 51
99.603343051400245
  0
LINE
  5
8633
  8
0
 10
107.44640864270001
 20
96.758266165949976
 30
0.0
 11
107.5596499008
 21
97.228348441549997
 31
0.0
  0
LINE
  5
8634
  8
0
 10
109.0146046349
 20
96.882212162149983
 30
0.0
 11
108.8411262476
 21
96.314789913749991
 31
0.0
  0
LINE
  5
8635
  8
0
 10
107.5596499008
 20
73.871653713449973
 30
0.0
 11
107.44640864270001
 21
74.341735988949992
 31
0.0
  0
LINE
  5
8636
  8
0
 10
108.8411262476
 20
74.785212241249994
 30
0.0
 11
109.0146046349
 21
74.217789992849987
 31
0.0
  0
LINE
  5
8637
  8
0
 10
103.5403499131
 20
97.228348441549997
 30
0.0
 11
103.65359117120001
 21
96.758266165949976
 31
0.0
  0
LINE
  5
8638
  8
0
 10
102.2588735663
 20
96.314789913749991
 30
0.0
 11
102.0853951789999
 21
96.882212162149983
 31
0.0
  0
LINE
  5
8639
  8
0
 10
103.65359117120001
 20
74.341735988949992
 30
0.0
 11
103.5403499131
 21
73.871653713449973
 31
0.0
  0
LINE
  5
863A
  8
0
 10
102.0853951789999
 20
74.217789992849987
 30
0.0
 11
102.2588735663
 21
74.785212241249994
 31
0.0
  0
LINE
  5
87BF
  8
1
 10
7.349999999999997
 20
88.600001077499982
 30
0.0
 11
7.349999999999997
 21
82.500001077499988
 31
0.0
  0
CIRCLE
  5
87C0
  8
0
 10
7.349999999999997
 20
85.550001077499985
 30
0.0
 40
1.05
  0
ENDSEC
  0
EOF
