  0
SECTION
  2
HEADER
  9
$ACADVER
  1
AC1009
  9
$INSBASE
 10
0.0
 20
0.0
 30
0.0
  9
$EXTMIN
 10
-0.0204638472032742
 20
-2.960436562073669
 30
0.0
  9
$EXTMAX
 10
301.68541945252741
 20
250.41519293294181
 30
0.0
  9
$LIMMIN
 10
0.0
 20
0.0
  9
$LIMMAX
 10
375.0
 20
270.0
  9
$ORTHOMODE
 70
     1
  9
$REGENMODE
 70
     1
  9
$FILLMODE
 70
     1
  9
$QTEXTMODE
 70
     0
  9
$MIRRTEXT
 70
     0
  9
$DRAGMODE
 70
     2
  9
$LTSCALE
 40
10.0
  9
$OSMODE
 70
  3071
  9
$ATTMODE
 70
     1
  9
$TEXTSIZE
 40
4.000000000000048
  9
$TRACEWID
 40
0.05
  9
$TEXTSTYLE
  7
STANDARD
  9
$CLAYER
  8
0
  9
$CELTYPE
  6
BYLAYER
  9
$CECOLOR
 62
   256
  9
$DIMSCALE
 40
1.0
  9
$DIMASZ
 40
3.0
  9
$DIMEXO
 40
2.0
  9
$DIMDLI
 40
0.38
  9
$DIMRND
 40
0.0
  9
$DIMDLE
 40
0.0
  9
$DIMEXE
 40
2.0
  9
$DIMTP
 40
0.0
  9
$DIMTM
 40
0.0
  9
$DIMTXT
 40
3.2000000000000002
  9
$DIMCEN
 40
0.0
  9
$DIMTSZ
 40
0.0
  9
$DIMTOL
 70
     0
  9
$DIMLIM
 70
     0
  9
$DIMTIH
 70
     0
  9
$DIMTOH
 70
     0
  9
$DIMSE1
 70
     0
  9
$DIMSE2
 70
     0
  9
$DIMTAD
 70
     1
  9
$DIMZIN
 70
     0
  9
$DIMBLK
  1

  9
$DIMASO
 70
     0
  9
$DIMSHO
 70
     0
  9
$DIMPOST
  1

  9
$DIMAPOST
  1

  9
$DIMALT
 70
     0
  9
$DIMALTD
 70
     2
  9
$DIMALTF
 40
25.399999999999999
  9
$DIMLFAC
 40
1.0
  9
$DIMTOFL
 70
     1
  9
$DIMTVP
 40
1.6000000000000001
  9
$DIMTIX
 70
     1
  9
$DIMSOXD
 70
     0
  9
$DIMSAH
 70
     0
  9
$DIMBLK1
  1

  9
$DIMBLK2
  1

  9
$DIMSTYLE
  2
STANDARD
  9
$DIMCLRD
 70
     0
  9
$DIMCLRE
 70
     0
  9
$DIMCLRT
 70
     0
  9
$DIMTFAC
 40
1.0
  9
$DIMGAP
 40
0.09
  9
$LUNITS
 70
     2
  9
$LUPREC
 70
     4
  9
$SKETCHINC
 40
0.1
  9
$FILLETRAD
 40
0.75
  9
$AUNITS
 70
     0
  9
$AUPREC
 70
     4
  9
$MENU
  1
E:\r13\win\SUPPORT\ACAD
  9
$ELEVATION
 40
0.0
  9
$PELEVATION
 40
0.0
  9
$THICKNESS
 40
0.0
  9
$LIMCHECK
 70
     0
  9
$BLIPMODE
 70
     0
  9
$CHAMFERA
 40
0.0
  9
$CHAMFERB
 40
0.0
  9
$SKPOLY
 70
     0
  9
$TDCREATE
 40
2449840.6534027779
  9
$TDUPDATE
 40
2456597.5612987271
  9
$TDINDWG
 40
0.0001061111
  9
$TDUSRTIMER
 40
0.0001061111
  9
$USRTIMER
 70
     1
  9
$ANGBASE
 50
0.0
  9
$ANGDIR
 70
     0
  9
$PDMODE
 70
    35
  9
$PDSIZE
 40
0.0
  9
$PLINEWID
 40
0.0
  9
$COORDS
 70
     1
  9
$SPLFRAME
 70
     0
  9
$SPLINETYPE
 70
     6
  9
$SPLINESEGS
 70
     8
  9
$ATTDIA
 70
     0
  9
$ATTREQ
 70
     1
  9
$HANDLING
 70
     1
  9
$HANDSEED
  5
24A
  9
$SURFTAB1
 70
     6
  9
$SURFTAB2
 70
     6
  9
$SURFTYPE
 70
     6
  9
$SURFU
 70
     6
  9
$SURFV
 70
     6
  9
$UCSNAME
  2

  9
$UCSORG
 10
0.0
 20
0.0
 30
0.0
  9
$UCSXDIR
 10
1.0
 20
0.0
 30
0.0
  9
$UCSYDIR
 10
0.0
 20
1.0
 30
0.0
  9
$PUCSNAME
  2

  9
$PUCSORG
 10
0.0
 20
0.0
 30
0.0
  9
$PUCSXDIR
 10
1.0
 20
0.0
 30
0.0
  9
$PUCSYDIR
 10
0.0
 20
1.0
 30
0.0
  9
$USERI1
 70
     0
  9
$USERI2
 70
     1
  9
$USERI3
 70
     0
  9
$USERI4
 70
     0
  9
$USERI5
 70
     0
  9
$USERR1
 40
0.0
  9
$USERR2
 40
0.0
  9
$USERR3
 40
0.0
  9
$USERR4
 40
0.0
  9
$USERR5
 40
0.0
  9
$WORLDVIEW
 70
     1
  9
$SHADEDGE
 70
     3
  9
$SHADEDIF
 70
    70
  9
$TILEMODE
 70
     1
  9
$MAXACTVP
 70
    16
  9
$PLIMCHECK
 70
     0
  9
$PEXTMIN
 10
1.0000000000000000E+020
 20
1.0000000000000000E+020
 30
1.0000000000000000E+020
  9
$PEXTMAX
 10
-1.0000000000000000E+020
 20
-1.0000000000000000E+020
 30
-1.0000000000000000E+020
  9
$PLIMMIN
 10
0.0
 20
0.0
  9
$PLIMMAX
 10
12.0
 20
9.0
  9
$UNITMODE
 70
     0
  9
$VISRETAIN
 70
     0
  9
$PLINEGEN
 70
     0
  9
$PSLTSCALE
 70
     0
  0
ENDSEC
  0
SECTION
  2
TABLES
  0
TABLE
  2
VPORT
 70
     1
  0
VPORT
  2
*ACTIVE
 70
     0
 10
0.0
 20
0.0
 11
1.0
 21
1.0
 12
195.04380321732449
 22
133.5127261426681
 13
0.0
 23
0.0
 14
5.0
 24
5.0
 15
10.0
 25
10.0
 16
0.0
 26
0.0
 36
1.0
 17
0.0
 27
0.0
 37
0.0
 40
275.42274993631997
 41
1.831871345029239
 42
50.0
 43
0.0
 44
0.0
 50
0.0
 51
0.0
 71
     0
 72
   500
 73
     1
 74
     0
 75
     0
 76
     0
 77
     0
 78
     2
  0
ENDTAB
  0
TABLE
  2
LTYPE
 70
     3
  0
LTYPE
  2
CONTINUOUS
 70
     0
  3
Solid Line
 72
    65
 73
     0
 40
0.0
  0
LTYPE
  2
CENTER
 70
     0
  3
____ _ ____ _ ____ _ ____ _ ____ _ ____ _ ____
 72
    65
 73
     4
 40
2.0
 49
1.25
 49
-0.25
 49
0.25
 49
-0.25
  0
LTYPE
  2
PHANTOM2
 70
     0
  3
___ _ _ ___ _ _ ___ _ _ ___ _ _
 72
    65
 73
     6
 40
1.25
 49
0.625
 49
-0.125
 49
0.125
 49
-0.125
 49
0.125
 49
-0.125
  0
ENDTAB
  0
TABLE
  2
LAYER
 70
     2
  0
LAYER
  2
0
 70
     0
 62
     7
  6
CONTINUOUS
  0
LAYER
  2
1
 70
     0
 62
     1
  6
CENTER
  0
ENDTAB
  0
TABLE
  2
STYLE
 70
     2
  0
STYLE
  2
STANDARD
 70
     0
 40
0.0
 41
1.0
 50
0.0
 71
     0
 42
4.000000000000048
  3
TXT
  4
BIGFONT
  0
STYLE
  2
STANDARD1
 70
     0
 40
0.0
 41
1.0
 50
0.0
 71
     0
 42
3.0
  3
txt
  4

  0
ENDTAB
  0
TABLE
  2
VIEW
 70
     1
  0
VIEW
  2
ALL
 70
     0
 40
270.0
 10
220.99159663865549
 20
135.0
 41
0.0
 11
0.0
 21
0.0
 31
1.0
 12
0.0
 22
0.0
 32
0.0
 42
0.0
 43
0.0
 44
0.0
 50
0.0
 71
     0
  0
ENDTAB
  0
TABLE
  2
UCS
 70
     0
  0
ENDTAB
  0
TABLE
  2
APPID
 70
     3
  0
APPID
  2
ACAD
 70
     0
  0
APPID
  2
ACAD_MLEADERVER
 70
     0
  0
APPID
  2
ACAD_NAV_VCDISPLAY
 70
     0
  0
ENDTAB
  0
TABLE
  2
DIMSTYLE
 70
     1
  0
DIMSTYLE
  2
STANDARD
 70
     0
  3

  4

  5

  6

  7

 40
1.0
 41
0.18
 42
0.0625
 43
0.38
 44
0.18
 45
0.0
 46
0.0
 47
0.0
 48
0.0
140
0.18
141
0.09
142
0.0
143
25.399999999999999
144
1.0
145
0.0
146
1.0
147
0.09
 71
     0
 72
     0
 73
     1
 74
     1
 75
     0
 76
     0
 77
     0
 78
     0
170
     0
171
     2
172
     0
173
     0
174
     0
175
     0
176
     0
177
     0
178
     0
  0
ENDTAB
  0
ENDSEC
  0
SECTION
  2
BLOCKS
  0
BLOCK
  8
0
  2
$MODEL_SPACE
 70
     0
 10
0.0
 20
0.0
 30
0.0
  3
$MODEL_SPACE
  1

  0
ENDBLK
  5
C9
  8
0
  0
BLOCK
 67
     1
  8
0
  2
$PAPER_SPACE
 70
     0
 10
0.0
 20
0.0
 30
0.0
  3
$PAPER_SPACE
  1

  0
ENDBLK
  5
C7
 67
     1
  8
0
  0
ENDSEC
  0
SECTION
  2
ENTITIES
  0
LINE
  5
36
  8
0
 10
184.4354194525273
 20
135.13365091268361
 30
0.0
 11
184.4354194525273
 21
131.9087771785307
 31
0.0
  0
LINE
  5
37
  8
0
 10
171.37297360947531
 20
144.97122302158269
 30
0.0
 11
174.5978473436283
 21
144.97122302158269
 31
0.0
  0
LINE
  5
38
  8
0
 10
178.84927128378149
 20
129.47122302158269
 30
0.0
 11
174.5737431328306
 21
129.47122302158269
 31
0.0
  0
ARC
  5
39
  8
0
 10
182.18541945252741
 20
118.7212230215827
 30
0.0
 40
1.5
 50
180.0
 51
270.0
  0
ARC
  5
3A
  8
0
 10
185.68541945252741
 20
122.7212230215826
 30
0.0
 40
1.0
 50
269.99989071697331
 51
35.97980059747475
  0
ARC
  5
3B
  8
0
 10
178.79709577222431
 20
125.4712230215826
 30
0.0
 40
4.0
 50
53.358071858784939
 51
90.0
  0
ARC
  5
3C
  8
0
 10
166.26403948096001
 20
108.62122302158269
 30
0.0
 40
25.0
 50
35.979800597474302
 51
53.358071858786168
  0
ARC
  5
3D
  8
0
 10
187.10679942409479
 20
108.62122302158269
 30
0.0
 40
25.0
 50
126.6419281412138
 51
144.02019940252569
  0
ARC
  5
3E
  8
0
 10
174.5737431328306
 20
125.4712230215826
 30
0.0
 40
4.0
 50
90.000000000000028
 51
126.6419281412151
  0
ARC
  5
3F
  8
0
 10
167.68541945252741
 20
122.7212230215826
 30
0.0
 40
1.0
 50
144.02019940252521
 51
270.00010928302669
  0
ARC
  5
40
  8
0
 10
171.18541945252741
 20
118.7212230215827
 30
0.0
 40
1.5
 50
270.00000000000011
 51
0.0000000000000127
  0
LINE
  5
41
  8
0
 10
168.93541945252741
 20
135.05737119032861
 30
0.0
 11
168.93541945252741
 21
139.3328993412795
 31
0.0
  0
ARC
  5
42
  8
0
 10
158.18541945252741
 20
131.72122302158269
 30
0.0
 40
1.5
 50
89.999999999999986
 51
180.0
  0
ARC
  5
43
  8
0
 10
162.18541945252741
 20
128.22122302158269
 30
0.0
 40
1.0
 50
179.9998907169732
 51
305.97980059747482
  0
ARC
  5
44
  8
0
 10
164.93541945252741
 20
135.10954670188579
 30
0.0
 40
4.0
 50
323.35807185878502
 51
360.0
  0
ARC
  5
45
  8
0
 10
148.08541945252739
 20
147.64260299315009
 30
0.0
 40
25.0
 50
305.97980059747431
 51
323.35807185878622
  0
ARC
  5
46
  8
0
 10
148.08541945252739
 20
126.7998430500153
 30
0.0
 40
25.0
 50
36.641928141213818
 51
54.020199402525691
  0
ARC
  5
47
  8
0
 10
164.93541945252741
 20
139.3328993412795
 30
0.0
 40
4.0
 50
360.0
 51
36.64192814121504
  0
ARC
  5
48
  8
0
 10
162.18541945252741
 20
146.22122302158269
 30
0.0
 40
1.0
 50
54.020199402525229
 51
180.00010928302669
  0
ARC
  5
49
  8
0
 10
158.18541945252741
 20
142.72122302158269
 30
0.0
 40
1.5
 50
180.0
 51
270.0
  0
LINE
  5
4A
  8
0
 10
156.68541945252741
 20
121.2212230215827
 30
0.0
 11
156.68541945252741
 21
131.72122302158269
 31
0.0
  0
LINE
  5
4B
  8
0
 10
160.68541945252741
 20
117.2212230215827
 30
0.0
 11
171.18541945252741
 21
117.2212230215827
 31
0.0
  0
ARC
  5
4C
  8
0
 10
160.68541945252741
 20
121.2212230215827
 30
0.0
 40
4.0
 50
180.0
 51
270.0
  0
LINE
  5
4D
  8
0
 10
160.68541945252741
 20
157.22122302158269
 30
0.0
 11
166.744293953035
 21
157.22122302158269
 31
0.0
  0
LINE
  5
4E
  8
0
 10
156.68541945252741
 20
153.22122302158269
 30
0.0
 11
156.68541945252741
 21
142.72122302158269
 31
0.0
  0
ARC
  5
4F
  8
0
 10
160.68541945252741
 20
153.22122302158269
 30
0.0
 40
4.0
 50
89.999999999999986
 51
180.0
  0
LINE
  5
50
  8
0
 10
196.68541945252741
 20
121.2212230215827
 30
0.0
 11
196.68541945252741
 21
127.2800975220903
 31
0.0
  0
ARC
  5
51
  8
0
 10
192.68541945252741
 20
121.2212230215827
 30
0.0
 40
4.0
 50
270.0
 51
0.0
  0
LINE
  5
52
  8
0
 10
192.68541945252741
 20
117.2212230215827
 30
0.0
 11
182.18541945252741
 21
117.2212230215827
 31
0.0
  0
CIRCLE
  5
53
  8
0
 10
176.68541945252741
 20
137.22122302158269
 30
0.0
 40
3.399999999999999
  0
LINE
  5
54
  8
0
 10
181.68541945252741
 20
121.7212230215826
 30
0.0
 11
185.68541754517881
 21
121.7212230215826
 31
0.0
  0
LINE
  5
55
  8
0
 10
180.68541945252741
 20
118.7212230215827
 30
0.0
 11
180.68541945252741
 21
120.7212230215826
 31
0.0
  0
ARC
  5
56
  8
0
 10
181.68541945252741
 20
120.7212230215826
 30
0.0
 40
1.0
 50
90.0
 51
179.99999999999989
  0
LINE
  5
57
  8
0
 10
172.68541945252741
 20
118.7212230215827
 30
0.0
 11
172.68541945252741
 21
120.7212230215826
 31
0.0
  0
LINE
  5
58
  8
0
 10
171.68541945252741
 20
121.7212230215826
 30
0.0
 11
167.68542135987599
 21
121.7212230215826
 31
0.0
  0
ARC
  5
59
  8
0
 10
171.68541945252741
 20
120.7212230215826
 30
0.0
 40
1.0
 50
0.0
 51
90.0
  0
LINE
  5
5A
  8
0
 10
161.18541945252741
 20
132.22122302158269
 30
0.0
 11
161.18541945252741
 21
128.22122492893129
 31
0.0
  0
LINE
  5
5B
  8
0
 10
158.18541945252741
 20
133.22122302158269
 30
0.0
 11
160.18541945252741
 21
133.22122302158269
 31
0.0
  0
ARC
  5
5C
  8
0
 10
160.18541945252741
 20
132.22122302158269
 30
0.0
 40
1.0
 50
0.0
 51
90.0
  0
LINE
  5
5D
  8
0
 10
158.18541945252741
 20
141.22122302158269
 30
0.0
 11
160.18541945252741
 21
141.22122302158269
 31
0.0
  0
LINE
  5
5E
  8
0
 10
161.18541945252741
 20
142.22122302158269
 30
0.0
 11
161.18541945252741
 21
146.22122111423411
 31
0.0
  0
ARC
  5
5F
  8
0
 10
160.18541945252741
 20
142.22122302158269
 30
0.0
 40
1.0
 50
270.0
 51
0.0
  0
LINE
  5
60
  8
0
 10
169.57272107778121
 20
156.0496501463289
 30
0.0
 11
195.5138465772736
 21
130.10852464683651
 31
0.0
  0
ARC
  5
61
  8
0
 10
166.744293953035
 20
153.22122302158269
 30
0.0
 40
4.0
 50
45.0
 51
89.999999999999915
  0
ARC
  5
62
  8
0
 10
192.68541945252741
 20
127.2800975220903
 30
0.0
 40
4.0
 50
0.0000000000001018
 51
45.0
  0
LINE
  5
63
  8
0
 10
167.59784734362819
 20
153.78188319336249
 30
0.0
 11
175.12817742951819
 21
146.2515531074726
 31
0.0
  0
LINE
  5
64
  8
0
 10
162.78198335180559
 20
152.9408929356928
 30
0.0
 11
170.31231343769551
 21
145.41056284980289
 31
0.0
  0
LINE
  5
65
  8
0
 10
193.68541945252741
 20
123.8481170067509
 30
0.0
 11
193.68541945252741
 21
127.07299074090371
 31
0.0
  0
LINE
  5
66
  8
0
 10
163.31231343769551
 20
154.22122302158269
 30
0.0
 11
166.53718717184839
 21
154.22122302158269
 31
0.0
  0
ARC
  5
67
  8
0
 10
166.53718717184839
 20
152.72122302158269
 30
0.0
 40
1.5
 50
45.0
 51
90.0
  0
ARC
  5
68
  8
0
 10
192.18541945252741
 20
127.07299074090371
 30
0.0
 40
1.5
 50
0.0000000000001527
 51
45.0
  0
LINE
  5
69
  8
0
 10
184.87475928074761
 20
130.8481170067509
 30
0.0
 11
192.4050893666375
 21
123.3177869208609
 31
0.0
  0
ARC
  5
6A
  8
0
 10
185.9354194525273
 20
131.9087771785307
 30
0.0
 40
1.5
 50
180.0
 51
225.0
  0
ARC
  5
6B
  8
0
 10
171.37297360947531
 20
146.47122302158269
 30
0.0
 40
1.5
 50
225.0
 51
269.99999999999989
  0
LINE
  5
6C
  8
0
 10
185.7157495384173
 20
135.66398099857349
 30
0.0
 11
193.24607962430721
 21
128.13365091268361
 31
0.0
  0
ARC
  5
6D
  8
0
 10
163.31231343769551
 20
153.47122302158269
 30
0.0
 40
0.75
 50
90.000000000000142
 51
225.0
  0
ARC
  5
6E
  8
0
 10
174.5978473436283
 20
145.72122302158269
 30
0.0
 40
0.75
 50
270.0
 51
44.99999999999995
  0
ARC
  5
6F
  8
0
 10
185.1854194525273
 20
135.13365091268361
 30
0.0
 40
0.75
 50
45.000000000000043
 51
179.9999999999998
  0
ARC
  5
70
  8
0
 10
192.9354194525275
 20
123.8481170067509
 30
0.0
 40
0.75
 50
225.00000000000011
 51
0.0
  0
LINE
  5
71
  8
0
 10
236.68541945252741
 20
157.22122302158269
 30
0.0
 11
236.68541945252741
 21
117.2212230215827
 31
0.0
  0
LINE
  5
72
  8
0
 10
236.68541945252741
 20
117.2212230215827
 30
0.0
 11
296.68541945252741
 21
117.2212230215827
 31
0.0
  0
LINE
  5
73
  8
0
 10
296.68541945252741
 20
117.2212230215827
 30
0.0
 11
296.68541945252741
 21
157.22122302158269
 31
0.0
  0
LINE
  5
74
  8
0
 10
296.68541945252741
 20
157.22122302158269
 30
0.0
 11
236.68541945252741
 21
157.22122302158269
 31
0.0
  0
LINE
  5
75
  8
0
 10
236.68541945252741
 20
128.93695177158261
 30
0.0
 11
296.68541945252741
 21
128.93695177158261
 31
0.0
  0
LINE
  5
76
  8
1
 10
231.68541945252741
 20
137.22122302158269
 30
0.0
 11
301.68541945252741
 21
137.22122302158269
 31
0.0
  0
LINE
  5
77
  8
1
 10
201.68541945252741
 20
137.22122302158269
 30
0.0
 11
151.68541945252741
 21
137.22122302158269
 31
0.0
  0
LINE
  5
78
  8
1
 10
176.68541945252741
 20
162.22122302158269
 30
0.0
 11
176.68541945252741
 21
112.2212230215827
 31
0.0
  0
LINE
  5
82
  8
1
 10
176.68541945252741
 20
89.584824312082915
 30
0.0
 11
176.68541945252741
 21
19.584824312082912
 31
0.0
  0
LINE
  5
83
  8
0
 10
196.68541945252741
 20
24.584824312082919
 30
0.0
 11
196.68541945252741
 21
84.584824312082915
 31
0.0
  0
LINE
  5
84
  8
0
 10
156.68541945252741
 20
24.584824312082919
 30
0.0
 11
196.68541945252741
 21
24.584824312082919
 31
0.0
  0
LINE
  5
85
  8
0
 10
156.68541945252741
 20
84.584824312082915
 30
0.0
 11
156.68541945252741
 21
24.584824312082919
 31
0.0
  0
LINE
  5
86
  8
0
 10
196.68541945252741
 20
84.584824312082915
 30
0.0
 11
156.68541945252741
 21
84.584824312082915
 31
0.0
  0
LINE
  5
87
  8
0
 10
180.68541945252741
 20
84.584824312082915
 30
0.0
 11
180.68541945252741
 21
24.584824312082919
 31
0.0
  0
LINE
  5
88
  8
0
 10
172.68541945252741
 20
84.584824312082915
 30
0.0
 11
172.68541945252741
 21
24.584824312082919
 31
0.0
  0
LINE
  5
89
  8
0
 10
109.53886032925951
 20
141.22122302158269
 30
0.0
 11
49.538860329259471
 21
141.22122302158269
 31
0.0
  0
LINE
  5
8A
  8
0
 10
109.53886032925951
 20
133.22122302158269
 30
0.0
 11
49.538860329259471
 21
133.22122302158269
 31
0.0
  0
LINE
  5
8B
  8
0
 10
109.53886032925951
 20
117.2212230215827
 30
0.0
 11
109.53886032925951
 21
157.22122302158269
 31
0.0
  0
LINE
  5
8C
  8
0
 10
109.53886032925951
 20
157.22122302158269
 30
0.0
 11
49.538860329259471
 21
157.22122302158269
 31
0.0
  0
LINE
  5
8D
  8
0
 10
49.538860329259471
 20
157.22122302158269
 30
0.0
 11
49.538860329259471
 21
117.2212230215827
 31
0.0
  0
LINE
  5
8E
  8
0
 10
49.538860329259471
 20
117.2212230215827
 30
0.0
 11
109.53886032925951
 21
117.2212230215827
 31
0.0
  0
LINE
  5
8F
  8
1
 10
114.53886032925951
 20
137.22122302158269
 30
0.0
 11
44.538860329259471
 21
137.22122302158269
 31
0.0
  0
LINE
  5
90
  8
1
 10
176.68541945252741
 20
180.41519293294181
 30
0.0
 11
176.68541945252741
 21
250.41519293294181
 31
0.0
  0
LINE
  5
91
  8
0
 10
168.40114820252739
 20
185.41519293294169
 30
0.0
 11
168.40114820252739
 21
245.41519293294181
 31
0.0
  0
LINE
  5
92
  8
0
 10
196.68541945252741
 20
245.41519293294181
 30
0.0
 11
196.68541945252741
 21
185.41519293294169
 31
0.0
  0
LINE
  5
93
  8
0
 10
156.6854194525275
 20
245.41519293294181
 30
0.0
 11
196.68541945252741
 21
245.41519293294181
 31
0.0
  0
LINE
  5
94
  8
0
 10
156.6854194525275
 20
185.41519293294169
 30
0.0
 11
156.6854194525275
 21
245.41519293294181
 31
0.0
  0
LINE
  5
95
  8
0
 10
196.68541945252741
 20
185.41519293294169
 30
0.0
 11
156.6854194525275
 21
185.41519293294169
 31
0.0
  0
TEXT
  5
1B9
  8
0
 62
     3
 10
0.0
 20
0.0
 30
0.0
 40
10.0
  1
APH4040N
  7
STANDARD1
  0
ENDSEC
  0
EOF
