  0
SECTION
  2
HEADER
  9
$ACADVER
  1
AC1009
  9
$INSBASE
 10
0.0
 20
0.0
 30
0.0
  9
$EXTMIN
 10
-0.0204638472032742
 20
-2.960436562073669
 30
0.0
  9
$EXTMAX
 10
309.0529968370999
 20
172.4722516971251
 30
0.0
  9
$LIMMIN
 10
0.0
 20
0.0
  9
$LIMMAX
 10
375.0
 20
270.0
  9
$ORTHOMODE
 70
     1
  9
$REGENMODE
 70
     1
  9
$FILLMODE
 70
     1
  9
$QTEXTMODE
 70
     0
  9
$MIRRTEXT
 70
     0
  9
$DRAGMODE
 70
     2
  9
$LTSCALE
 40
10.0
  9
$OSMODE
 70
  3071
  9
$ATTMODE
 70
     1
  9
$TEXTSIZE
 40
4.000000000000048
  9
$TRACEWID
 40
0.05
  9
$TEXTSTYLE
  7
STANDARD
  9
$CLAYER
  8
0
  9
$CELTYPE
  6
BYLAYER
  9
$CECOLOR
 62
   256
  9
$DIMSCALE
 40
1.0
  9
$DIMASZ
 40
3.0
  9
$DIMEXO
 40
2.0
  9
$DIMDLI
 40
0.38
  9
$DIMRND
 40
0.0
  9
$DIMDLE
 40
0.0
  9
$DIMEXE
 40
2.0
  9
$DIMTP
 40
0.0
  9
$DIMTM
 40
0.0
  9
$DIMTXT
 40
3.2000000000000002
  9
$DIMCEN
 40
0.0
  9
$DIMTSZ
 40
0.0
  9
$DIMTOL
 70
     0
  9
$DIMLIM
 70
     0
  9
$DIMTIH
 70
     0
  9
$DIMTOH
 70
     0
  9
$DIMSE1
 70
     0
  9
$DIMSE2
 70
     0
  9
$DIMTAD
 70
     1
  9
$DIMZIN
 70
     0
  9
$DIMBLK
  1

  9
$DIMASO
 70
     0
  9
$DIMSHO
 70
     0
  9
$DIMPOST
  1

  9
$DIMAPOST
  1

  9
$DIMALT
 70
     0
  9
$DIMALTD
 70
     2
  9
$DIMALTF
 40
25.399999999999999
  9
$DIMLFAC
 40
1.0
  9
$DIMTOFL
 70
     0
  9
$DIMTVP
 40
1.6000000000000001
  9
$DIMTIX
 70
     1
  9
$DIMSOXD
 70
     0
  9
$DIMSAH
 70
     0
  9
$DIMBLK1
  1

  9
$DIMBLK2
  1

  9
$DIMSTYLE
  2
STANDARD
  9
$DIMCLRD
 70
     4
  9
$DIMCLRE
 70
     4
  9
$DIMCLRT
 70
     4
  9
$DIMTFAC
 40
1.0
  9
$DIMGAP
 40
0.09
  9
$LUNITS
 70
     2
  9
$LUPREC
 70
     1
  9
$SKETCHINC
 40
0.1
  9
$FILLETRAD
 40
0.0
  9
$AUNITS
 70
     0
  9
$AUPREC
 70
     0
  9
$MENU
  1
E:\r13\win\SUPPORT\ACAD
  9
$ELEVATION
 40
0.0
  9
$PELEVATION
 40
0.0
  9
$THICKNESS
 40
0.0
  9
$LIMCHECK
 70
     0
  9
$BLIPMODE
 70
     0
  9
$CHAMFERA
 40
1.1999999999999991
  9
$CHAMFERB
 40
1.1999999999999991
  9
$SKPOLY
 70
     0
  9
$TDCREATE
 40
2450095.673773264
  9
$TDUPDATE
 40
2456597.5612709611
  9
$TDINDWG
 40
0.0016674421
  9
$TDUSRTIMER
 40
0.0016674421
  9
$USRTIMER
 70
     1
  9
$ANGBASE
 50
0.0
  9
$ANGDIR
 70
     0
  9
$PDMODE
 70
     0
  9
$PDSIZE
 40
0.0
  9
$PLINEWID
 40
0.0
  9
$COORDS
 70
     1
  9
$SPLFRAME
 70
     0
  9
$SPLINETYPE
 70
     6
  9
$SPLINESEGS
 70
     8
  9
$ATTDIA
 70
     0
  9
$ATTREQ
 70
     1
  9
$HANDLING
 70
     1
  9
$HANDSEED
  5
2A3
  9
$SURFTAB1
 70
     6
  9
$SURFTAB2
 70
     6
  9
$SURFTYPE
 70
     6
  9
$SURFU
 70
     6
  9
$SURFV
 70
     6
  9
$UCSNAME
  2

  9
$UCSORG
 10
0.0
 20
0.0
 30
0.0
  9
$UCSXDIR
 10
1.0
 20
0.0
 30
0.0
  9
$UCSYDIR
 10
0.0
 20
1.0
 30
0.0
  9
$PUCSNAME
  2

  9
$PUCSORG
 10
0.0
 20
0.0
 30
0.0
  9
$PUCSXDIR
 10
1.0
 20
0.0
 30
0.0
  9
$PUCSYDIR
 10
0.0
 20
1.0
 30
0.0
  9
$USERI1
 70
     0
  9
$USERI2
 70
     1
  9
$USERI3
 70
     0
  9
$USERI4
 70
     0
  9
$USERI5
 70
     0
  9
$USERR1
 40
0.0
  9
$USERR2
 40
0.0
  9
$USERR3
 40
0.0
  9
$USERR4
 40
0.0
  9
$USERR5
 40
0.0
  9
$WORLDVIEW
 70
     1
  9
$SHADEDGE
 70
     3
  9
$SHADEDIF
 70
    70
  9
$TILEMODE
 70
     1
  9
$MAXACTVP
 70
    16
  9
$PLIMCHECK
 70
     0
  9
$PEXTMIN
 10
1.0000000000000000E+020
 20
1.0000000000000000E+020
 30
1.0000000000000000E+020
  9
$PEXTMAX
 10
-1.0000000000000000E+020
 20
-1.0000000000000000E+020
 30
-1.0000000000000000E+020
  9
$PLIMMIN
 10
0.0
 20
0.0
  9
$PLIMMAX
 10
12.0
 20
9.0
  9
$UNITMODE
 70
     0
  9
$VISRETAIN
 70
     0
  9
$PLINEGEN
 70
     0
  9
$PSLTSCALE
 70
     0
  0
ENDSEC
  0
SECTION
  2
TABLES
  0
TABLE
  2
VPORT
 70
     1
  0
VPORT
  2
*ACTIVE
 70
     0
 10
0.0
 20
0.0
 11
1.0
 21
1.0
 12
195.04380321732449
 22
133.5127261426681
 13
0.0
 23
0.0
 14
10.0
 24
10.0
 15
10.0
 25
10.0
 16
0.0
 26
0.0
 36
1.0
 17
0.0
 27
0.0
 37
0.0
 40
275.42274993631997
 41
1.831871345029239
 42
50.0
 43
0.0
 44
0.0
 50
0.0
 51
0.0
 71
     0
 72
   500
 73
     1
 74
     0
 75
     0
 76
     0
 77
     0
 78
     2
  0
ENDTAB
  0
TABLE
  2
LTYPE
 70
     4
  0
LTYPE
  2
CONTINUOUS
 70
     0
  3
Solid Line
 72
    65
 73
     0
 40
0.0
  0
LTYPE
  2
CENTER
 70
     0
  3
____ _ ____ _ ____ _ ____ _ ____ _ ____ _ ____
 72
    65
 73
     4
 40
2.0
 49
1.25
 49
-0.25
 49
0.25
 49
-0.25
  0
LTYPE
  2
HIDDEN
 70
     0
  3
_ _ _ _ _ _ _ _ _ _ _ _ _ _ _ _ _ _ _ _ _ _ _
 72
    65
 73
     2
 40
0.375
 49
0.25
 49
-0.125
  0
LTYPE
  2
PHANTOM2
 70
     0
  3
___ _ _ ___ _ _ ___ _ _ ___ _ _
 72
    65
 73
     6
 40
1.25
 49
0.625
 49
-0.125
 49
0.125
 49
-0.125
 49
0.125
 49
-0.125
  0
ENDTAB
  0
TABLE
  2
LAYER
 70
     4
  0
LAYER
  2
0
 70
     0
 62
     7
  6
CONTINUOUS
  0
LAYER
  2
1
 70
     0
 62
     1
  6
CENTER
  0
LAYER
  2
ITEM_50
 70
     0
 62
     7
  6
CONTINUOUS
  0
LAYER
  2
2
 70
     0
 62
     2
  6
HIDDEN
  0
ENDTAB
  0
TABLE
  2
STYLE
 70
     2
  0
STYLE
  2
STANDARD
 70
     0
 40
0.0
 41
1.0
 50
0.0
 71
     0
 42
4.000000000000048
  3
SIMPLEX
  4
BIGFONT
  0
STYLE
  2
STANDARD1
 70
     0
 40
0.0
 41
1.0
 50
0.0
 71
     0
 42
3.0
  3
txt
  4

  0
ENDTAB
  0
TABLE
  2
VIEW
 70
     1
  0
VIEW
  2
ALL
 70
     0
 40
270.0
 10
220.59941989218049
 20
135.0
 41
441.19883978436093
 11
0.0
 21
0.0
 31
1.0
 12
0.0
 22
0.0
 32
0.0
 42
50.0
 43
0.0
 44
0.0
 50
0.0
 71
     0
  0
ENDTAB
  0
TABLE
  2
UCS
 70
     0
  0
ENDTAB
  0
TABLE
  2
APPID
 70
     3
  0
APPID
  2
ACAD
 70
     0
  0
APPID
  2
ACAD_MLEADERVER
 70
     0
  0
APPID
  2
ACAD_NAV_VCDISPLAY
 70
     0
  0
ENDTAB
  0
TABLE
  2
DIMSTYLE
 70
     1
  0
DIMSTYLE
  2
STANDARD
 70
     0
  3

  4

  5

  6

  7

 40
1.0
 41
0.18
 42
0.0625
 43
0.38
 44
0.18
 45
0.0
 46
0.0
 47
0.0
 48
0.0
140
0.18
141
0.09
142
0.0
143
25.399999999999999
144
1.0
145
0.0
146
1.0
147
0.09
 71
     0
 72
     0
 73
     1
 74
     1
 75
     0
 76
     0
 77
     0
 78
     0
170
     0
171
     2
172
     0
173
     0
174
     0
175
     0
176
     0
177
     0
178
     0
  0
ENDTAB
  0
ENDSEC
  0
SECTION
  2
BLOCKS
  0
BLOCK
  8
0
  2
$MODEL_SPACE
 70
     0
 10
0.0
 20
0.0
 30
0.0
  3
$MODEL_SPACE
  1

  0
ENDBLK
  5
126
  8
0
  0
BLOCK
 67
     1
  8
0
  2
$PAPER_SPACE
 70
     0
 10
0.0
 20
0.0
 30
0.0
  3
$PAPER_SPACE
  1

  0
ENDBLK
  5
124
 67
     1
  8
0
  0
BLOCK
  8
0
  2
STDGX5
 70
     0
 10
0.0
 20
0.0
 30
0.0
  3
STDGX5
  1

  0
ENDBLK
  5
2E
  8
0
  0
ENDSEC
  0
SECTION
  2
ENTITIES
  0
LINE
  5
3C
  8
0
 10
75.317271266977087
 20
143.45439492190141
 30
0.0
 11
125.3172712669771
 21
143.45439492190141
 31
0.0
  0
LINE
  5
3D
  8
0
 10
75.317271266977087
 20
151.45439492190059
 30
0.0
 11
125.3172712669771
 21
151.45439492190059
 31
0.0
  0
LINE
  5
3E
  8
1
 10
72.817271266977087
 20
147.4551364219009
 30
0.0
 11
127.817271266977
 21
147.4551364219009
 31
0.0
  0
LINE
  5
3F
  8
ITEM_50
 10
75.317271266977087
 20
127.45587792190091
 30
0.0
 11
125.3172712669771
 21
127.45587792190091
 31
0.0
  0
LINE
  5
40
  8
ITEM_50
 10
75.317271266977087
 20
167.45439492190101
 30
0.0
 11
125.3172712669771
 21
167.45439492190101
 31
0.0
  0
LINE
  5
41
  8
ITEM_50
 10
125.3172712669771
 20
127.45587792190091
 30
0.0
 11
125.3172712669771
 21
167.45439492190101
 31
0.0
  0
LINE
  5
42
  8
ITEM_50
 10
75.317271266977087
 20
127.45587792190091
 30
0.0
 11
75.317271266977087
 21
167.45439492190101
 31
0.0
  0
LINE
  5
43
  8
ITEM_50
 10
75.317271266977087
 20
127.45587792190091
 30
0.0
 11
75.317271266977087
 21
167.45439492190101
 31
0.0
  0
LINE
  5
44
  8
ITEM_50
 10
125.3172712669771
 20
127.45587792190091
 30
0.0
 11
125.3172712669771
 21
167.45439492190101
 31
0.0
  0
LINE
  5
45
  8
ITEM_50
 10
75.317271266977087
 20
167.45439492190101
 30
0.0
 11
125.3172712669771
 21
167.45439492190101
 31
0.0
  0
LINE
  5
46
  8
ITEM_50
 10
75.317271266977087
 20
127.45587792190091
 30
0.0
 11
125.3172712669771
 21
127.45587792190091
 31
0.0
  0
LINE
  5
49
  8
0
 10
183.13764968887631
 20
149.96915409628019
 30
0.0
 11
183.8281606888763
 21
149.96915409628019
 31
0.0
  0
ARC
  5
4A
  8
0
 10
183.1376491620326
 20
150.4691535208247
 30
0.0
 40
0.4999994245447785
 50
187.13138283810849
 51
270.00006037190468
  0
ARC
  5
4B
  8
0
 10
176.687914663138
 20
149.66220305492581
 30
0.0
 40
6.0000193570164582
 50
7.1314375630283466
 51
36.641883663909297
  0
ARC
  5
4C
  8
0
 10
159.837871021967
 20
137.12909202793099
 30
0.0
 40
27.000087040814229
 50
36.641956185617659
 51
52.881680837166599
  0
ARC
  5
4D
  8
0
 10
173.71757091286199
 20
155.46914785673351
 30
0.0
 40
4.0000062395471012
 50
52.881732249763722
 51
89.999974560508733
  0
LINE
  5
4E
  8
0
 10
172.93793368887631
 20
159.46915409628019
 30
0.0
 11
173.71757268887629
 21
159.46915409628019
 31
0.0
  0
ARC
  5
4F
  8
0
 10
172.93793182118841
 20
161.96915222859221
 30
0.0
 40
2.4999981323127409
 50
179.99995719571311
 51
270.00004280428692
  0
LINE
  5
50
  8
0
 10
170.43793368887631
 20
163.46915409628019
 30
0.0
 11
170.43793368887631
 21
161.96915409628019
 31
0.0
  0
ARC
  5
51
  8
0
 10
172.4379321947259
 20
163.46915559043049
 30
0.0
 40
1.9999985058502039
 50
89.999957195713407
 51
180.00004280428661
  0
LINE
  5
52
  8
0
 10
178.46484468887621
 20
165.46915409628019
 30
0.0
 11
172.43793368887631
 21
165.46915409628019
 31
0.0
  0
ARC
  5
53
  8
0
 10
178.46484281525301
 20
163.46914987411981
 30
0.0
 40
2.0000042221612659
 50
45.000027317418542
 51
89.999946324763101
  0
LINE
  5
54
  8
0
 10
187.0237196888763
 20
157.7387030962802
 30
0.0
 11
179.8790586888762
 21
164.88336709628021
 31
0.0
  0
ARC
  5
55
  8
0
 10
186.6701655100309
 20
157.3851495962802
 30
0.0
 40
0.5000006347408748
 50
315.0000550057307
 51
44.999944994269377
  0
LINE
  5
56
  8
0
 10
185.60950668887631
 20
155.61738209628021
 30
0.0
 11
187.0237196888763
 21
157.0315960962802
 31
0.0
  0
ARC
  5
57
  8
0
 10
185.9630603677216
 20
155.2638280962793
 30
0.0
 40
0.5000006347413301
 50
134.99997397728691
 51
224.99986396582571
  0
LINE
  5
58
  8
0
 10
185.96305968887631
 20
154.5567220962802
 30
0.0
 11
185.60950568887631
 21
154.91027509628029
 31
0.0
  0
ARC
  5
59
  8
0
 10
186.31661318887629
 20
154.91027506801811
 30
0.0
 40
0.4999997811868735
 50
224.99995719571299
 51
315.00004280428698
  0
LINE
  5
5A
  8
0
 10
188.08437968887631
 20
155.97093509628019
 30
0.0
 11
186.67016668887629
 21
154.5567220962802
 31
0.0
  0
ARC
  5
5B
  8
0
 10
188.43793318887629
 20
155.6173821245423
 30
0.0
 40
0.4999997811868735
 50
44.999957195713009
 51
135.00004280428701
  0
LINE
  5
5C
  8
0
 10
191.43971368887631
 20
153.3227070962802
 30
0.0
 11
188.7914866888762
 21
155.97093509628019
 31
0.0
  0
ARC
  5
5D
  8
0
 10
191.0861603247954
 20
152.9691539235092
 30
0.0
 40
0.4999998272293519
 50
269.99992712900467
 51
44.99998449845728
  0
LINE
  5
5E
  8
0
 10
186.2379336888763
 20
152.46915409628019
 30
0.0
 11
191.08615968887619
 21
152.46915409628019
 31
0.0
  0
ARC
  5
5F
  8
0
 10
186.2379334647537
 20
152.16915432040281
 30
0.0
 40
0.2999997758775221
 50
89.999957195720455
 51
180.00004280429039
  0
LINE
  5
60
  8
0
 10
185.93793368887631
 20
152.07892609628021
 30
0.0
 11
185.93793368887631
 21
152.16915409628021
 31
0.0
  0
ARC
  5
61
  8
0
 10
185.4379340773265
 20
152.07892626570589
 30
0.0
 40
0.4999996115497927
 50
303.05566972260169
 51
359.99998058522942
  0
ARC
  5
62
  8
0
 10
188.43792939887339
 20
147.4691593421901
 30
0.0
 40
4.9999933901225777
 50
123.0557255194644
 51
135.0000077455779
  0
ARC
  5
63
  8
0
 10
188.43792844296641
 20
147.46915838628291
 30
0.0
 40
4.999993390122758
 50
134.99999225441951
 51
146.94427448053301
  0
ARC
  5
64
  8
0
 10
183.82816101945059
 20
150.46915462978359
 30
0.0
 40
0.5000005335035338
 50
269.99996211901981
 51
326.94427298164823
  0
LINE
  5
65
  8
0
 10
169.63793368887619
 20
131.46915409628019
 30
0.0
 11
169.63793368887619
 21
135.7691540962802
 31
0.0
  0
LINE
  5
66
  8
0
 10
172.43793368887631
 20
128.66915409628021
 30
0.0
 11
169.63793368887619
 21
131.46915409628019
 31
0.0
  0
LINE
  5
67
  8
0
 10
176.7379336888763
 20
128.66915409628021
 30
0.0
 11
172.43793368887631
 21
128.66915409628021
 31
0.0
  0
LINE
  5
68
  8
0
 10
177.2379336888763
 20
129.16915409628021
 30
0.0
 11
176.7379336888763
 21
128.66915409628021
 31
0.0
  0
LINE
  5
69
  8
0
 10
177.2379336888763
 20
132.7987940962802
 30
0.0
 11
177.2379336888763
 21
129.16915409628021
 31
0.0
  0
LINE
  5
6A
  8
0
 10
177.8862806888763
 20
134.72987409628021
 30
0.0
 11
177.2379336888763
 21
132.7987940962802
 31
0.0
  0
LINE
  5
6B
  8
0
 10
178.1505216888763
 20
135.07309809628021
 30
0.0
 11
177.8862806888763
 21
134.72987409628021
 31
0.0
  0
LINE
  5
6C
  8
0
 10
178.1104226888763
 20
135.7349330962802
 30
0.0
 11
178.1505216888763
 21
135.07309809628021
 31
0.0
  0
LINE
  5
6D
  8
0
 10
176.70371268887629
 20
137.14164309628021
 30
0.0
 11
178.1104226888763
 21
135.7349330962802
 31
0.0
  0
LINE
  5
6E
  8
0
 10
176.0418776888763
 20
137.1817430962802
 30
0.0
 11
176.70371268887629
 21
137.14164309628021
 31
0.0
  0
LINE
  5
6F
  8
0
 10
175.69865368887631
 20
136.91750209628029
 30
0.0
 11
176.0418776888763
 21
137.1817430962802
 31
0.0
  0
LINE
  5
70
  8
0
 10
175.69865368887631
 20
136.91750209628029
 30
0.0
 11
175.69865368887631
 21
136.91750209628029
 31
0.0
  0
LINE
  5
71
  8
0
 10
173.76757268887641
 20
136.2691540962802
 30
0.0
 11
175.69865368887631
 21
136.91750209628029
 31
0.0
  0
LINE
  5
72
  8
0
 10
170.1379336888763
 20
136.2691540962802
 30
0.0
 11
173.76757268887641
 21
136.2691540962802
 31
0.0
  0
LINE
  5
73
  8
0
 10
169.63793368887619
 20
135.7691540962802
 30
0.0
 11
170.1379336888763
 21
136.2691540962802
 31
0.0
  0
ARC
  5
74
  8
0
 10
186.2448813758981
 20
135.71914608945701
 30
0.0
 40
5.2000089839184511
 50
98.138687932513506
 51
126.641912523812
  0
ARC
  5
75
  8
0
 10
185.43793324497301
 20
141.36174674795259
 30
0.0
 40
0.5000004439036997
 50
278.13863392562718
 51
359.99992532391059
  0
LINE
  5
76
  8
0
 10
185.93793368887631
 20
142.8593820962802
 30
0.0
 11
185.93793368887631
 21
141.3617460962802
 31
0.0
  0
ARC
  5
77
  8
0
 10
185.43793407732659
 20
142.8593819268545
 30
0.0
 40
0.4999996115497379
 50
0.000019414773865
 51
56.944330277401953
  0
ARC
  5
78
  8
0
 10
188.43792939887359
 20
147.46914885037029
 30
0.0
 40
4.9999933901227589
 50
224.9999922544196
 51
236.9442744805331
  0
ARC
  5
79
  8
0
 10
188.4379284429661
 20
147.4691498062775
 30
0.0
 40
4.999993390122536
 50
213.05572551946901
 51
225.00000774558251
  0
ARC
  5
7A
  8
0
 10
183.82816101945059
 20
144.4691535627768
 30
0.0
 40
0.5000005335035338
 50
33.055727018351782
 51
90.000037880980173
  0
LINE
  5
7B
  8
0
 10
182.33052468887641
 20
144.96915409628019
 30
0.0
 11
183.8281606888763
 21
144.96915409628019
 31
0.0
  0
ARC
  5
7C
  8
0
 10
182.33052476395639
 20
144.46915415237689
 30
0.0
 40
0.4999999439033231
 50
90.000008603539598
 51
171.86130000182391
  0
ARC
  5
7D
  8
0
 10
176.6879227135305
 20
145.2761022833019
 30
0.0
 40
5.200010861829754
 50
323.35809600054142
 51
351.8613205918399
  0
ARC
  5
7E
  8
0
 10
159.83790683774609
 20
157.80917523964601
 30
0.0
 40
26.200033546179341
 50
312.87887442061327
 51
323.35806812835489
  0
ARC
  5
7F
  8
0
 10
178.00596355499999
 20
138.24355535198171
 30
0.0
 40
0.4999995337611998
 50
132.87884632152981
 51
225.00003156692361
  0
LINE
  5
80
  8
0
 10
178.25559568887641
 20
137.28681609628021
 30
0.0
 11
177.6524106888763
 21
137.8900020962802
 31
0.0
  0
LINE
  5
81
  8
0
 10
178.85878068887629
 20
136.68363109628021
 30
0.0
 11
178.25559568887641
 21
137.28681609628021
 31
0.0
  0
ARC
  5
82
  8
0
 10
179.21233394457781
 20
137.0371839624039
 30
0.0
 40
0.4999995337612261
 50
224.99996843308099
 51
317.12115367847463
  0
ARC
  5
83
  8
0
 10
198.77795978456709
 20
118.8691222928248
 30
0.0
 40
26.200041277819771
 50
126.64193279281631
 51
137.12112650055789
  0
ARC
  5
84
  8
0
 10
204.43793518302661
 20
131.4691526021299
 30
0.0
 40
1.9999985058501899
 50
269.99995719571342
 51
0.0000428042869966
  0
LINE
  5
85
  8
0
 10
202.9379336888764
 20
129.46915409628019
 30
0.0
 11
204.43793368887631
 21
129.46915409628019
 31
0.0
  0
ARC
  5
86
  8
0
 10
202.93793182118841
 20
131.96915222859221
 30
0.0
 40
2.4999981323127409
 50
179.99995719571311
 51
270.00004280428692
  0
LINE
  5
87
  8
0
 10
200.43793368887631
 20
132.74879409628019
 30
0.0
 11
200.43793368887631
 21
131.96915409628019
 31
0.0
  0
ARC
  5
88
  8
0
 10
196.43792893856349
 20
132.74879182026589
 30
0.0
 40
4.0000047503134466
 50
0.0000326014648578
 51
37.118274912209962
  0
ARC
  5
89
  8
0
 10
178.09786761605369
 20
118.869088424897
 30
0.0
 40
27.000092047034151
 50
37.118319118671401
 51
53.35804377022032
  0
ARC
  5
8A
  8
0
 10
190.63098404595181
 20
135.71913746897201
 30
0.0
 40
6.0000168035313868
 50
53.358126743423213
 51
82.86857284430414
  0
ARC
  5
8B
  8
0
 10
191.43793311342071
 20
142.16886956943651
 30
0.0
 40
0.499999424544733
 50
179.99993962809211
 51
262.86861716188781
  0
LINE
  5
8C
  8
0
 10
190.93793368887631
 20
142.8593820962802
 30
0.0
 11
190.93793368887631
 21
142.16887009628019
 31
0.0
  0
ARC
  5
8D
  8
0
 10
191.43793280042601
 20
142.85938284880811
 30
0.0
 40
0.4999991115502721
 50
123.0557753708713
 51
180.0000862334997
  0
ARC
  5
8E
  8
0
 10
188.43793697887889
 20
147.46914885037029
 30
0.0
 40
4.9999933901227589
 50
303.05572551946699
 51
315.00000774558038
  0
ARC
  5
8F
  8
0
 10
188.4379384347865
 20
147.4691545858137
 30
0.0
 40
4.9999964162135253
 50
314.99994947511811
 51
326.94423170123162
  0
ARC
  5
90
  8
0
 10
193.04770585830201
 20
144.46915448473041
 30
0.0
 40
0.499999611549811
 50
90.000019414773874
 51
146.94433027740271
  0
LINE
  5
91
  8
0
 10
193.1379336888763
 20
144.96915409628019
 30
0.0
 11
193.04770568887631
 21
144.96915409628019
 31
0.0
  0
ARC
  5
92
  8
0
 10
193.13793391299879
 20
145.26915387215769
 30
0.0
 40
0.299999775877579
 50
269.99995719570961
 51
0.0000428042795329
  0
LINE
  5
93
  8
0
 10
193.43793368887631
 20
150.11738109628021
 30
0.0
 11
193.43793368887631
 21
145.2691540962802
 31
0.0
  0
ARC
  5
94
  8
0
 10
193.93793330899871
 20
150.11738123219939
 30
0.0
 40
0.4999996201224115
 50
44.999958205749337
 51
180.0000155752025
  0
LINE
  5
95
  8
0
 10
196.93971468887631
 20
147.8227070962802
 30
0.0
 11
194.2914866888762
 21
150.47093409628019
 31
0.0
  0
ARC
  5
96
  8
0
 10
196.5861622171376
 20
147.46915409628019
 30
0.0
 40
0.4999990740806568
 50
314.9999571957124
 51
45.000042804287631
  0
LINE
  5
97
  8
0
 10
195.52550068887641
 20
145.7013870962802
 30
0.0
 11
196.93971468887631
 21
147.11560109628019
 31
0.0
  0
ARC
  5
98
  8
0
 10
195.8790536606142
 20
145.3478335962802
 30
0.0
 40
0.4999997811869136
 50
134.99995719571299
 51
225.00004280428701
  0
LINE
  5
99
  8
0
 10
195.87905468887629
 20
144.64072709628019
 30
0.0
 11
195.52550068887641
 21
144.99428009628019
 31
0.0
  0
ARC
  5
9A
  8
0
 10
196.23260818887621
 20
144.99428127512559
 30
0.0
 40
0.5000006347409149
 50
225.00005500573059
 51
314.99994499426941
  0
LINE
  5
9B
  8
0
 10
198.00037468887641
 20
146.0549410962802
 30
0.0
 11
196.58616168887639
 21
144.64072709628019
 31
0.0
  0
ARC
  5
9C
  8
0
 10
198.3539281888763
 20
145.7013869174348
 30
0.0
 40
0.5000006347408345
 50
45.000055005730609
 51
134.99994499426941
  0
LINE
  5
9D
  8
0
 10
205.8521466888763
 20
138.91027909628019
 30
0.0
 11
198.7074816888763
 21
146.0549410962802
 31
0.0
  0
ARC
  5
9E
  8
0
 10
204.43792946671601
 20
137.496063222657
 30
0.0
 40
2.0000042221612051
 50
0.0000536752377102
 51
44.999972682582033
  0
LINE
  5
9F
  8
0
 10
206.43793368887631
 20
131.46915409628019
 30
0.0
 11
206.43793368887631
 21
137.4960650962802
 31
0.0
  0
ARC
  5
A0
  8
0
 10
204.43793667717699
 20
131.46915110797951
 30
0.0
 40
3.9999970117003798
 50
269.99995719571302
 51
0.0000428042869966
  0
LINE
  5
A1
  8
0
 10
193.93793368887631
 20
127.46915409628021
 30
0.0
 11
204.43793368887631
 21
127.46915409628021
 31
0.0
  0
ARC
  5
A2
  8
0
 10
193.93793256826351
 20
128.96915297566741
 30
0.0
 40
1.4999988793876391
 50
179.99995719571291
 51
270.00004280428709
  0
LINE
  5
A3
  8
0
 10
192.43793368887631
 20
131.0191540962802
 30
0.0
 11
192.43793368887631
 21
128.96915409628019
 31
0.0
  0
ARC
  5
A4
  8
0
 10
193.43793294180111
 20
131.01915484335541
 30
0.0
 40
0.9999992529251022
 50
89.999957195713407
 51
180.00004280428661
  0
LINE
  5
A5
  8
0
 10
194.93793368887631
 20
132.0191540962802
 30
0.0
 11
193.43793368887631
 21
132.0191540962802
 31
0.0
  0
ARC
  5
A6
  8
0
 10
194.93793406241389
 20
131.51915446981781
 30
0.0
 40
0.4999996264625369
 50
359.99995719571342
 51
90.000042804288213
  0
LINE
  5
A7
  8
0
 10
195.43793368887631
 20
130.15223309628021
 30
0.0
 11
195.43793368887631
 21
131.5191540962802
 31
0.0
  0
ARC
  5
A8
  8
0
 10
195.93793331533871
 20
130.1522327227427
 30
0.0
 40
0.4999996264625512
 50
179.99995719571339
 51
270.00004280428823
  0
ARC
  5
A9
  8
0
 10
195.9379355565643
 20
132.15223122859231
 30
0.0
 40
2.4999981323127409
 50
269.99995719571308
 51
0.0000428042869152
  0
LINE
  5
AA
  8
0
 10
198.43793368887631
 20
132.7987940962802
 30
0.0
 11
198.43793368887631
 21
132.15223309628021
 31
0.0
  0
ARC
  5
AB
  8
0
 10
196.4379310637199
 20
132.7987922136561
 30
0.0
 40
2.000002625157296
 50
0.0000539331370104
 51
37.118296243881858
  0
ARC
  5
AC
  8
0
 10
178.09803588855041
 20
118.91925909201871
 30
0.0
 40
24.99985468361178
 50
37.118242976118538
 51
53.130145354421501
  0
ARC
  5
AD
  8
0
 10
190.69793633776769
 20
135.71916204295451
 30
0.0
 40
3.999992053326618
 50
53.130064411505643
 51
90.000037942649527
  0
LINE
  5
AE
  8
0
 10
188.43793368887631
 20
139.71915409628019
 30
0.0
 11
190.6979336888763
 21
139.71915409628019
 31
0.0
  0
LINE
  5
AF
  8
0
 10
186.17793368887629
 20
139.71915409628019
 30
0.0
 11
188.43793368887631
 21
139.71915409628019
 31
0.0
  0
ARC
  5
B0
  8
0
 10
186.17793103998491
 20
135.71916204295451
 30
0.0
 40
3.999992053326618
 50
89.999962057350473
 51
126.8699355884943
  0
ARC
  5
B1
  8
0
 10
198.77783098920219
 20
118.9192555370131
 30
0.0
 40
24.999857227618261
 50
126.8698488403337
 51
142.88175121863671
  0
ARC
  5
B2
  8
0
 10
180.4379358140327
 20
132.79879370289001
 30
0.0
 40
2.0000021251564521
 50
142.8817464194677
 51
179.99998873021261
  0
LINE
  5
B3
  8
0
 10
178.43793368887631
 20
132.15223309628021
 30
0.0
 11
178.43793368887631
 21
132.7987940962802
 31
0.0
  0
ARC
  5
B4
  8
0
 10
180.93793182118841
 20
132.15223122859231
 30
0.0
 40
2.4999981323127409
 50
179.99995719571311
 51
270.00004280428692
  0
ARC
  5
B5
  8
0
 10
180.93793406241389
 20
130.1522327227427
 30
0.0
 40
0.4999996264625369
 50
269.99995719571177
 51
0.0000428042865895
  0
LINE
  5
B6
  8
0
 10
181.43793368887631
 20
131.5191540962802
 30
0.0
 11
181.43793368887631
 21
130.15223309628021
 31
0.0
  0
ARC
  5
B7
  8
0
 10
181.93793331533871
 20
131.51915446981781
 30
0.0
 40
0.4999996264625512
 50
89.999957195711772
 51
180.00004280428661
  0
LINE
  5
B8
  8
0
 10
183.43793368887631
 20
132.0191540962802
 30
0.0
 11
181.93793368887631
 21
132.0191540962802
 31
0.0
  0
ARC
  5
B9
  8
0
 10
183.43793443595149
 20
131.01915484335541
 30
0.0
 40
0.9999992529251022
 50
359.99995719571342
 51
90.000042804286593
  0
LINE
  5
BA
  8
0
 10
184.43793368887631
 20
128.96915409628019
 30
0.0
 11
184.43793368887631
 21
131.0191540962802
 31
0.0
  0
ARC
  5
BB
  8
0
 10
182.93793480948909
 20
128.96915297566741
 30
0.0
 40
1.4999988793876391
 50
269.9999571957128
 51
0.0000428042871323
  0
LINE
  5
BC
  8
0
 10
172.43793368887631
 20
127.46915409628021
 30
0.0
 11
182.93793368887631
 21
127.46915409628021
 31
0.0
  0
ARC
  5
BD
  8
0
 10
172.43793070057549
 20
131.46915110797951
 30
0.0
 40
3.9999970117003798
 50
179.99995719571299
 51
270.00004280428698
  0
LINE
  5
BE
  8
0
 10
168.43793368887631
 20
141.96915409628019
 30
0.0
 11
168.43793368887631
 21
131.46915409628019
 31
0.0
  0
ARC
  5
BF
  8
0
 10
169.93793256826351
 20
141.969155216893
 30
0.0
 40
1.4999988793876391
 50
89.999957195712867
 51
180.00004280428709
  0
LINE
  5
C0
  8
0
 10
171.9879336888763
 20
143.46915409628019
 30
0.0
 11
169.93793368887631
 21
143.46915409628019
 31
0.0
  0
ARC
  5
C1
  8
0
 10
171.98793443595139
 20
142.4691548433554
 30
0.0
 40
0.9999992529251022
 50
359.99995719571342
 51
90.000042804286593
  0
LINE
  5
C2
  8
0
 10
172.9879336888763
 20
140.96915409628019
 30
0.0
 11
172.9879336888763
 21
142.46915409628019
 31
0.0
  0
ARC
  5
C3
  8
0
 10
172.48793406241381
 20
140.96915372274259
 30
0.0
 40
0.4999996264625369
 50
269.99995719571177
 51
0.0000428042882179
  0
LINE
  5
C4
  8
0
 10
171.12101168887631
 20
140.46915409628019
 30
0.0
 11
172.4879336888763
 21
140.46915409628019
 31
0.0
  0
ARC
  5
C5
  8
0
 10
171.12101131533871
 20
139.96915446981779
 30
0.0
 40
0.4999996264625369
 50
89.999957195711772
 51
180.0000428042882
  0
ARC
  5
C6
  8
0
 10
173.12100982118841
 20
139.96915222859221
 30
0.0
 40
2.4999981323127409
 50
179.99995719571311
 51
270.00004280428692
  0
LINE
  5
C7
  8
0
 10
173.76757268887641
 20
137.46915409628019
 30
0.0
 11
173.12101168887631
 21
137.46915409628019
 31
0.0
  0
ARC
  5
C8
  8
0
 10
173.76757279548599
 20
139.4691577106704
 30
0.0
 40
2.0000036143902342
 50
269.99999694586279
 51
307.11823925660809
  0
ARC
  5
C9
  8
0
 10
159.88803512960951
 20
157.80905139660609
 30
0.0
 40
24.99985722761798
 50
307.11824878136269
 51
323.13015115966562
  0
ARC
  5
CA
  8
0
 10
176.68794163555049
 20
145.2091514473889
 30
0.0
 40
3.9999920533267308
 50
323.1300644115048
 51
0.0000379426487066
  0
LINE
  5
CB
  8
0
 10
180.68793368887631
 20
147.46915409628019
 30
0.0
 11
180.68793368887631
 21
145.2091540962802
 31
0.0
  0
LINE
  5
CC
  8
0
 10
180.68793368887631
 20
149.72915409628021
 30
0.0
 11
180.68793368887631
 21
147.46915409628019
 31
0.0
  0
ARC
  5
CD
  8
0
 10
176.68794163555049
 20
149.72915674517151
 30
0.0
 40
3.999992053326646
 50
359.99996205735169
 51
36.869935588495579
  0
ARC
  5
CE
  8
0
 10
159.88803512960911
 20
137.12925679595429
 30
0.0
 40
24.999857227618261
 50
36.869848840333702
 51
52.881751218636659
  0
ARC
  5
CF
  8
0
 10
173.7675727954861
 20
155.46915048189001
 30
0.0
 40
2.000003614390212
 50
52.881760743394373
 51
90.000003054139569
  0
LINE
  5
D0
  8
0
 10
173.12101168887631
 20
157.46915409628019
 30
0.0
 11
173.76757268887641
 21
157.46915409628019
 31
0.0
  0
ARC
  5
D1
  8
0
 10
173.12100982118841
 20
154.96915596396821
 30
0.0
 40
2.4999981323127409
 50
89.999957195713066
 51
180.00004280428689
  0
ARC
  5
D2
  8
0
 10
171.12101131533871
 20
154.96915372274259
 30
0.0
 40
0.4999996264625369
 50
179.99995719571169
 51
270.00004280428823
  0
LINE
  5
D3
  8
0
 10
172.4879336888763
 20
154.46915409628019
 30
0.0
 11
171.12101168887631
 21
154.46915409628019
 31
0.0
  0
ARC
  5
D4
  8
0
 10
172.48793406241381
 20
153.96915446981779
 30
0.0
 40
0.4999996264625369
 50
359.99995719571177
 51
90.000042804288213
  0
LINE
  5
D5
  8
0
 10
172.9879336888763
 20
152.46915409628019
 30
0.0
 11
172.9879336888763
 21
153.96915409628019
 31
0.0
  0
ARC
  5
D6
  8
0
 10
171.98793443595139
 20
152.46915334920499
 30
0.0
 40
0.9999992529251022
 50
269.99995719571342
 51
0.0000428042865895
  0
LINE
  5
D7
  8
0
 10
169.93793368887631
 20
151.46915409628019
 30
0.0
 11
171.9879336888763
 21
151.46915409628019
 31
0.0
  0
ARC
  5
D8
  8
0
 10
169.93793256826351
 20
152.96915297566741
 30
0.0
 40
1.4999988793876391
 50
179.99995719571291
 51
270.00004280428709
  0
LINE
  5
D9
  8
0
 10
168.43793368887631
 20
163.46915409628019
 30
0.0
 11
168.43793368887631
 21
152.96915409628019
 31
0.0
  0
ARC
  5
DA
  8
0
 10
172.43793070057549
 20
163.4691570845809
 30
0.0
 40
3.9999970117003798
 50
89.999957195712994
 51
180.00004280428701
  0
LINE
  5
DB
  8
0
 10
178.46704468887631
 20
167.46730009628021
 30
0.0
 11
172.43793368887631
 21
167.46915409628019
 31
0.0
  0
ARC
  5
DC
  8
0
 10
178.46704177077831
 20
163.46729481301401
 30
0.0
 40
4.0000052832672672
 50
44.410390420410991
 51
89.999958201380664
  0
LINE
  5
DD
  8
0
 10
207.2953115132832
 20
140.29557524491801
 30
0.0
 11
181.32442868887631
 21
166.26647009628019
 31
0.0
  0
ARC
  5
DE
  8
0
 10
204.4379328909871
 20
137.49640477026441
 30
0.0
 40
3.9999959921639281
 50
359.98214269238758
 51
45.589549093711632
  0
LINE
  5
DF
  8
0
 10
208.43605168887629
 20
131.46913609628021
 30
0.0
 11
208.43792868910859
 21
137.49515884183711
 31
0.0
  0
LINE
  5
E0
  8
1
 10
163.4379339314296
 20
147.47071150837479
 30
0.0
 11
213.4410312897212
 21
147.4551364219009
 31
0.0
  0
LINE
  5
E1
  8
1
 10
188.43637627678169
 20
122.4691543388335
 30
0.0
 11
188.4519513632556
 21
172.4722516971251
 31
0.0
  0
LINE
  5
E3
  8
2
 10
196.3962766888763
 20
144.68353609628019
 30
0.0
 11
196.3962766888763
 21
144.68353609628019
 31
0.0
  0
ARC
  5
E4
  8
0
 10
188.43793368887631
 20
147.46915409628019
 30
0.0
 40
3.399999999999999
 50
225.0
 51
45.0
  0
ARC
  5
E5
  8
0
 10
188.43793368887631
 20
147.46915409628019
 30
0.0
 40
3.399999999999999
 50
45.0
 51
225.0
  0
LINE
  5
E6
  8
2
 10
185.65231568887631
 20
155.4274980962802
 30
0.0
 11
185.65231568887631
 21
155.4274980962802
 31
0.0
  0
ARC
  5
E7
  8
ITEM_50
 10
195.43793368887631
 20
131.8628730962802
 30
0.0
 40
3.0
 50
0.0
 51
0.0
  0
ARC
  5
E8
  8
ITEM_50
 10
195.43793368887631
 20
131.8628730962802
 30
0.0
 40
3.0
 50
0.0
 51
0.0
  0
LINE
  5
E9
  8
0
 10
254.0529968370999
 20
139.1273311492445
 30
0.0
 11
304.0529968370999
 21
139.1273311492445
 31
0.0
  0
LINE
  5
EA
  8
ITEM_50
 10
254.0529968370999
 20
127.4440439201919
 30
0.0
 11
254.0529968370999
 21
167.44404392019189
 31
0.0
  0
LINE
  5
EB
  8
ITEM_50
 10
304.0529968370999
 20
167.44404392019189
 30
0.0
 11
254.0529968370999
 21
167.44404392019189
 31
0.0
  0
LINE
  5
EC
  8
ITEM_50
 10
254.0529968370999
 20
127.4440439201919
 30
0.0
 11
304.0529968370999
 21
127.4440439201919
 31
0.0
  0
LINE
  5
EE
  8
ITEM_50
 10
304.0529968370999
 20
127.4440439201919
 30
0.0
 11
304.0529968370999
 21
167.44404392019189
 31
0.0
  0
LINE
  5
EF
  8
1
 10
309.0529968370999
 20
147.4440439201918
 30
0.0
 11
249.0529968370999
 21
147.4440439201918
 31
0.0
  0
INSERT
  5
F0
  8
0
  2
STDGX5
 10
0.0
 20
0.0
 30
0.0
  0
TEXT
  5
213
  8
0
 62
     3
 10
0.0
 20
0.0
 30
0.0
 40
10.0
  1
APE4040N-3M
  7
STANDARD1
  0
ENDSEC
  0
EOF
