  0
SECTION
  2
HEADER
  9
$ACADVER
  1
AC1009
  9
$INSBASE
 10
0.0
 20
0.0
 30
0.0
  9
$EXTMIN
 10
-0.0204638472032742
 20
-2.960436562073669
 30
0.0
  9
$EXTMAX
 10
334.62015914221388
 20
272.00789877931521
 30
0.0
  9
$LIMMIN
 10
0.0
 20
0.0
  9
$LIMMAX
 10
375.0
 20
270.0
  9
$ORTHOMODE
 70
     1
  9
$REGENMODE
 70
     1
  9
$FILLMODE
 70
     1
  9
$QTEXTMODE
 70
     0
  9
$MIRRTEXT
 70
     0
  9
$DRAGMODE
 70
     2
  9
$LTSCALE
 40
10.0
  9
$OSMODE
 70
  3071
  9
$ATTMODE
 70
     1
  9
$TEXTSIZE
 40
0.2
  9
$TRACEWID
 40
0.05
  9
$TEXTSTYLE
  7
STANDARD
  9
$CLAYER
  8
0
  9
$CELTYPE
  6
BYLAYER
  9
$CECOLOR
 62
   256
  9
$DIMSCALE
 40
1.0
  9
$DIMASZ
 40
3.0
  9
$DIMEXO
 40
2.0
  9
$DIMDLI
 40
0.38
  9
$DIMRND
 40
0.0
  9
$DIMDLE
 40
0.0
  9
$DIMEXE
 40
2.0
  9
$DIMTP
 40
0.0
  9
$DIMTM
 40
0.0
  9
$DIMTXT
 40
3.2000000000000002
  9
$DIMCEN
 40
0.0
  9
$DIMTSZ
 40
0.0
  9
$DIMTOL
 70
     0
  9
$DIMLIM
 70
     0
  9
$DIMTIH
 70
     0
  9
$DIMTOH
 70
     0
  9
$DIMSE1
 70
     0
  9
$DIMSE2
 70
     0
  9
$DIMTAD
 70
     1
  9
$DIMZIN
 70
     0
  9
$DIMBLK
  1

  9
$DIMASO
 70
     0
  9
$DIMSHO
 70
     0
  9
$DIMPOST
  1

  9
$DIMAPOST
  1

  9
$DIMALT
 70
     0
  9
$DIMALTD
 70
     2
  9
$DIMALTF
 40
25.399999999999999
  9
$DIMLFAC
 40
1.0
  9
$DIMTOFL
 70
     1
  9
$DIMTVP
 40
1.6000000000000001
  9
$DIMTIX
 70
     1
  9
$DIMSOXD
 70
     0
  9
$DIMSAH
 70
     0
  9
$DIMBLK1
  1

  9
$DIMBLK2
  1

  9
$DIMSTYLE
  2
STANDARD
  9
$DIMCLRD
 70
     0
  9
$DIMCLRE
 70
     0
  9
$DIMCLRT
 70
     0
  9
$DIMTFAC
 40
1.0
  9
$DIMGAP
 40
0.09
  9
$LUNITS
 70
     2
  9
$LUPREC
 70
     4
  9
$SKETCHINC
 40
0.1
  9
$FILLETRAD
 40
3.0
  9
$AUNITS
 70
     0
  9
$AUPREC
 70
     4
  9
$MENU
  1
E:\r13\win\SUPPORT\ACAD
  9
$ELEVATION
 40
0.0
  9
$PELEVATION
 40
0.0
  9
$THICKNESS
 40
0.0
  9
$LIMCHECK
 70
     0
  9
$BLIPMODE
 70
     0
  9
$CHAMFERA
 40
0.0
  9
$CHAMFERB
 40
0.0
  9
$SKPOLY
 70
     0
  9
$TDCREATE
 40
2449839.7757638888
  9
$TDUPDATE
 40
2456597.5606502201
  9
$TDINDWG
 40
0.0000942708
  9
$TDUSRTIMER
 40
0.0000942708
  9
$USRTIMER
 70
     1
  9
$ANGBASE
 50
0.0
  9
$ANGDIR
 70
     0
  9
$PDMODE
 70
     0
  9
$PDSIZE
 40
0.0
  9
$PLINEWID
 40
0.0
  9
$COORDS
 70
     1
  9
$SPLFRAME
 70
     0
  9
$SPLINETYPE
 70
     6
  9
$SPLINESEGS
 70
     8
  9
$ATTDIA
 70
     0
  9
$ATTREQ
 70
     1
  9
$HANDLING
 70
     1
  9
$HANDSEED
  5
8FD
  9
$SURFTAB1
 70
     6
  9
$SURFTAB2
 70
     6
  9
$SURFTYPE
 70
     6
  9
$SURFU
 70
     6
  9
$SURFV
 70
     6
  9
$UCSNAME
  2

  9
$UCSORG
 10
0.0
 20
0.0
 30
0.0
  9
$UCSXDIR
 10
1.0
 20
0.0
 30
0.0
  9
$UCSYDIR
 10
0.0
 20
1.0
 30
0.0
  9
$PUCSNAME
  2

  9
$PUCSORG
 10
0.0
 20
0.0
 30
0.0
  9
$PUCSXDIR
 10
1.0
 20
0.0
 30
0.0
  9
$PUCSYDIR
 10
0.0
 20
1.0
 30
0.0
  9
$USERI1
 70
     0
  9
$USERI2
 70
     1
  9
$USERI3
 70
     0
  9
$USERI4
 70
     0
  9
$USERI5
 70
     0
  9
$USERR1
 40
0.0
  9
$USERR2
 40
0.0
  9
$USERR3
 40
0.0
  9
$USERR4
 40
0.0
  9
$USERR5
 40
0.0
  9
$WORLDVIEW
 70
     1
  9
$SHADEDGE
 70
     3
  9
$SHADEDIF
 70
    70
  9
$TILEMODE
 70
     1
  9
$MAXACTVP
 70
    16
  9
$PLIMCHECK
 70
     0
  9
$PEXTMIN
 10
1.0000000000000000E+020
 20
1.0000000000000000E+020
 30
1.0000000000000000E+020
  9
$PEXTMAX
 10
-1.0000000000000000E+020
 20
-1.0000000000000000E+020
 30
-1.0000000000000000E+020
  9
$PLIMMIN
 10
0.0
 20
0.0
  9
$PLIMMAX
 10
12.0
 20
9.0
  9
$UNITMODE
 70
     0
  9
$VISRETAIN
 70
     0
  9
$PLINEGEN
 70
     0
  9
$PSLTSCALE
 70
     0
  0
ENDSEC
  0
SECTION
  2
TABLES
  0
TABLE
  2
VPORT
 70
     1
  0
VPORT
  2
*ACTIVE
 70
     0
 10
0.0
 20
0.0
 11
1.0
 21
1.0
 12
195.09970786412799
 22
134.52014228483421
 13
0.0
 23
0.0
 14
10.0
 24
10.0
 15
10.0
 25
10.0
 16
0.0
 26
0.0
 36
1.0
 17
0.0
 27
0.0
 37
0.0
 40
277.4584133073966
 41
1.831871345029239
 42
50.0
 43
0.0
 44
0.0
 50
0.0
 51
0.0
 71
     0
 72
   500
 73
     1
 74
     0
 75
     0
 76
     0
 77
     0
 78
     2
  0
ENDTAB
  0
TABLE
  2
LTYPE
 70
     4
  0
LTYPE
  2
CONTINUOUS
 70
     0
  3
Solid Line
 72
    65
 73
     0
 40
0.0
  0
LTYPE
  2
CENTER
 70
     0
  3
____ _ ____ _ ____ _ ____ _ ____ _ ____ _ ____
 72
    65
 73
     4
 40
2.0
 49
1.25
 49
-0.25
 49
0.25
 49
-0.25
  0
LTYPE
  2
HIDDEN
 70
     0
  3
_ _ _ _ _ _ _ _ _ _ _ _ _ _ _ _ _ _ _ _ _ _ _
 72
    65
 73
     2
 40
0.375
 49
0.25
 49
-0.125
  0
LTYPE
  2
PHANTOM2
 70
     0
  3
___ _ _ ___ _ _ ___ _ _ ___ _ _
 72
    65
 73
     6
 40
1.25
 49
0.625
 49
-0.125
 49
0.125
 49
-0.125
 49
0.125
 49
-0.125
  0
ENDTAB
  0
TABLE
  2
LAYER
 70
     4
  0
LAYER
  2
0
 70
     0
 62
     7
  6
CONTINUOUS
  0
LAYER
  2
1
 70
     0
 62
     1
  6
CENTER
  0
LAYER
  2
2
 70
     0
 62
     2
  6
HIDDEN
  0
LAYER
  2
3
 70
     0
 62
     3
  6
CONTINUOUS
  0
ENDTAB
  0
TABLE
  2
STYLE
 70
     2
  0
STYLE
  2
STANDARD
 70
     0
 40
0.0
 41
1.0
 50
0.0
 71
     0
 42
0.2
  3
TXT
  4
BIGFONT
  0
STYLE
  2
STANDARD1
 70
     0
 40
0.0
 41
1.0
 50
0.0
 71
     0
 42
3.0
  3
txt
  4

  0
ENDTAB
  0
TABLE
  2
VIEW
 70
     1
  0
VIEW
  2
ALL
 70
     0
 40
270.0
 10
220.99159663865549
 20
135.0
 41
0.0
 11
0.0
 21
0.0
 31
1.0
 12
0.0
 22
0.0
 32
0.0
 42
0.0
 43
0.0
 44
0.0
 50
0.0
 71
     0
  0
ENDTAB
  0
TABLE
  2
UCS
 70
     0
  0
ENDTAB
  0
TABLE
  2
APPID
 70
     3
  0
APPID
  2
ACAD
 70
     0
  0
APPID
  2
ACAD_MLEADERVER
 70
     0
  0
APPID
  2
ACAD_NAV_VCDISPLAY
 70
     0
  0
ENDTAB
  0
TABLE
  2
DIMSTYLE
 70
     1
  0
DIMSTYLE
  2
STANDARD
 70
     0
  3

  4

  5

  6

  7

 40
1.0
 41
0.18
 42
0.0625
 43
0.38
 44
0.18
 45
0.0
 46
0.0
 47
0.0
 48
0.0
140
0.18
141
0.09
142
0.0
143
25.399999999999999
144
1.0
145
0.0
146
1.0
147
0.09
 71
     0
 72
     0
 73
     1
 74
     1
 75
     0
 76
     0
 77
     0
 78
     0
170
     0
171
     2
172
     0
173
     0
174
     0
175
     0
176
     0
177
     0
178
     0
  0
ENDTAB
  0
ENDSEC
  0
SECTION
  2
BLOCKS
  0
BLOCK
  8
0
  2
$MODEL_SPACE
 70
     0
 10
0.0
 20
0.0
 30
0.0
  3
$MODEL_SPACE
  1

  0
ENDBLK
  5
778
  8
0
  0
BLOCK
 67
     1
  8
0
  2
$PAPER_SPACE
 70
     0
 10
0.0
 20
0.0
 30
0.0
  3
$PAPER_SPACE
  1

  0
ENDBLK
  5
776
 67
     1
  8
0
  0
BLOCK
  8
0
  2
STDGX5
 70
     0
 10
0.0
 20
0.0
 30
0.0
  3
STDGX5
  1

  0
ENDBLK
  5
4AF
  8
0
  0
ENDSEC
  0
SECTION
  2
ENTITIES
  0
ARC
  5
3F
  8
0
 10
80.655683771402707
 20
108.04567923399161
 30
0.0
 40
2.0
 50
0.0
 51
90.0
  0
ARC
  5
40
  8
0
 10
56.655683771402721
 20
108.04567923399161
 30
0.0
 40
2.0
 50
90.0
 51
180.0
  0
LINE
  5
41
  8
0
 10
98.155683771402735
 20
108.04567923399161
 30
0.0
 11
82.655683771402721
 21
108.04567923399161
 31
0.0
  0
LINE
  5
42
  8
0
 10
56.655683771402721
 20
110.04567923399161
 30
0.0
 11
80.655683771402707
 21
110.04567923399161
 31
0.0
  0
LINE
  5
43
  8
0
 10
39.155683771402721
 20
108.04567923399161
 30
0.0
 11
54.655683771402721
 21
108.04567923399161
 31
0.0
  0
LINE
  5
44
  8
1
 10
92.655683771402721
 20
143.04567923399159
 30
0.0
 11
44.655683771402721
 21
143.04567923399159
 31
0.0
  0
LINE
  5
45
  8
1
 10
46.155683771402721
 20
122.04567923399161
 30
0.0
 11
46.155683771402721
 21
103.04567923399161
 31
0.0
  0
LINE
  5
46
  8
1
 10
91.155683771402721
 20
122.04567923399161
 30
0.0
 11
91.155683771402721
 21
103.04567923399161
 31
0.0
  0
LINE
  5
47
  8
0
 10
98.155683771402735
 20
117.04567923399161
 30
0.0
 11
39.155683771402721
 21
117.04567923399161
 31
0.0
  0
ARC
  5
48
  8
0
 10
59.65568377142673
 20
129.81692267865171
 30
0.0
 40
2.0000000000240159
 50
55.771133672292692
 51
179.99999999999989
  0
LINE
  5
49
  8
0
 10
57.655683771402721
 20
129.81692267865171
 30
0.0
 11
57.655683771402721
 21
119.04567923399161
 31
0.0
  0
ARC
  5
4A
  8
0
 10
59.655683771402721
 20
119.04567923399161
 30
0.0
 40
2.0
 50
180.0
 51
269.99999999999989
  0
ARC
  5
4B
  8
0
 10
77.655683771402721
 20
119.04567923399161
 30
0.0
 40
2.0
 50
270.0
 51
0.0
  0
LINE
  5
4C
  8
0
 10
79.655683771402721
 20
129.81692267865171
 30
0.0
 11
79.655683771402721
 21
119.04567923399161
 31
0.0
  0
ARC
  5
4D
  8
0
 10
77.655683771378705
 20
129.81692267865171
 30
0.0
 40
2.0000000000240159
 50
0.0000000000001018
 51
124.22886632770729
  0
LINE
  5
4E
  8
0
 10
98.655683771402721
 20
116.54567923399161
 30
0.0
 11
98.155683771402735
 21
117.04567923399161
 31
0.0
  0
LINE
  5
4F
  8
0
 10
98.155683771402735
 20
108.04567923399161
 30
0.0
 11
98.655683771402721
 21
108.54567923399161
 31
0.0
  0
LINE
  5
50
  8
0
 10
38.655683771402721
 20
108.54567923399161
 30
0.0
 11
39.155683771402721
 21
108.04567923399161
 31
0.0
  0
LINE
  5
51
  8
0
 10
39.155683771402721
 20
117.04567923399161
 30
0.0
 11
38.655683771402721
 21
116.54567923399161
 31
0.0
  0
ARC
  5
52
  8
0
 10
52.655683771402721
 20
119.04567923399161
 30
0.0
 40
2.0
 50
270.0
 51
0.0
  0
ARC
  5
53
  8
0
 10
84.655683771402721
 20
119.04567923399161
 30
0.0
 40
2.0
 50
180.0
 51
269.99999999999989
  0
LINE
  5
54
  8
0
 10
38.655683771402721
 20
116.54567923399161
 30
0.0
 11
38.655683771402721
 21
108.54567923399161
 31
0.0
  0
LINE
  5
55
  8
0
 10
54.655683771402721
 20
143.04567923399159
 30
0.0
 11
54.655683771402721
 21
119.04567923399161
 31
0.0
  0
LINE
  5
56
  8
0
 10
82.655683771402721
 20
119.04567923399161
 30
0.0
 11
82.655683771402721
 21
143.04567923399159
 31
0.0
  0
LINE
  5
57
  8
0
 10
98.655683771402721
 20
108.54567923399161
 30
0.0
 11
98.655683771402721
 21
116.54567923399161
 31
0.0
  0
LINE
  5
58
  8
0
 10
54.680906492318819
 20
143.8856792339916
 30
0.0
 11
56.178204057934941
 21
168.79567923399159
 31
0.0
  0
LINE
  5
59
  8
0
 10
82.630461050486645
 20
143.8856792339916
 30
0.0
 11
81.133163484870494
 21
168.79567923399159
 31
0.0
  0
ARC
  5
5A
  8
0
 10
68.655683771402721
 20
143.04567923399159
 30
0.0
 40
14.0
 50
176.56018723248479
 51
3.439812767515217
  0
CIRCLE
  5
5B
  8
0
 10
68.655683771402721
 20
168.04567923399159
 30
0.0
 40
12.5
  0
CIRCLE
  5
5C
  8
3
 10
68.655683771402721
 20
168.04567923399159
 30
0.0
 40
5.0
  0
CIRCLE
  5
5D
  8
0
 10
68.655683771402721
 20
168.04567923399159
 30
0.0
 40
4.1879999999999988
  0
LINE
  5
5E
  8
1
 10
86.155683771402721
 20
168.04567923399159
 30
0.0
 11
51.155683771402721
 21
168.04567923399159
 31
0.0
  0
LINE
  5
5F
  8
0
 10
71.155683771402721
 20
141.6023035610701
 30
0.0
 11
71.155683771402721
 21
144.48905490694781
 31
0.0
  0
LINE
  5
60
  8
0
 10
71.155683771357218
 20
144.4890549069919
 30
0.0
 11
68.655683771418254
 21
145.93243057993081
 31
0.0
  0
LINE
  5
61
  8
0
 10
68.655683771357246
 20
145.9324305799135
 30
0.0
 11
66.155683771418254
 21
144.4890549069747
 31
0.0
  0
LINE
  5
62
  8
0
 10
66.155683771402749
 20
144.4890549069132
 30
0.0
 11
66.155683771402749
 21
141.60230356103551
 31
0.0
  0
LINE
  5
63
  8
0
 10
66.155683771448224
 20
141.60230356099129
 30
0.0
 11
68.655683771387203
 21
140.15892788805249
 31
0.0
  0
LINE
  5
64
  8
0
 10
68.655683771448196
 20
140.1589278880698
 30
0.0
 11
71.155683771387174
 21
141.6023035610086
 31
0.0
  0
LINE
  5
65
  8
0
 10
193.12211725928231
 20
129.04567923399159
 30
0.0
 11
189.12211725928231
 21
129.04567923399159
 31
0.0
  0
LINE
  5
66
  8
0
 10
164.62211725928969
 20
148.9456792339916
 30
0.0
 11
164.62211725928969
 21
137.14567923399159
 31
0.0
  0
LINE
  5
67
  8
0
 10
164.62211725928969
 20
148.9456792339916
 30
0.0
 11
164.12211725928961
 21
148.4456792339916
 31
0.0
  0
LINE
  5
68
  8
0
 10
164.12211725928961
 20
137.64567923399159
 30
0.0
 11
164.62211725928969
 21
137.14567923399159
 31
0.0
  0
LINE
  5
69
  8
0
 10
169.1221172592825
 20
148.9456792339916
 30
0.0
 11
164.62211725928969
 21
148.9456792339916
 31
0.0
  0
LINE
  5
6A
  8
0
 10
164.62211725928969
 20
137.14567923399159
 30
0.0
 11
169.12211725928239
 21
137.14567923399159
 31
0.0
  0
LINE
  5
6B
  8
0
 10
164.12211725928961
 20
148.4456792339916
 30
0.0
 11
164.12211725928961
 21
137.64567923399159
 31
0.0
  0
LINE
  5
6C
  8
1
 10
199.12211725928231
 20
98.045679233991649
 30
0.0
 11
199.12211725928231
 21
167.04567923399159
 31
0.0
  0
ARC
  5
6D
  8
0
 10
205.12211725928231
 20
127.04567923399161
 30
0.0
 40
2.0
 50
90.0
 51
180.0
  0
LINE
  5
6E
  8
0
 10
203.12211725928231
 20
127.04567923399161
 30
0.0
 11
203.1221172592825
 21
119.04567923399161
 31
0.0
  0
ARC
  5
6F
  8
0
 10
205.1221172592825
 20
119.04567923399161
 30
0.0
 40
2.0
 50
180.0000000000004
 51
270.0
  0
ARC
  5
70
  8
0
 10
193.12211725928231
 20
119.04567923399161
 30
0.0
 40
2.0
 50
270.0
 51
359.9999999999996
  0
ARC
  5
71
  8
0
 10
193.12211725928231
 20
127.04567923399161
 30
0.0
 40
2.0
 50
0.0
 51
90.0
  0
LINE
  5
72
  8
0
 10
195.12211725928231
 20
127.04567923399161
 30
0.0
 11
195.12211725928231
 21
119.04567923399161
 31
0.0
  0
LINE
  5
73
  8
0
 10
191.12211725928231
 20
129.04567923399159
 30
0.0
 11
192.12211725928231
 21
129.04567923399159
 31
0.0
  0
LINE
  5
74
  8
0
 10
192.12211725928231
 20
129.04567923399159
 30
0.0
 11
192.12211725928231
 21
119.04567923399161
 31
0.0
  0
ARC
  5
75
  8
0
 10
215.2768177976445
 20
119.04567923399161
 30
0.0
 40
2.0
 50
210.0
 51
269.99999999999989
  0
LINE
  5
76
  8
0
 10
213.54476699007549
 20
118.04567923399161
 30
0.0
 11
207.1939140289897
 21
129.04567923399159
 31
0.0
  0
ARC
  5
77
  8
0
 10
190.12211725928231
 20
119.04567923399161
 30
0.0
 40
2.0
 50
270.0
 51
0.0000000000001158
  0
LINE
  5
78
  8
0
 10
208.62211725928239
 20
129.04567923399159
 30
0.0
 11
209.12211725928239
 21
129.54567923399159
 31
0.0
  0
LINE
  5
79
  8
0
 10
208.62211725928239
 20
129.04567923399159
 30
0.0
 11
205.12211725928231
 21
129.04567923399159
 31
0.0
  0
LINE
  5
7A
  8
0
 10
219.12211725928219
 20
116.54567923399161
 30
0.0
 11
218.62211725928219
 21
117.04567923399161
 31
0.0
  0
LINE
  5
7B
  8
0
 10
218.62211725928219
 20
108.04567923399161
 30
0.0
 11
219.12211725928219
 21
108.54567923399161
 31
0.0
  0
LINE
  5
7C
  8
0
 10
189.12211725928231
 20
108.54567923399161
 30
0.0
 11
189.62211725928239
 21
108.04567923399161
 31
0.0
  0
LINE
  5
7D
  8
0
 10
189.62211725928239
 20
117.04567923399161
 30
0.0
 11
189.12211725928231
 21
116.54567923399161
 31
0.0
  0
LINE
  5
7E
  8
0
 10
189.12211725928231
 20
116.54567923399161
 30
0.0
 11
189.12211725928231
 21
108.54567923399161
 31
0.0
  0
LINE
  5
7F
  8
0
 10
218.62211725928219
 20
117.04567923399161
 30
0.0
 11
189.62211725928231
 21
117.04567923399161
 31
0.0
  0
LINE
  5
80
  8
0
 10
219.12211725928219
 20
108.54567923399161
 30
0.0
 11
219.12211725928219
 21
116.54567923399161
 31
0.0
  0
LINE
  5
81
  8
0
 10
189.62211725928239
 20
108.04567923399161
 30
0.0
 11
218.62211725928219
 21
108.04567923399161
 31
0.0
  0
LINE
  5
82
  8
0
 10
189.12211725928231
 20
157.04567923399159
 30
0.0
 11
208.62211725928239
 21
157.04567923399159
 31
0.0
  0
LINE
  5
83
  8
0
 10
169.1221172592825
 20
152.54567923399159
 30
0.0
 11
169.12211725928239
 21
132.04567923399159
 31
0.0
  0
LINE
  5
84
  8
0
 10
178.12211725928231
 20
160.04567923399159
 30
0.0
 11
178.12211725928231
 21
180.04567923399159
 31
0.0
  0
LINE
  5
85
  8
0
 10
208.62211725928239
 20
157.04567923399159
 30
0.0
 11
209.12211725928239
 21
156.54567923399159
 31
0.0
  0
LINE
  5
86
  8
0
 10
209.12211725928239
 20
156.54567923399159
 30
0.0
 11
209.12211725928239
 21
129.54567923399159
 31
0.0
  0
LINE
  5
87
  8
0
 10
209.12211725928239
 20
129.54567923399159
 30
0.0
 11
208.62211725928239
 21
129.04567923399159
 31
0.0
  0
LINE
  5
88
  8
0
 10
178.12211725928231
 20
180.04567923399159
 30
0.0
 11
177.62211725928231
 21
180.54567923399159
 31
0.0
  0
LINE
  5
89
  8
0
 10
177.62211725928231
 20
180.54567923399159
 30
0.0
 11
163.62211725928239
 21
180.54567923399159
 31
0.0
  0
LINE
  5
8A
  8
0
 10
163.62211725928239
 20
180.54567923399159
 30
0.0
 11
163.12211725928239
 21
180.04567923399341
 31
0.0
  0
LINE
  5
8B
  8
0
 10
163.12211725928239
 20
180.04567923399341
 30
0.0
 11
163.12211725928239
 21
156.0456792339898
 31
0.0
  0
LINE
  5
8C
  8
0
 10
163.12211725928239
 20
156.0456792339898
 30
0.0
 11
163.62211725928239
 21
155.54567923399159
 31
0.0
  0
LINE
  5
8D
  8
0
 10
163.62211725928239
 20
155.54567923399159
 30
0.0
 11
166.12211725928239
 21
155.54567923399159
 31
0.0
  0
LINE
  5
8E
  8
0
 10
172.12211725928239
 20
129.04567923399159
 30
0.0
 11
187.62211725928231
 21
129.04567923399159
 31
0.0
  0
LINE
  5
8F
  8
0
 10
188.12211725928231
 20
129.54567923398801
 30
0.0
 11
188.12211725928231
 21
156.54567923399159
 31
0.0
  0
LINE
  5
90
  8
0
 10
187.62211725928231
 20
157.04567923399159
 30
0.0
 11
181.12211725928231
 21
157.04567923399159
 31
0.0
  0
ARC
  5
91
  8
0
 10
166.12211725928239
 20
152.54567923399159
 30
0.0
 40
3.0
 50
0.0
 51
90.000000000000028
  0
ARC
  5
92
  8
0
 10
181.12211725928231
 20
160.04567923399159
 30
0.0
 40
3.0
 50
180.00000000000011
 51
270.0
  0
ARC
  5
93
  8
0
 10
172.12211725928239
 20
132.04567923399159
 30
0.0
 40
3.0
 50
180.00000000000011
 51
270.0
  0
LINE
  5
94
  8
0
 10
187.62211725928231
 20
157.04567923399159
 30
0.0
 11
188.12211725928231
 21
156.54567923399159
 31
0.0
  0
LINE
  5
95
  8
0
 10
187.62211725928231
 20
129.04567923399159
 30
0.0
 11
188.12211725928231
 21
129.54567923399159
 31
0.0
  0
LINE
  5
96
  8
1
 10
218.12211725928239
 20
143.04567923399159
 30
0.0
 11
152.12211725928239
 21
143.04567923399159
 31
0.0
  0
LINE
  5
97
  8
1
 10
186.12211725928231
 20
168.04567923399159
 30
0.0
 11
151.12211725928239
 21
168.04567923399159
 31
0.0
  0
CIRCLE
  5
98
  8
0
 10
169.12211725928239
 20
168.04567923399159
 30
0.0
 40
2.5
  0
CIRCLE
  5
99
  8
3
 10
169.12211725928239
 20
168.04567923399159
 30
0.0
 40
2.0669999999999988
  0
LINE
  5
9A
  8
1
 10
169.12211725928239
 20
160.54567923399159
 30
0.0
 11
169.12211725928239
 21
175.54567923399159
 31
0.0
  0
LINE
  5
9B
  8
0
 10
189.12211725928231
 20
129.04567923399159
 30
0.0
 11
188.12211725928231
 21
130.04567923399159
 31
0.0
  0
LINE
  5
9C
  8
0
 10
188.12211725928231
 20
156.04567923399159
 30
0.0
 11
189.12211725928231
 21
157.04567923399159
 31
0.0
  0
LINE
  5
9D
  8
0
 10
163.62211725928231
 20
244.21024757931539
 30
0.0
 11
163.62211725928219
 21
219.21024757931539
 31
0.0
  0
LINE
  5
9E
  8
0
 10
189.12211725928231
 20
259.71024757931542
 30
0.0
 11
189.12211725928231
 21
203.71024757931539
 31
0.0
  0
LINE
  5
9F
  8
0
 10
188.12211797899269
 20
218.21024757931539
 30
0.0
 11
187.62211797899261
 21
217.71024757931539
 31
0.0
  0
LINE
  5
A0
  8
0
 10
187.62211797899491
 20
245.71024757932261
 30
0.0
 11
188.12211797899479
 21
245.21024757932281
 31
0.0
  0
LINE
  5
A1
  8
0
 10
188.12211797899479
 20
244.71024757931539
 30
0.0
 11
189.12211797899491
 21
245.71024757931539
 31
0.0
  0
LINE
  5
A2
  8
0
 10
188.12211797899269
 20
218.71024757931539
 30
0.0
 11
189.12211797899269
 21
217.71024757931539
 31
0.0
  0
LINE
  5
A3
  8
0
 10
188.12211797899479
 20
245.21024757932281
 30
0.0
 11
188.12211797899269
 21
218.21024757931539
 31
0.0
  0
LINE
  5
A4
  8
1
 10
191.12211725928231
 20
237.71024757931539
 30
0.0
 11
191.12211725928231
 21
225.71024757931539
 31
0.0
  0
CIRCLE
  5
A5
  8
0
 10
191.12211725928231
 20
231.71024757931539
 30
0.0
 40
2.0
  0
LINE
  5
A6
  8
0
 10
163.12211725928219
 20
219.71024757931539
 30
0.0
 11
163.12211725928219
 21
243.71024757931539
 31
0.0
  0
LINE
  5
A7
  8
0
 10
163.12211725928219
 20
243.71024757931539
 30
0.0
 11
163.62211725928231
 21
244.21024757931539
 31
0.0
  0
LINE
  5
A8
  8
0
 10
163.62211725928231
 20
244.21024757931539
 30
0.0
 11
177.12211725928231
 21
244.21024757931539
 31
0.0
  0
LINE
  5
A9
  8
0
 10
178.12211725928231
 20
243.21024757931539
 30
0.0
 11
178.12211725928231
 21
220.21024757931539
 31
0.0
  0
LINE
  5
AA
  8
0
 10
177.12211725928231
 20
219.21024757931539
 30
0.0
 11
163.62211725928231
 21
219.21024757931539
 31
0.0
  0
LINE
  5
AB
  8
0
 10
163.62211725928231
 20
219.21024757931539
 30
0.0
 11
163.12211725928219
 21
219.71024757931539
 31
0.0
  0
ARC
  5
AC
  8
0
 10
177.12211725928231
 20
220.21024757931539
 30
0.0
 40
1.0
 50
270.0
 51
0.0
  0
ARC
  5
AD
  8
0
 10
177.12211725928231
 20
243.21024757931539
 30
0.0
 40
1.0
 50
0.0
 51
90.000000000000028
  0
LINE
  5
AE
  8
0
 10
187.62211797899261
 20
217.71024757931539
 30
0.0
 11
172.12211725928231
 21
217.71024757931539
 31
0.0
  0
LINE
  5
AF
  8
0
 10
172.12211725928111
 20
245.7102475793165
 30
0.0
 11
187.62211797899491
 21
245.71024757932261
 31
0.0
  0
ARC
  5
B0
  8
0
 10
172.12211725928231
 20
220.71024757931539
 30
0.0
 40
3.0
 50
210.0
 51
270.0
  0
ARC
  5
B1
  8
0
 10
172.12211725928231
 20
242.7102475793165
 30
0.0
 40
3.0
 50
90.000000000022411
 51
150.00000000002581
  0
LINE
  5
B2
  8
0
 10
178.12211725938761
 20
219.21024757931539
 30
0.0
 11
179.55479681128219
 21
218.38308965436659
 31
0.0
  0
LINE
  5
B3
  8
0
 10
178.12211725938761
 20
244.21024757931539
 30
0.0
 11
179.55479681128219
 21
245.0374055042642
 31
0.0
  0
CIRCLE
  5
B4
  8
0
 10
204.12211540129601
 20
254.50789877931541
 30
0.0
 40
3.5
  0
LINE
  5
B5
  8
1
 10
195.62211540129601
 20
254.50789877931541
 30
0.0
 11
212.62211540129601
 21
254.50789877931541
 31
0.0
  0
LINE
  5
B6
  8
1
 10
204.12211753377659
 20
272.00789877931521
 30
0.0
 11
204.12211540129601
 21
192.00789877931561
 31
0.0
  0
LINE
  5
B7
  8
1
 10
195.62211540129601
 20
209.50789877931541
 30
0.0
 11
212.62211540129601
 21
209.50789877931541
 31
0.0
  0
CIRCLE
  5
B8
  8
0
 10
204.12211540129601
 20
209.50789877931541
 30
0.0
 40
3.5
  0
LINE
  5
B9
  8
0
 10
191.12211725928231
 20
201.71024757931539
 30
0.0
 11
217.12211725928219
 21
201.71024757931539
 31
0.0
  0
LINE
  5
BA
  8
0
 10
219.12211725928219
 20
203.71024757931539
 30
0.0
 11
219.12211725928219
 21
259.71024757931542
 31
0.0
  0
LINE
  5
BB
  8
0
 10
217.12211725928219
 20
261.71024757931542
 30
0.0
 11
191.12211725928231
 21
261.71024757931542
 31
0.0
  0
ARC
  5
BC
  8
0
 10
217.12211725928219
 20
259.71024757931542
 30
0.0
 40
2.0
 50
0.0
 51
90.0
  0
ARC
  5
BD
  8
0
 10
191.12211725928231
 20
259.71024757931542
 30
0.0
 40
2.0
 50
90.0
 51
179.99999999999989
  0
ARC
  5
BE
  8
0
 10
191.12211725928231
 20
203.71024757931539
 30
0.0
 40
2.0
 50
180.0
 51
269.99999999999989
  0
ARC
  5
BF
  8
0
 10
217.12211725928219
 20
203.71024757931539
 30
0.0
 40
2.0
 50
270.0
 51
0.0
  0
LINE
  5
C0
  8
0
 10
209.1221186987068
 20
245.21024757931539
 30
0.0
 11
208.6221186987068
 21
245.71024757931539
 31
0.0
  0
LINE
  5
C1
  8
0
 10
189.12211797899269
 20
217.71024757931539
 30
0.0
 11
212.12211795233841
 21
217.71024757931539
 31
0.0
  0
LINE
  5
C2
  8
0
 10
209.1221186987068
 20
218.21024757931539
 30
0.0
 11
208.6221186987068
 21
217.71024757931539
 31
0.0
  0
LINE
  5
C3
  8
0
 10
209.12211725928239
 20
245.2102490187398
 30
0.0
 11
209.12211725928239
 21
218.21024613989101
 31
0.0
  0
LINE
  5
C4
  8
0
 10
212.12211795233841
 20
220.71024757931539
 30
0.0
 11
209.12211725928239
 21
220.71024757931539
 31
0.0
  0
ARC
  5
C5
  8
0
 10
212.12211795233841
 20
222.71024757931539
 30
0.0
 40
2.0
 50
270.0
 51
0.0
  0
ARC
  5
C6
  8
0
 10
212.12211795233841
 20
215.71024757931539
 30
0.0
 40
2.0
 50
0.0
 51
90.000000000000028
  0
LINE
  5
C7
  8
0
 10
209.12211725928239
 20
217.71024757931539
 30
0.0
 11
209.12211725928239
 21
220.71024757931539
 31
0.0
  0
LINE
  5
C8
  8
0
 10
214.12211795233841
 20
217.71024757931539
 30
0.0
 11
214.12211795233841
 21
220.71024757931539
 31
0.0
  0
LINE
  5
C9
  8
0
 10
189.12211797899491
 20
245.71024757931539
 30
0.0
 11
212.12211795233841
 21
245.71024757931539
 31
0.0
  0
LINE
  5
CA
  8
0
 10
214.12211795233841
 20
245.71024757931539
 30
0.0
 11
214.12211795233841
 21
242.71024757931539
 31
0.0
  0
ARC
  5
CB
  8
0
 10
212.12211795233841
 20
247.71024757931539
 30
0.0
 40
2.0
 50
270.0
 51
0.0
  0
ARC
  5
CC
  8
0
 10
212.12211795233841
 20
240.71024757931539
 30
0.0
 40
2.0
 50
0.0
 51
90.000000000000028
  0
LINE
  5
CD
  8
0
 10
212.12211795233841
 20
242.71024757931539
 30
0.0
 11
209.12211725928231
 21
242.71024757931539
 31
0.0
  0
LINE
  5
CE
  8
1
 10
152.12211725928231
 20
231.71024757931539
 30
0.0
 11
228.12211725928231
 21
231.71024757931539
 31
0.0
  0
LINE
  5
CF
  8
1
 10
169.12211725928231
 20
231.71024757931539
 30
0.0
 11
169.12211725928231
 21
249.21024757931539
 31
0.0
  0
LINE
  5
D0
  8
1
 10
322.12015914221388
 20
168.04567923399159
 30
0.0
 11
287.12015914221388
 21
168.04567923399159
 31
0.0
  0
CIRCLE
  5
D1
  8
0
 10
304.62015914221399
 20
168.04567923399159
 30
0.0
 40
4.1879999999999988
  0
CIRCLE
  5
D2
  8
3
 10
304.62015914221399
 20
168.04567923399159
 30
0.0
 40
5.0
  0
ARC
  5
D3
  8
0
 10
304.62015914221399
 20
168.04567923399159
 30
0.0
 40
12.5
 50
290.54448541519452
 51
249.45551458480551
  0
ARC
  5
D4
  8
0
 10
304.62015914221399
 20
143.04567923399159
 30
0.0
 40
14.0
 50
176.56018723248479
 51
3.439812767515217
  0
LINE
  5
D5
  8
0
 10
318.59493642129792
 20
143.8856792339916
 30
0.0
 11
317.09763885568168
 21
168.79567923399159
 31
0.0
  0
LINE
  5
D6
  8
0
 10
290.64538186313013
 20
143.8856792339916
 30
0.0
 11
292.14267942874619
 21
168.79567923399159
 31
0.0
  0
LINE
  5
D7
  8
0
 10
334.62015914221388
 20
108.54567923399161
 30
0.0
 11
334.62015914221388
 21
116.54567923399161
 31
0.0
  0
LINE
  5
D8
  8
0
 10
318.62015914221388
 20
119.04567923399161
 30
0.0
 11
318.62015914221388
 21
143.04567923399159
 31
0.0
  0
LINE
  5
D9
  8
0
 10
290.62015914221388
 20
143.04567923399159
 30
0.0
 11
290.62015914221388
 21
119.04567923399161
 31
0.0
  0
LINE
  5
DA
  8
0
 10
274.62015914221388
 20
116.54567923399161
 30
0.0
 11
274.62015914221388
 21
108.54567923399161
 31
0.0
  0
ARC
  5
DB
  8
0
 10
320.62015914221388
 20
119.04567923399161
 30
0.0
 40
2.0
 50
180.0
 51
269.99999999999989
  0
ARC
  5
DC
  8
0
 10
288.62015914221388
 20
119.04567923399161
 30
0.0
 40
2.0
 50
270.0
 51
0.0
  0
LINE
  5
DD
  8
0
 10
275.12015914221388
 20
117.04567923399161
 30
0.0
 11
274.62015914221388
 21
116.54567923399161
 31
0.0
  0
LINE
  5
DE
  8
0
 10
274.62015914221388
 20
108.54567923399161
 30
0.0
 11
275.12015914221388
 21
108.04567923399161
 31
0.0
  0
LINE
  5
DF
  8
0
 10
334.12015914221399
 20
108.04567923399161
 30
0.0
 11
334.62015914221388
 21
108.54567923399161
 31
0.0
  0
LINE
  5
E0
  8
0
 10
334.62015914221388
 20
116.54567923399161
 30
0.0
 11
334.12015914221399
 21
117.04567923399161
 31
0.0
  0
ARC
  5
E1
  8
0
 10
313.62015914218989
 20
129.81692267865171
 30
0.0
 40
2.0000000000240159
 50
0.0000000000001018
 51
124.22886632770729
  0
LINE
  5
E2
  8
0
 10
315.62015914221388
 20
129.81692267865171
 30
0.0
 11
315.62015914221388
 21
119.04567923399161
 31
0.0
  0
ARC
  5
E3
  8
0
 10
313.62015914221388
 20
119.04567923399161
 30
0.0
 40
2.0
 50
270.0
 51
0.0
  0
ARC
  5
E4
  8
0
 10
295.62015914221388
 20
119.04567923399161
 30
0.0
 40
2.0
 50
180.0
 51
269.99999999999989
  0
LINE
  5
E5
  8
0
 10
293.62015914221388
 20
129.81692267865171
 30
0.0
 11
293.62015914221388
 21
119.04567923399161
 31
0.0
  0
ARC
  5
E6
  8
0
 10
295.62015914223798
 20
129.81692267865171
 30
0.0
 40
2.0000000000240159
 50
55.771133672292692
 51
179.99999999999989
  0
LINE
  5
E7
  8
0
 10
334.12015914221399
 20
117.04567923399161
 30
0.0
 11
275.12015914221388
 21
117.04567923399161
 31
0.0
  0
LINE
  5
E8
  8
1
 10
327.12015914221388
 20
122.04567923399161
 30
0.0
 11
327.12015914221388
 21
103.04567923399161
 31
0.0
  0
LINE
  5
E9
  8
1
 10
282.12015914221388
 20
122.04567923399161
 30
0.0
 11
282.12015914221388
 21
103.04567923399161
 31
0.0
  0
LINE
  5
EA
  8
1
 10
328.62015914221388
 20
143.04567923399159
 30
0.0
 11
280.62015914221388
 21
143.04567923399159
 31
0.0
  0
LINE
  5
EB
  8
0
 10
275.12015914221388
 20
108.04567923399161
 30
0.0
 11
290.62015914221388
 21
108.04567923399161
 31
0.0
  0
LINE
  5
EC
  8
0
 10
292.62015914221399
 20
110.04567923399161
 30
0.0
 11
316.62015914221388
 21
110.04567923399161
 31
0.0
  0
LINE
  5
ED
  8
0
 10
334.12015914221399
 20
108.04567923399161
 30
0.0
 11
318.62015914221388
 21
108.04567923399161
 31
0.0
  0
ARC
  5
EE
  8
0
 10
292.62015914221399
 20
108.04567923399161
 30
0.0
 40
2.0
 50
90.0
 51
180.0
  0
ARC
  5
EF
  8
0
 10
316.62015914221388
 20
108.04567923399161
 30
0.0
 40
2.0
 50
0.0
 51
90.0
  0
LINE
  5
F0
  8
2
 10
94.655684237882866
 20
117.04567923399161
 30
0.0
 11
94.655684237882866
 21
108.04567923399161
 31
0.0
  0
LINE
  5
F1
  8
2
 10
87.655683304922547
 20
117.04567923399161
 30
0.0
 11
87.655683304922576
 21
108.04567923399161
 31
0.0
  0
LINE
  5
F2
  8
2
 10
42.655683304922569
 20
117.04567923399161
 30
0.0
 11
42.655683304922569
 21
108.04567923399161
 31
0.0
  0
LINE
  5
F3
  8
2
 10
49.655684237882873
 20
117.04567923399161
 30
0.0
 11
49.655684237882873
 21
108.04567923399161
 31
0.0
  0
LINE
  5
F4
  8
2
 10
278.62015867573371
 20
117.04567923399161
 30
0.0
 11
278.62015867573382
 21
108.04567923399161
 31
0.0
  0
LINE
  5
F5
  8
2
 10
285.62015960869411
 20
117.04567923399161
 30
0.0
 11
285.62015960869411
 21
108.04567923399161
 31
0.0
  0
LINE
  5
F6
  8
2
 10
323.62015867573382
 20
117.04567923399161
 30
0.0
 11
323.62015867573382
 21
108.04567923399161
 31
0.0
  0
LINE
  5
F7
  8
2
 10
330.620159608694
 20
117.04567923399161
 30
0.0
 11
330.620159608694
 21
108.04567923399161
 31
0.0
  0
LINE
  5
F8
  8
2
 10
207.622115429817
 20
117.0456793672716
 30
0.0
 11
207.622115429817
 21
108.0456793672716
 31
0.0
  0
LINE
  5
F9
  8
2
 10
200.6221144968566
 20
117.0456793672716
 30
0.0
 11
200.62211449685671
 21
108.0456793672716
 31
0.0
  0
LINE
  5
FA
  8
1
 10
169.12211725928231
 20
54.381110888667898
 30
0.0
 11
169.12211725928231
 21
36.881110888667898
 31
0.0
  0
LINE
  5
FB
  8
1
 10
152.12211725928231
 20
54.381110888667898
 30
0.0
 11
228.12211725928231
 21
54.381110888667898
 31
0.0
  0
ARC
  5
FC
  8
0
 10
217.12211725928219
 20
82.381110888667905
 30
0.0
 40
2.0
 50
0.0
 51
90.0
  0
ARC
  5
FD
  8
0
 10
191.12211725928231
 20
82.381110888667905
 30
0.0
 40
2.0
 50
90.000000000000057
 51
180.0
  0
ARC
  5
FE
  8
0
 10
191.12211725928231
 20
26.381110888667909
 30
0.0
 40
2.0
 50
180.0
 51
270.0
  0
ARC
  5
FF
  8
0
 10
217.12211725928219
 20
26.381110888667909
 30
0.0
 40
2.0
 50
270.0
 51
0.0
  0
LINE
  5
100
  8
0
 10
217.12211725928219
 20
24.381110888667902
 30
0.0
 11
191.12211725928231
 21
24.381110888667902
 31
0.0
  0
LINE
  5
101
  8
0
 10
219.12211725928219
 20
82.381110888667905
 30
0.0
 11
219.12211725928219
 21
26.381110888667909
 31
0.0
  0
LINE
  5
102
  8
0
 10
191.12211725928231
 20
84.381110888667905
 30
0.0
 11
217.12211725928219
 21
84.381110888667905
 31
0.0
  0
CIRCLE
  5
103
  8
0
 10
204.12211540129601
 20
76.583459688667887
 30
0.0
 40
3.5
  0
LINE
  5
104
  8
1
 10
195.62211540129601
 20
76.583459688667887
 30
0.0
 11
212.62211540129601
 21
76.583459688667887
 31
0.0
  0
LINE
  5
105
  8
1
 10
204.12211753377659
 20
14.083459688668141
 30
0.0
 11
204.12211540129601
 21
94.083459688667659
 31
0.0
  0
LINE
  5
106
  8
1
 10
195.62211540129601
 20
31.58345968866789
 30
0.0
 11
212.62211540129601
 21
31.58345968866789
 31
0.0
  0
CIRCLE
  5
107
  8
0
 10
204.12211540129601
 20
31.58345968866789
 30
0.0
 40
3.5
  0
LINE
  5
108
  8
0
 10
172.5240410479272
 20
40.381110888666591
 30
0.0
 11
187.62211797899491
 21
40.381110888660679
 31
0.0
  0
LINE
  5
109
  8
0
 10
187.62211797899261
 20
68.381110888667934
 30
0.0
 11
172.5240377443036
 21
68.381110888667905
 31
0.0
  0
LINE
  5
10A
  8
0
 10
163.62211725928231
 20
66.881110888667905
 30
0.0
 11
163.12211725928219
 21
66.381110888667905
 31
0.0
  0
LINE
  5
10B
  8
0
 10
169.9259648365736
 20
66.881110888667905
 30
0.0
 11
163.62211725928231
 21
66.881110888667905
 31
0.0
  0
LINE
  5
10C
  8
0
 10
163.62211725928231
 20
41.881110888667898
 30
0.0
 11
169.92596483657431
 21
41.881110888667898
 31
0.0
  0
LINE
  5
10D
  8
0
 10
163.12211725928219
 20
42.381110888667898
 30
0.0
 11
163.62211725928231
 21
41.881110888667898
 31
0.0
  0
LINE
  5
10E
  8
0
 10
163.12211725928219
 20
66.381110888667905
 30
0.0
 11
163.12211725928219
 21
42.381110888667898
 31
0.0
  0
LINE
  5
10F
  8
0
 10
188.12211797899479
 20
40.881110888660487
 30
0.0
 11
188.12211797899269
 21
67.881110888667934
 31
0.0
  0
LINE
  5
110
  8
0
 10
188.12211797899269
 20
67.381110888667905
 30
0.0
 11
189.12211797899269
 21
68.381110888667905
 31
0.0
  0
LINE
  5
111
  8
0
 10
188.12211797899479
 20
41.381110888667898
 30
0.0
 11
189.12211797899491
 21
40.381110888667912
 31
0.0
  0
LINE
  5
112
  8
0
 10
187.62211797899491
 20
40.381110888660679
 30
0.0
 11
188.12211797899479
 21
40.881110888660487
 31
0.0
  0
LINE
  5
113
  8
0
 10
188.12211797899269
 20
67.881110888667934
 30
0.0
 11
187.62211797899261
 21
68.381110888667934
 31
0.0
  0
LINE
  5
114
  8
0
 10
189.12211725928231
 20
26.381110888667909
 30
0.0
 11
189.12211725928231
 21
82.381110888667905
 31
0.0
  0
LINE
  5
115
  8
0
 10
163.62211725928231
 20
41.881110888667898
 30
0.0
 11
163.62211725928219
 21
66.881110888667905
 31
0.0
  0
CIRCLE
  5
116
  8
0
 10
68.655683771402721
 20
143.04567923399159
 30
0.0
 40
5.9000000000000004
  0
CIRCLE
  5
117
  8
0
 10
68.655683771402721
 20
143.04567923399159
 30
0.0
 40
5.4000000000000004
  0
ARC
  5
118
  8
0
 10
304.62015914221399
 20
143.04567923399159
 30
0.0
 40
14.0
 50
0.0
 51
180.0
  0
LINE
  5
119
  8
1
 10
68.655683771402721
 20
190.54567923399159
 30
0.0
 11
68.655683771402721
 21
100.04567923399161
 31
0.0
  0
LINE
  5
11A
  8
1
 10
304.62015914221399
 20
190.54567923399159
 30
0.0
 11
304.62015914221399
 21
100.04567923399161
 31
0.0
  0
LINE
  5
11B
  8
0
 10
169.5240410479289
 20
65.381114051649178
 30
0.0
 11
169.52404104792831
 21
43.381110888666683
 31
0.0
  0
ARC
  5
11C
  8
0
 10
172.52404104792831
 20
43.381110888666598
 30
0.0
 40
3.0
 50
179.99999999999849
 51
269.99999999997749
  0
ARC
  5
11D
  8
0
 10
172.52404104792831
 20
65.381110888669212
 30
0.0
 40
3.0
 50
90.000000000022496
 51
180.00000000000151
  0
LINE
  5
11E
  8
0
 10
164.52404104793581
 20
59.781110888667882
 30
0.0
 11
164.52404104793581
 21
48.981110888667899
 31
0.0
  0
LINE
  5
11F
  8
0
 10
165.02404104793581
 20
48.481110888667871
 30
0.0
 11
169.52404104792859
 21
48.481110888667871
 31
0.0
  0
LINE
  5
120
  8
0
 10
169.52404104792859
 20
60.281110888667847
 30
0.0
 11
165.02404104793581
 21
60.281110888667847
 31
0.0
  0
LINE
  5
121
  8
0
 10
164.52404104793581
 20
48.981110888667899
 30
0.0
 11
165.02404104793581
 21
48.481110888667871
 31
0.0
  0
LINE
  5
122
  8
0
 10
165.02404104793581
 20
60.281110888667882
 30
0.0
 11
164.52404104793581
 21
59.781110888667882
 31
0.0
  0
LINE
  5
123
  8
0
 10
165.02404104793581
 20
60.281110888667847
 30
0.0
 11
165.02404104793581
 21
48.481110888667871
 31
0.0
  0
LINE
  5
6EE
  8
1
 10
204.1221154012959
 20
103.04567923399161
 30
0.0
 11
204.12211540129601
 21
122.04567923399161
 31
0.0
  0
INSERT
  5
708
  8
0
  2
STDGX5
 10
0.0
 20
0.0
 30
0.0
  0
INSERT
  5
709
  8
0
  2
STDGX5
 10
0.0
 20
0.0
 30
0.0
  0
INSERT
  5
70A
  8
0
  2
STDGX5
 10
275.0
 20
0.0
 30
0.0
  0
INSERT
  5
70B
  8
0
  2
STDGX5
 10
275.0
 20
0.0
 30
0.0
  0
TEXT
  5
86C
  8
0
 62
     3
 10
0.0
 20
0.0
 30
0.0
 40
10.0
  1
ANT35A
  7
STANDARD1
  0
ENDSEC
  0
EOF
