  0
SECTION
  2
HEADER
  9
$ACADVER
  1
AC1009
  9
$INSBASE
 10
0.0
 20
0.0
 30
0.0
  9
$EXTMIN
 10
-0.0204638472032742
 20
-2.960436562073669
 30
-0.000000000000001
  9
$EXTMAX
 10
555.50000044703484
 20
555.49999773502338
 30
0.000000000000001
  9
$LIMMIN
 10
0.0
 20
0.0
  9
$LIMMAX
 10
594.0
 20
420.0
  9
$ORTHOMODE
 70
     0
  9
$REGENMODE
 70
     1
  9
$FILLMODE
 70
     1
  9
$QTEXTMODE
 70
     0
  9
$MIRRTEXT
 70
     1
  9
$DRAGMODE
 70
     2
  9
$LTSCALE
 40
1.0
  9
$OSMODE
 70
    37
  9
$ATTMODE
 70
     1
  9
$TEXTSIZE
 40
2.5
  9
$TRACEWID
 40
1.0
  9
$TEXTSTYLE
  7
STANDARD
  9
$CLAYER
  8
0
  9
$CELTYPE
  6
BYLAYER
  9
$CECOLOR
 62
   256
  9
$DIMSCALE
 40
1.0
  9
$DIMASZ
 40
3.0
  9
$DIMEXO
 40
1.0
  9
$DIMDLI
 40
3.75
  9
$DIMRND
 40
0.0
  9
$DIMDLE
 40
0.0
  9
$DIMEXE
 40
1.0
  9
$DIMTP
 40
0.0
  9
$DIMTM
 40
0.0
  9
$DIMTXT
 40
4.2333333333333316
  9
$DIMCEN
 40
2.5
  9
$DIMTSZ
 40
0.0
  9
$DIMTOL
 70
     0
  9
$DIMLIM
 70
     0
  9
$DIMTIH
 70
     1
  9
$DIMTOH
 70
     1
  9
$DIMSE1
 70
     0
  9
$DIMSE2
 70
     0
  9
$DIMTAD
 70
     1
  9
$DIMZIN
 70
     0
  9
$DIMBLK
  1

  9
$DIMASO
 70
     1
  9
$DIMSHO
 70
     1
  9
$DIMPOST
  1

  9
$DIMAPOST
  1

  9
$DIMALT
 70
     0
  9
$DIMALTD
 70
     3
  9
$DIMALTF
 40
0.0393700787401575
  9
$DIMLFAC
 40
1.0
  9
$DIMTOFL
 70
     1
  9
$DIMTVP
 40
0.0
  9
$DIMTIX
 70
     0
  9
$DIMSOXD
 70
     0
  9
$DIMSAH
 70
     0
  9
$DIMBLK1
  1

  9
$DIMBLK2
  1

  9
$DIMSTYLE
  2
ISO-25
  9
$DIMCLRD
 70
     0
  9
$DIMCLRE
 70
     0
  9
$DIMCLRT
 70
     0
  9
$DIMTFAC
 40
1.0
  9
$DIMGAP
 40
1.524
  9
$LUNITS
 70
     2
  9
$LUPREC
 70
     1
  9
$SKETCHINC
 40
1.0
  9
$FILLETRAD
 40
10.0
  9
$AUNITS
 70
     0
  9
$AUPREC
 70
     0
  9
$MENU
  1
.
  9
$ELEVATION
 40
0.0
  9
$PELEVATION
 40
0.0
  9
$THICKNESS
 40
0.0
  9
$LIMCHECK
 70
     0
  9
$BLIPMODE
 70
     0
  9
$CHAMFERA
 40
10.0
  9
$CHAMFERB
 40
10.0
  9
$SKPOLY
 70
     0
  9
$TDCREATE
 40
2454991.6013850812
  9
$TDUPDATE
 40
2457939.3747358569
  9
$TDINDWG
 40
0.5087512269
  9
$TDUSRTIMER
 40
0.5087512269
  9
$USRTIMER
 70
     1
  9
$ANGBASE
 50
0.0
  9
$ANGDIR
 70
     0
  9
$PDMODE
 70
     0
  9
$PDSIZE
 40
-1.0
  9
$PLINEWID
 40
0.0
  9
$COORDS
 70
     1
  9
$SPLFRAME
 70
     0
  9
$SPLINETYPE
 70
     6
  9
$SPLINESEGS
 70
     8
  9
$ATTDIA
 70
     0
  9
$ATTREQ
 70
     1
  9
$HANDLING
 70
     1
  9
$HANDSEED
  5
9102
  9
$SURFTAB1
 70
     6
  9
$SURFTAB2
 70
     6
  9
$SURFTYPE
 70
     6
  9
$SURFU
 70
     6
  9
$SURFV
 70
     6
  9
$UCSNAME
  2

  9
$UCSORG
 10
0.0
 20
0.0
 30
0.0
  9
$UCSXDIR
 10
1.0
 20
0.0
 30
0.0
  9
$UCSYDIR
 10
0.0
 20
1.0
 30
0.0
  9
$PUCSNAME
  2

  9
$PUCSORG
 10
0.0
 20
0.0
 30
0.0
  9
$PUCSXDIR
 10
1.0
 20
0.0
 30
0.0
  9
$PUCSYDIR
 10
0.0
 20
1.0
 30
0.0
  9
$USERI1
 70
     0
  9
$USERI2
 70
     0
  9
$USERI3
 70
     0
  9
$USERI4
 70
     0
  9
$USERI5
 70
     0
  9
$USERR1
 40
0.0
  9
$USERR2
 40
0.0
  9
$USERR3
 40
0.0
  9
$USERR4
 40
0.0
  9
$USERR5
 40
0.0
  9
$WORLDVIEW
 70
     1
  9
$SHADEDGE
 70
     3
  9
$SHADEDIF
 70
    70
  9
$TILEMODE
 70
     1
  9
$MAXACTVP
 70
    64
  9
$PLIMCHECK
 70
     0
  9
$PEXTMIN
 10
1.0000000000000000E+020
 20
1.0000000000000000E+020
 30
1.0000000000000000E+020
  9
$PEXTMAX
 10
-1.0000000000000000E+020
 20
-1.0000000000000000E+020
 30
-1.0000000000000000E+020
  9
$PLIMMIN
 10
0.0
 20
0.0
  9
$PLIMMAX
 10
420.0
 20
297.0
  9
$UNITMODE
 70
     0
  9
$VISRETAIN
 70
     1
  9
$PLINEGEN
 70
     0
  9
$PSLTSCALE
 70
     1
  0
ENDSEC
  0
SECTION
  2
TABLES
  0
TABLE
  2
VPORT
 70
     1
  0
VPORT
  2
*ACTIVE
 70
     0
 10
0.0
 20
0.0
 11
1.0
 21
1.0
 12
635.39370870811877
 22
276.26978188674178
 13
0.0
 23
0.0
 14
10.0
 24
10.0
 15
10.0
 25
10.0
 16
0.0
 26
0.0
 36
1.0
 17
0.0
 27
0.0
 37
0.0
 40
563.39359475399476
 41
2.6019575856443709
 42
50.0
 43
0.0
 44
0.0
 50
0.0
 51
0.0
 71
     0
 72
  2000
 73
     1
 74
     3
 75
     0
 76
     0
 77
     0
 78
     0
  0
ENDTAB
  0
TABLE
  2
LTYPE
 70
     2
  0
LTYPE
  2
CONTINUOUS
 70
     0
  3
Solid line
 72
    65
 73
     0
 40
0.0
  0
LTYPE
  2
CENTER
 70
     0
  3
Center ____ _ ____ _ ____ _ ____ _ ____ _ ____
 72
    65
 73
     4
 40
10.16
 49
6.3499999999999988
 49
-1.27
 49
1.27
 49
-1.27
  0
ENDTAB
  0
TABLE
  2
LAYER
 70
     4
  0
LAYER
  2
0
 70
     0
 62
     7
  6
CONTINUOUS
  0
LAYER
  2
DEFPOINTS
 70
     0
 62
     7
  6
CONTINUOUS
  0
LAYER
  2
1
 70
     0
 62
     1
  6
CENTER
  0
LAYER
  2
3
 70
     0
 62
     3
  6
CONTINUOUS
  0
ENDTAB
  0
TABLE
  2
STYLE
 70
     2
  0
STYLE
  2
STANDARD
 70
     0
 40
0.0
 41
1.0
 50
0.0
 71
     0
 42
2.5
  3
txt
  4
bigfont
  0
STYLE
  2
STANDARD1
 70
     0
 40
0.0
 41
1.0
 50
0.0
 71
     0
 42
3.0
  3
txt
  4

  0
ENDTAB
  0
TABLE
  2
VIEW
 70
     0
  0
ENDTAB
  0
TABLE
  2
UCS
 70
     0
  0
ENDTAB
  0
TABLE
  2
APPID
 70
     4
  0
APPID
  2
ACAD
 70
     0
  0
APPID
  2
ACAD_MLEADERVER
 70
     0
  0
APPID
  2
ACAD_NAV_VCDISPLAY
 70
     0
  0
APPID
  2
ACAD_EXEMPT_FROM_CAD_STANDARDS
 70
     0
  0
ENDTAB
  0
TABLE
  2
DIMSTYLE
 70
     2
  0
DIMSTYLE
  2
ISO-25
 70
     0
  3

  4

  5

  6

  7

 40
1.0
 41
2.5
 42
0.625
 43
3.75
 44
1.25
 45
0.0
 46
0.0
 47
0.0
 48
0.0
140
2.5
141
2.5
142
0.0
143
0.03937007874016
144
1.0
145
0.0
146
1.0
147
0.625
 71
     0
 72
     0
 73
     0
 74
     0
 75
     0
 76
     0
 77
     1
 78
     8
170
     0
171
     3
172
     1
173
     0
174
     0
175
     0
176
     0
177
     0
178
     0
  0
DIMSTYLE
  2
STANDARD
 70
     0
  3

  4

  5

  6

  7

 40
1.0
 41
0.18
 42
0.0625
 43
0.38
 44
0.18
 45
0.0
 46
0.0
 47
0.0
 48
0.0
140
0.18
141
0.09
142
0.0
143
25.399999999999999
144
1.0
145
0.0
146
1.0
147
0.09
 71
     0
 72
     0
 73
     1
 74
     1
 75
     0
 76
     0
 77
     0
 78
     0
170
     0
171
     2
172
     0
173
     0
174
     0
175
     0
176
     0
177
     0
178
     0
  0
ENDTAB
  0
ENDSEC
  0
SECTION
  2
BLOCKS
  0
BLOCK
  8
0
  2
$MODEL_SPACE
 70
     0
 10
0.0
 20
0.0
 30
0.0
  3
$MODEL_SPACE
  1

  0
ENDBLK
  5
21
  8
0
  0
BLOCK
 67
     1
  8
0
  2
$PAPER_SPACE
 70
     0
 10
0.0
 20
0.0
 30
0.0
  3
$PAPER_SPACE
  1

  0
ENDBLK
  5
1D
 67
     1
  8
0
  0
ENDSEC
  0
SECTION
  2
ENTITIES
  0
TEXT
  5
6529
  8
0
 62
     3
 10
0.0
 20
0.0
 30
0.0
 40
10.0
  1
AMWSW20L-W-AG
  7
STANDARD1
  0
LINE
  5
70AB
  8
0
 10
273.00000089406967
 20
373.5000011920929
 30
0.0
 11
271.50000157952309
 21
374.36602687835688
 31
0.0
  0
LINE
  5
70AC
  8
0
 10
264.49999856948853
 20
374.36602687835688
 30
0.0
 11
262.99999925494188
 21
373.5000011920929
 31
0.0
  0
LINE
  5
70AD
  8
0
 10
273.00000089406967
 20
329.00000041723251
 30
0.0
 11
273.00000089406967
 21
339.49999934434891
 31
0.0
  0
LINE
  5
70AE
  8
0
 10
262.99999925494188
 20
339.49999934434891
 30
0.0
 11
262.99999925494188
 21
329.00000041723251
 31
0.0
  0
LINE
  5
70AF
  8
0
 10
271.50000157952309
 20
374.36602687835688
 30
0.0
 11
271.50000157952309
 21
377.57071530818928
 31
0.0
  0
LINE
  5
70B0
  8
0
 10
264.49999856948853
 20
377.57071530818928
 30
0.0
 11
264.49999856948853
 21
374.36602687835688
 31
0.0
  0
ARC
  5
70B1
  8
0
 10
268.0
 20
373.9999989867211
 30
0.0
 40
4.9999999999999751
 50
45.57299599919812
 51
134.42700400080179
  0
ARC
  5
70B2
  8
0
 10
332.0
 20
301.49999898672098
 30
0.0
 40
1.0
 50
270.0
 51
0.0
  0
ARC
  5
70B3
  8
0
 10
294.0
 20
301.49999898672098
 30
0.0
 40
1.0
 50
180.0
 51
270.0
  0
LINE
  5
70B4
  8
0
 10
332.99999955296511
 20
373.00000017881388
 30
0.0
 11
331.50000023841858
 21
374.49999576807022
 31
0.0
  0
LINE
  5
70B5
  8
0
 10
294.49999976158142
 20
374.49999576807022
 30
0.0
 11
293.00000044703478
 21
373.00000017881388
 31
0.0
  0
LINE
  5
70B6
  8
0
 10
332.99999955296511
 20
301.49999870359892
 30
0.0
 11
332.99999955296511
 21
373.00000017881388
 31
0.0
  0
LINE
  5
70B7
  8
0
 10
293.00000044703478
 20
338.49999731779093
 30
0.0
 11
293.00000044703478
 21
301.49999870359892
 31
0.0
  0
LINE
  5
70B8
  8
0
 10
293.00000044703478
 20
373.00000017881388
 30
0.0
 11
293.00000044703478
 21
368.49999850988382
 31
0.0
  0
ARC
  5
70B9
  8
0
 10
286.0
 20
338.49999898672098
 30
0.0
 40
7.0
 50
0.0
 51
90.0
  0
ARC
  5
70BA
  8
0
 10
259.0
 20
366.49999898672098
 30
0.0
 40
1.0
 50
90.0
 51
180.0
  0
ARC
  5
70BB
  8
0
 10
259.0
 20
346.49999898672098
 30
0.0
 40
1.0
 50
180.0
 51
270.0
  0
LINE
  5
70BC
  8
0
 10
258.00000029802322
 20
366.50000190734858
 30
0.0
 11
258.00000029802322
 21
346.49999862909311
 31
0.0
  0
ARC
  5
70BD
  8
0
 10
291.9999957264244
 20
368.50000075689411
 30
0.0
 40
1.0000042735772261
 50
270.00024485679972
 51
359.9998985769904
  0
LINE
  5
70BE
  8
0
 10
332.99500021338463
 20
295.49999865144491
 30
0.0
 11
332.99500021338463
 21
296.29999822378147
 31
0.0
  0
LINE
  5
70BF
  8
0
 10
293.00499978661537
 20
296.29999822378147
 30
0.0
 11
293.00499978661537
 21
295.49999865144491
 31
0.0
  0
LINE
  5
70C0
  8
0
 10
332.99500021338463
 20
296.29999822378147
 30
0.0
 11
332.7950005531311
 21
296.4999997466802
 31
0.0
  0
LINE
  5
70C1
  8
0
 10
293.2049994468689
 20
296.4999997466802
 30
0.0
 11
293.00499978661537
 21
296.29999822378147
 31
0.0
  0
LINE
  5
70C2
  8
0
 10
330.50000007450581
 20
271.49999937415117
 30
0.0
 11
330.50000007450581
 21
280.49999898672098
 31
0.0
  0
LINE
  5
70C3
  8
0
 10
295.49999992549419
 20
280.49999898672098
 30
0.0
 11
295.49999992549419
 21
271.49999937415117
 31
0.0
  0
LINE
  5
70C4
  8
0
 10
295.49999992549419
 20
271.49999937415117
 30
0.0
 11
296.6547002196312
 21
269.49999904632568
 31
0.0
  0
LINE
  5
70C5
  8
0
 10
329.3452997803688
 20
269.49999904632568
 30
0.0
 11
330.50000007450581
 21
271.49999937415117
 31
0.0
  0
ARC
  5
70C6
  8
0
 10
297.0
 20
298.4999989867211
 30
0.0
 40
2.0
 50
270.0
 51
0.0
  0
ARC
  5
70C7
  8
0
 10
329.0
 20
298.4999989867211
 30
0.0
 40
2.0
 50
180.0
 51
270.0
  0
LINE
  5
70C8
  8
0
 10
327.00000043213367
 20
298.4999982118606
 30
0.0
 11
327.00000043213367
 21
300.4999985396862
 31
0.0
  0
LINE
  5
70C9
  8
0
 10
298.99999956786633
 20
300.4999985396862
 30
0.0
 11
298.99999956786633
 21
298.4999982118606
 31
0.0
  0
LINE
  5
70CA
  8
0
 10
323.9999999403953
 20
374.49999576807022
 30
0.0
 11
323.9999999403953
 21
374.63397210836411
 31
0.0
  0
LINE
  5
70CB
  8
0
 10
302.00000005960459
 20
385.00000214576721
 30
0.0
 11
302.00000005960459
 21
374.49999576807022
 31
0.0
  0
LINE
  5
70CC
  8
0
 10
303.5000003054738
 20
386.4999977350235
 30
0.0
 11
302.00000005960459
 21
385.00000214576721
 31
0.0
  0
ARC
  5
70CD
  8
0
 10
331.99265357512382
 20
295.39947967128933
 30
0.0
 40
1.007371367659583
 50
359.59320693873701
 51
5.7267001152066976
  0
ARC
  5
70CE
  8
0
 10
293.99976766559649
 20
295.40013926725692
 30
0.0
 40
0.9997672187565138
 50
174.26758787919641
 51
179.99886862947889
  0
LINE
  5
70CF
  8
0
 10
272.90747585892677
 20
321.9999974071979
 30
0.0
 11
272.90747585892677
 21
329.00000041723251
 31
0.0
  0
LINE
  5
70D1
  8
0
 10
263.09252429008478
 20
321.9999974071979
 30
0.0
 11
263.09252429008478
 21
329.00000041723251
 31
0.0
  0
LINE
  5
70D3
  8
0
 10
277.81495350599289
 20
321.9999974071979
 30
0.0
 11
277.81495350599289
 21
329.00000041723251
 31
0.0
  0
LINE
  5
70D6
  8
0
 10
258.18504664301872
 20
321.9999974071979
 30
0.0
 11
258.18504664301872
 21
329.00000041723251
 31
0.0
  0
LINE
  5
70D7
  8
0
 10
277.81495350599278
 20
321.9999974071979
 30
0.0
 11
258.18504664301872
 21
321.9999974071979
 31
0.0
  0
LINE
  5
70D8
  8
0
 10
277.81495350599278
 20
329.00000041723251
 30
0.0
 11
258.18504664301872
 21
329.00000041723251
 31
0.0
  0
LINE
  5
70DA
  8
0
 10
271.50000157952309
 20
374.36602687835688
 30
0.0
 11
264.49999856948853
 21
374.36602687835688
 31
0.0
  0
LINE
  5
70DC
  8
0
 10
271.50000157952309
 20
377.57071530818928
 30
0.0
 11
264.49999856948853
 21
377.57071530818928
 31
0.0
  0
LINE
  5
70DD
  8
0
 10
272.90747585892677
 20
345.49999660253519
 30
0.0
 11
272.90747585892677
 21
339.49999934434891
 31
0.0
  0
LINE
  5
70DE
  8
0
 10
277.81495350599289
 20
345.49999660253519
 30
0.0
 11
277.81495350599289
 21
339.49999934434891
 31
0.0
  0
LINE
  5
70E0
  8
0
 10
263.09252429008478
 20
345.49999660253519
 30
0.0
 11
263.09252429008478
 21
339.49999934434891
 31
0.0
  0
LINE
  5
70E3
  8
0
 10
258.18504664301872
 20
345.49999660253519
 30
0.0
 11
258.18504664301872
 21
339.49999934434891
 31
0.0
  0
LINE
  5
70E4
  8
0
 10
258.18504664301872
 20
339.49999934434891
 30
0.0
 11
277.814953505993
 21
339.49999934434891
 31
0.0
  0
LINE
  5
70E7
  8
0
 10
272.90747585892677
 20
373.5000011920929
 30
0.0
 11
272.90747585892677
 21
367.4999964833259
 31
0.0
  0
LINE
  5
70E8
  8
0
 10
258.18504664301872
 20
373.5000011920929
 30
0.0
 11
277.81495350599289
 21
373.5000011920929
 31
0.0
  0
LINE
  5
70E9
  8
0
 10
277.81495350599289
 20
373.5000011920929
 30
0.0
 11
277.81495350599289
 21
367.4999964833259
 31
0.0
  0
LINE
  5
70EA
  8
0
 10
263.09252429008478
 20
373.5000011920929
 30
0.0
 11
263.09252429008478
 21
367.4999964833259
 31
0.0
  0
LINE
  5
70ED
  8
0
 10
258.18504664301872
 20
373.5000011920929
 30
0.0
 11
258.18504664301872
 21
367.4999964833259
 31
0.0
  0
CIRCLE
  5
70F1
  8
0
 10
313.0
 20
344.89999898672102
 30
0.0
 40
3.7499999999999951
  0
LINE
  5
70F3
  8
0
 10
331.99999938905239
 20
300.4999985396862
 30
0.0
 11
294.00000061094761
 21
300.4999985396862
 31
0.0
  0
LINE
  5
70F4
  8
0
 10
332.99999955296511
 20
373.00000017881388
 30
0.0
 11
293.00000044703478
 21
373.00000017881388
 31
0.0
  0
LINE
  5
70F7
  8
0
 10
294.49999976158142
 20
374.49999576807022
 30
0.0
 11
331.50000023841869
 21
374.49999576807022
 31
0.0
  0
LINE
  5
7109
  8
0
 10
258.18504664301872
 20
367.4999964833259
 30
0.0
 11
292.0
 21
367.4999964833259
 31
0.0
  0
LINE
  5
710D
  8
0
 10
286.00577742117667
 20
345.49999660253519
 30
0.0
 11
258.18504664301861
 21
345.49999660253519
 31
0.0
  0
LINE
  5
7113
  8
0
 10
332.99999955296511
 20
280.99999901046971
 30
0.0
 11
332.5000004023313
 21
280.49999898672098
 31
0.0
  0
LINE
  5
7114
  8
0
 10
332.5000004023313
 20
280.49999898672098
 30
0.0
 11
293.49999959766859
 21
280.49999898672098
 31
0.0
  0
LINE
  5
7115
  8
0
 10
293.00000044703478
 20
280.99999901046971
 30
0.0
 11
293.49999959766859
 21
280.49999898672098
 31
0.0
  0
LINE
  5
7116
  8
0
 10
293.00499978661537
 20
295.49999865144491
 30
0.0
 11
332.99500021338463
 21
295.49999865144491
 31
0.0
  0
ARC
  5
7117
  8
0
 10
332.0
 20
294.4999989867211
 30
0.0
 40
1.0
 50
0.0
 51
90.0
  0
ARC
  5
7119
  8
0
 10
294.0
 20
294.4999989867211
 30
0.0
 40
1.0
 50
90.0
 51
180.0
  0
LINE
  5
711A
  8
0
 10
293.00000044703501
 20
295.40015901271238
 30
0.0
 11
293.00000044703478
 21
280.99999901046971
 31
0.0
  0
LINE
  5
711B
  8
0
 10
332.99999955296511
 20
295.3923275172566
 30
0.0
 11
332.99999955296511
 21
280.99999901046971
 31
0.0
  0
LINE
  5
7120
  8
0
 10
293.2049994468689
 20
296.49999974668032
 30
0.0
 11
332.7950005531311
 21
296.4999997466802
 31
0.0
  0
LINE
  5
7122
  8
0
 10
295.49999992549419
 20
271.49999937415117
 30
0.0
 11
330.50000007450581
 21
271.49999937415117
 31
0.0
  0
LINE
  5
7123
  8
0
 10
329.3452997803688
 20
269.49999904632568
 30
0.0
 11
296.6547002196312
 21
269.49999904632568
 31
0.0
  0
LINE
  5
7124
  8
0
 10
322.4999996945262
 20
375.49999779462809
 30
0.0
 11
322.49999969452631
 21
386.4999977350235
 31
0.0
  0
LINE
  5
7126
  8
0
 10
322.4999996945262
 20
385.00000214576721
 30
0.0
 11
302.00000005960459
 21
385.00000214576721
 31
0.0
  0
LINE
  5
7127
  8
0
 10
303.5000003054738
 20
386.4999977350235
 30
0.0
 11
322.4999996945262
 21
386.4999977350235
 31
0.0
  0
LINE
  5
7132
  8
0
 10
532.99999955296505
 20
373.00000017881388
 30
0.0
 11
531.50000023841847
 21
374.49999576807022
 31
0.0
  0
LINE
  5
7133
  8
0
 10
494.49999976158142
 20
374.49999576807022
 30
0.0
 11
493.00000044703478
 21
373.00000017881388
 31
0.0
  0
LINE
  5
7134
  8
0
 10
532.99999955296505
 20
348.74999946316052
 30
0.0
 11
532.99999955296505
 21
373.00000017881388
 31
0.0
  0
LINE
  5
7135
  8
0
 10
532.99999955296505
 20
301.49999870359892
 30
0.0
 11
532.99999955296505
 21
341.04999898715539
 31
0.0
  0
LINE
  5
7136
  8
0
 10
493.00000044703478
 20
341.04999898665
 30
0.0
 11
493.00000044703478
 21
301.49999870359892
 31
0.0
  0
LINE
  5
7137
  8
0
 10
493.00000044703478
 20
373.00000017881388
 30
0.0
 11
493.00000044703478
 21
348.74999946366592
 31
0.0
  0
ARC
  5
7138
  8
0
 10
532.00000000000023
 20
301.49999898672098
 30
0.0
 40
1.0
 50
270.0
 51
0.0
  0
ARC
  5
7139
  8
0
 10
494.00000000000023
 20
301.49999898672098
 30
0.0
 40
1.0
 50
180.0
 51
270.0
  0
LINE
  5
713A
  8
0
 10
554.99999943375576
 20
280.49999898672098
 30
0.0
 11
555.50000044703484
 21
280.99999901046971
 31
0.0
  0
ARC
  5
713B
  8
0
 10
554.50000000000023
 20
294.4999989867211
 30
0.0
 40
1.0
 50
0.0
 51
90.0
  0
LINE
  5
713C
  8
0
 10
555.50000044703484
 20
280.99999901046971
 30
0.0
 11
555.50000044703484
 21
294.49999941885471
 31
0.0
  0
LINE
  5
713D
  8
0
 10
470.49999955296511
 20
294.49999941885471
 30
0.0
 11
470.49999955296511
 21
280.99999901046971
 31
0.0
  0
ARC
  5
713E
  8
0
 10
471.49999999999989
 20
294.4999989867211
 30
0.0
 40
1.0
 50
90.0
 51
180.0
  0
LINE
  5
713F
  8
0
 10
470.49999955296511
 20
280.99999901046971
 30
0.0
 11
471.00000056624413
 21
280.49999898672098
 31
0.0
  0
LINE
  5
7140
  8
0
 10
532.99500021338463
 20
295.49999865144491
 30
0.0
 11
532.99500021338463
 21
296.29999822378147
 31
0.0
  0
LINE
  5
7141
  8
0
 10
493.00499978661531
 20
296.29999822378147
 30
0.0
 11
493.00499978661531
 21
295.49999865144491
 31
0.0
  0
LINE
  5
7142
  8
0
 10
532.99500021338463
 20
296.29999822378147
 30
0.0
 11
532.79500055313099
 21
296.4999997466802
 31
0.0
  0
LINE
  5
7143
  8
0
 10
493.20499944686878
 20
296.4999997466802
 30
0.0
 11
493.00499978661531
 21
296.29999822378147
 31
0.0
  0
LINE
  5
7144
  8
0
 10
495.49999992549408
 20
271.49999937415117
 30
0.0
 11
496.65470021963108
 21
269.49999904632568
 31
0.0
  0
LINE
  5
7145
  8
0
 10
529.34529978036869
 20
269.49999904632568
 30
0.0
 11
530.50000007450569
 21
271.49999937415117
 31
0.0
  0
LINE
  5
7146
  8
0
 10
530.50000007450569
 20
271.49999937415117
 30
0.0
 11
530.50000007450569
 21
280.49999898672098
 31
0.0
  0
LINE
  5
7147
  8
0
 10
495.49999992549408
 20
280.49999898672098
 30
0.0
 11
495.49999992549408
 21
271.49999937415117
 31
0.0
  0
ARC
  5
7148
  8
0
 10
497.00000000000023
 20
298.4999989867211
 30
0.0
 40
2.0
 50
270.0
 51
0.0
  0
ARC
  5
7149
  8
0
 10
529.0
 20
298.4999989867211
 30
0.0
 40
2.0
 50
180.0
 51
270.0
  0
LINE
  5
714A
  8
0
 10
527.00000043213356
 20
298.4999982118606
 30
0.0
 11
527.00000043213356
 21
300.4999985396862
 31
0.0
  0
LINE
  5
714B
  8
0
 10
498.99999956786633
 20
300.4999985396862
 30
0.0
 11
498.99999956786633
 21
298.4999982118606
 31
0.0
  0
LINE
  5
714C
  8
0
 10
523.99999994039536
 20
374.49999576807022
 30
0.0
 11
523.99999994039536
 21
385.00000214576721
 31
0.0
  0
LINE
  5
714D
  8
0
 10
502.00000005960459
 20
385.00000214576721
 30
0.0
 11
502.00000005960459
 21
374.49999576807022
 31
0.0
  0
LINE
  5
714E
  8
0
 10
523.99999994039536
 20
385.00000214576721
 30
0.0
 11
522.49999969452608
 21
386.4999977350235
 31
0.0
  0
LINE
  5
714F
  8
0
 10
503.50000030547369
 20
386.4999977350235
 30
0.0
 11
502.00000005960459
 21
385.00000214576721
 31
0.0
  0
LINE
  5
715F
  8
0
 10
532.99999955296505
 20
373.00000017881388
 30
0.0
 11
493.00000044703478
 21
373.00000017881388
 31
0.0
  0
LINE
  5
7160
  8
0
 10
494.49999976158142
 20
374.49999576807022
 30
0.0
 11
531.50000023841847
 21
374.49999576807022
 31
0.0
  0
LINE
  5
7164
  8
0
 10
531.99999938905228
 20
300.4999985396862
 30
0.0
 11
494.0000006109475
 21
300.4999985396862
 31
0.0
  0
CIRCLE
  5
7172
  8
0
 10
526.0
 20
288.49999898672098
 30
0.0
 40
2.6499999999999768
  0
CIRCLE
  5
7175
  8
0
 10
526.0
 20
288.49999898672098
 30
0.0
 40
2.1000000000000218
  0
LINE
  5
717C
  8
0
 10
554.99999943375576
 20
280.49999898672098
 30
0.0
 11
471.00000056624413
 21
280.49999898672098
 31
0.0
  0
LINE
  5
717E
  8
0
 10
493.20499944686878
 20
296.4999997466802
 30
0.0
 11
532.79500055313099
 21
296.4999997466802
 31
0.0
  0
LINE
  5
717F
  8
0
 10
529.34529978036869
 20
269.49999904632568
 30
0.0
 11
496.65470021963108
 21
269.49999904632568
 31
0.0
  0
LINE
  5
7180
  8
0
 10
495.49999992549408
 20
271.49999937415117
 30
0.0
 11
530.50000007450569
 21
271.49999937415117
 31
0.0
  0
CIRCLE
  5
7181
  8
0
 10
526.0
 20
288.49999898672098
 30
0.0
 40
0.75
  0
LINE
  5
7182
  8
0
 10
507.45473169907922
 20
375.49999779462809
 30
0.0
 11
507.45473169907922
 21
385.00000214576721
 31
0.0
  0
POLYLINE
  5
7183
  8
0
 10
507.4547317467954
 20
375.49999898672093
 30
0.0
 66
     1
 70
     8
  0
VERTEX
  8
0
  5
875C
 10
507.455
 20
375.500
 30
0.000000
  70
    32
  0
VERTEX
  8
0
  5
875D
 10
507.533
 20
375.474
 30
0.000000
  70
    32
  0
VERTEX
  8
0
  5
875E
 10
507.612
 20
375.448
 30
0.000000
  70
    32
  0
VERTEX
  8
0
  5
875F
 10
507.692
 20
375.422
 30
0.000000
  70
    32
  0
VERTEX
  8
0
  5
8760
 10
507.771
 20
375.397
 30
0.000000
  70
    32
  0
VERTEX
  8
0
  5
8761
 10
507.851
 20
375.373
 30
0.000000
  70
    32
  0
VERTEX
  8
0
  5
8762
 10
507.932
 20
375.348
 30
0.000000
  70
    32
  0
VERTEX
  8
0
  5
8763
 10
508.013
 20
375.324
 30
0.000000
  70
    32
  0
VERTEX
  8
0
  5
8764
 10
508.094
 20
375.301
 30
0.000000
  70
    32
  0
VERTEX
  8
0
  5
8765
 10
508.175
 20
375.277
 30
0.000000
  70
    32
  0
VERTEX
  8
0
  5
8766
 10
508.257
 20
375.255
 30
0.000000
  70
    32
  0
VERTEX
  8
0
  5
8767
 10
508.339
 20
375.232
 30
0.000000
  70
    32
  0
VERTEX
  8
0
  5
8768
 10
508.422
 20
375.210
 30
0.000000
  70
    32
  0
VERTEX
  8
0
  5
8769
 10
508.504
 20
375.189
 30
0.000000
  70
    32
  0
VERTEX
  8
0
  5
876A
 10
508.587
 20
375.167
 30
0.000000
  70
    32
  0
VERTEX
  8
0
  5
876B
 10
508.671
 20
375.147
 30
0.000000
  70
    32
  0
VERTEX
  8
0
  5
876C
 10
508.754
 20
375.126
 30
0.000000
  70
    32
  0
VERTEX
  8
0
  5
876D
 10
508.838
 20
375.106
 30
0.000000
  70
    32
  0
VERTEX
  8
0
  5
876E
 10
508.922
 20
375.086
 30
0.000000
  70
    32
  0
VERTEX
  8
0
  5
876F
 10
509.007
 20
375.067
 30
0.000000
  70
    32
  0
VERTEX
  8
0
  5
8770
 10
509.092
 20
375.048
 30
0.000000
  70
    32
  0
VERTEX
  8
0
  5
8771
 10
509.177
 20
375.030
 30
0.000000
  70
    32
  0
VERTEX
  8
0
  5
8772
 10
509.262
 20
375.012
 30
0.000000
  70
    32
  0
VERTEX
  8
0
  5
8773
 10
509.347
 20
374.994
 30
0.000000
  70
    32
  0
VERTEX
  8
0
  5
8774
 10
509.433
 20
374.977
 30
0.000000
  70
    32
  0
VERTEX
  8
0
  5
8775
 10
509.519
 20
374.960
 30
0.000000
  70
    32
  0
VERTEX
  8
0
  5
8776
 10
509.605
 20
374.944
 30
0.000000
  70
    32
  0
VERTEX
  8
0
  5
8777
 10
509.692
 20
374.928
 30
0.000000
  70
    32
  0
VERTEX
  8
0
  5
8778
 10
509.779
 20
374.912
 30
0.000000
  70
    32
  0
VERTEX
  8
0
  5
8779
 10
509.866
 20
374.897
 30
0.000000
  70
    32
  0
VERTEX
  8
0
  5
877A
 10
509.953
 20
374.883
 30
0.000000
  70
    32
  0
VERTEX
  8
0
  5
877B
 10
510.040
 20
374.868
 30
0.000000
  70
    32
  0
VERTEX
  8
0
  5
877C
 10
510.128
 20
374.854
 30
0.000000
  70
    32
  0
VERTEX
  8
0
  5
877D
 10
510.215
 20
374.841
 30
0.000000
  70
    32
  0
VERTEX
  8
0
  5
877E
 10
510.303
 20
374.828
 30
0.000000
  70
    32
  0
VERTEX
  8
0
  5
877F
 10
510.392
 20
374.815
 30
0.000000
  70
    32
  0
VERTEX
  8
0
  5
8780
 10
510.480
 20
374.803
 30
0.000000
  70
    32
  0
VERTEX
  8
0
  5
8781
 10
510.568
 20
374.791
 30
0.000000
  70
    32
  0
VERTEX
  8
0
  5
8782
 10
510.657
 20
374.780
 30
0.000000
  70
    32
  0
VERTEX
  8
0
  5
8783
 10
510.746
 20
374.769
 30
0.000000
  70
    32
  0
VERTEX
  8
0
  5
8784
 10
510.835
 20
374.758
 30
0.000000
  70
    32
  0
VERTEX
  8
0
  5
8785
 10
510.924
 20
374.748
 30
0.000000
  70
    32
  0
VERTEX
  8
0
  5
8786
 10
511.013
 20
374.738
 30
0.000000
  70
    32
  0
VERTEX
  8
0
  5
8787
 10
511.102
 20
374.729
 30
0.000000
  70
    32
  0
VERTEX
  8
0
  5
8788
 10
511.192
 20
374.720
 30
0.000000
  70
    32
  0
VERTEX
  8
0
  5
8789
 10
511.282
 20
374.712
 30
0.000000
  70
    32
  0
VERTEX
  8
0
  5
878A
 10
511.371
 20
374.704
 30
0.000000
  70
    32
  0
VERTEX
  8
0
  5
878B
 10
511.461
 20
374.696
 30
0.000000
  70
    32
  0
VERTEX
  8
0
  5
878C
 10
511.551
 20
374.689
 30
0.000000
  70
    32
  0
VERTEX
  8
0
  5
878D
 10
511.641
 20
374.683
 30
0.000000
  70
    32
  0
VERTEX
  8
0
  5
878E
 10
511.731
 20
374.676
 30
0.000000
  70
    32
  0
VERTEX
  8
0
  5
878F
 10
511.822
 20
374.671
 30
0.000000
  70
    32
  0
VERTEX
  8
0
  5
8790
 10
511.912
 20
374.665
 30
0.000000
  70
    32
  0
VERTEX
  8
0
  5
8791
 10
512.002
 20
374.660
 30
0.000000
  70
    32
  0
VERTEX
  8
0
  5
8792
 10
512.093
 20
374.656
 30
0.000000
  70
    32
  0
VERTEX
  8
0
  5
8793
 10
512.183
 20
374.651
 30
0.000000
  70
    32
  0
VERTEX
  8
0
  5
8794
 10
512.274
 20
374.648
 30
0.000000
  70
    32
  0
VERTEX
  8
0
  5
8795
 10
512.365
 20
374.645
 30
0.000000
  70
    32
  0
VERTEX
  8
0
  5
8796
 10
512.455
 20
374.642
 30
0.000000
  70
    32
  0
VERTEX
  8
0
  5
8797
 10
512.546
 20
374.639
 30
0.000000
  70
    32
  0
VERTEX
  8
0
  5
8798
 10
512.637
 20
374.637
 30
0.000000
  70
    32
  0
VERTEX
  8
0
  5
8799
 10
512.728
 20
374.636
 30
0.000000
  70
    32
  0
VERTEX
  8
0
  5
879A
 10
512.818
 20
374.635
 30
0.000000
  70
    32
  0
VERTEX
  8
0
  5
879B
 10
512.909
 20
374.634
 30
0.000000
  70
    32
  0
VERTEX
  8
0
  5
879C
 10
513.000
 20
374.634
 30
0.000000
  70
    32
  0
VERTEX
  8
0
  5
879D
 10
513.091
 20
374.634
 30
0.000000
  70
    32
  0
VERTEX
  8
0
  5
879E
 10
513.182
 20
374.635
 30
0.000000
  70
    32
  0
VERTEX
  8
0
  5
879F
 10
513.272
 20
374.636
 30
0.000000
  70
    32
  0
VERTEX
  8
0
  5
87A0
 10
513.363
 20
374.637
 30
0.000000
  70
    32
  0
VERTEX
  8
0
  5
87A1
 10
513.454
 20
374.639
 30
0.000000
  70
    32
  0
VERTEX
  8
0
  5
87A2
 10
513.545
 20
374.642
 30
0.000000
  70
    32
  0
VERTEX
  8
0
  5
87A3
 10
513.635
 20
374.645
 30
0.000000
  70
    32
  0
VERTEX
  8
0
  5
87A4
 10
513.726
 20
374.648
 30
0.000000
  70
    32
  0
VERTEX
  8
0
  5
87A5
 10
513.817
 20
374.651
 30
0.000000
  70
    32
  0
VERTEX
  8
0
  5
87A6
 10
513.907
 20
374.656
 30
0.000000
  70
    32
  0
VERTEX
  8
0
  5
87A7
 10
513.998
 20
374.660
 30
0.000000
  70
    32
  0
VERTEX
  8
0
  5
87A8
 10
514.088
 20
374.665
 30
0.000000
  70
    32
  0
VERTEX
  8
0
  5
87A9
 10
514.178
 20
374.671
 30
0.000000
  70
    32
  0
VERTEX
  8
0
  5
87AA
 10
514.269
 20
374.676
 30
0.000000
  70
    32
  0
VERTEX
  8
0
  5
87AB
 10
514.359
 20
374.683
 30
0.000000
  70
    32
  0
VERTEX
  8
0
  5
87AC
 10
514.449
 20
374.689
 30
0.000000
  70
    32
  0
VERTEX
  8
0
  5
87AD
 10
514.539
 20
374.696
 30
0.000000
  70
    32
  0
VERTEX
  8
0
  5
87AE
 10
514.629
 20
374.704
 30
0.000000
  70
    32
  0
VERTEX
  8
0
  5
87AF
 10
514.718
 20
374.712
 30
0.000000
  70
    32
  0
VERTEX
  8
0
  5
87B0
 10
514.808
 20
374.720
 30
0.000000
  70
    32
  0
VERTEX
  8
0
  5
87B1
 10
514.898
 20
374.729
 30
0.000000
  70
    32
  0
VERTEX
  8
0
  5
87B2
 10
514.987
 20
374.738
 30
0.000000
  70
    32
  0
VERTEX
  8
0
  5
87B3
 10
515.076
 20
374.748
 30
0.000000
  70
    32
  0
VERTEX
  8
0
  5
87B4
 10
515.165
 20
374.758
 30
0.000000
  70
    32
  0
VERTEX
  8
0
  5
87B5
 10
515.254
 20
374.769
 30
0.000000
  70
    32
  0
VERTEX
  8
0
  5
87B6
 10
515.343
 20
374.780
 30
0.000000
  70
    32
  0
VERTEX
  8
0
  5
87B7
 10
515.432
 20
374.791
 30
0.000000
  70
    32
  0
VERTEX
  8
0
  5
87B8
 10
515.520
 20
374.803
 30
0.000000
  70
    32
  0
VERTEX
  8
0
  5
87B9
 10
515.608
 20
374.815
 30
0.000000
  70
    32
  0
VERTEX
  8
0
  5
87BA
 10
515.697
 20
374.828
 30
0.000000
  70
    32
  0
VERTEX
  8
0
  5
87BB
 10
515.785
 20
374.841
 30
0.000000
  70
    32
  0
VERTEX
  8
0
  5
87BC
 10
515.872
 20
374.854
 30
0.000000
  70
    32
  0
VERTEX
  8
0
  5
87BD
 10
515.960
 20
374.868
 30
0.000000
  70
    32
  0
VERTEX
  8
0
  5
87BE
 10
516.047
 20
374.883
 30
0.000000
  70
    32
  0
VERTEX
  8
0
  5
87BF
 10
516.134
 20
374.897
 30
0.000000
  70
    32
  0
VERTEX
  8
0
  5
87C0
 10
516.221
 20
374.912
 30
0.000000
  70
    32
  0
VERTEX
  8
0
  5
87C1
 10
516.308
 20
374.928
 30
0.000000
  70
    32
  0
VERTEX
  8
0
  5
87C2
 10
516.395
 20
374.944
 30
0.000000
  70
    32
  0
VERTEX
  8
0
  5
87C3
 10
516.481
 20
374.960
 30
0.000000
  70
    32
  0
VERTEX
  8
0
  5
87C4
 10
516.567
 20
374.977
 30
0.000000
  70
    32
  0
VERTEX
  8
0
  5
87C5
 10
516.653
 20
374.994
 30
0.000000
  70
    32
  0
VERTEX
  8
0
  5
87C6
 10
516.738
 20
375.012
 30
0.000000
  70
    32
  0
VERTEX
  8
0
  5
87C7
 10
516.823
 20
375.030
 30
0.000000
  70
    32
  0
VERTEX
  8
0
  5
87C8
 10
516.908
 20
375.048
 30
0.000000
  70
    32
  0
VERTEX
  8
0
  5
87C9
 10
516.993
 20
375.067
 30
0.000000
  70
    32
  0
VERTEX
  8
0
  5
87CA
 10
517.078
 20
375.086
 30
0.000000
  70
    32
  0
VERTEX
  8
0
  5
87CB
 10
517.162
 20
375.106
 30
0.000000
  70
    32
  0
VERTEX
  8
0
  5
87CC
 10
517.246
 20
375.126
 30
0.000000
  70
    32
  0
VERTEX
  8
0
  5
87CD
 10
517.329
 20
375.147
 30
0.000000
  70
    32
  0
VERTEX
  8
0
  5
87CE
 10
517.413
 20
375.167
 30
0.000000
  70
    32
  0
VERTEX
  8
0
  5
87CF
 10
517.496
 20
375.189
 30
0.000000
  70
    32
  0
VERTEX
  8
0
  5
87D0
 10
517.578
 20
375.210
 30
0.000000
  70
    32
  0
VERTEX
  8
0
  5
87D1
 10
517.661
 20
375.232
 30
0.000000
  70
    32
  0
VERTEX
  8
0
  5
87D2
 10
517.743
 20
375.255
 30
0.000000
  70
    32
  0
VERTEX
  8
0
  5
87D3
 10
517.825
 20
375.277
 30
0.000000
  70
    32
  0
VERTEX
  8
0
  5
87D4
 10
517.906
 20
375.301
 30
0.000000
  70
    32
  0
VERTEX
  8
0
  5
87D5
 10
517.987
 20
375.324
 30
0.000000
  70
    32
  0
VERTEX
  8
0
  5
87D6
 10
518.068
 20
375.348
 30
0.000000
  70
    32
  0
VERTEX
  8
0
  5
87D7
 10
518.149
 20
375.373
 30
0.000000
  70
    32
  0
VERTEX
  8
0
  5
87D8
 10
518.229
 20
375.397
 30
0.000000
  70
    32
  0
VERTEX
  8
0
  5
87D9
 10
518.308
 20
375.422
 30
0.000000
  70
    32
  0
VERTEX
  8
0
  5
87DA
 10
518.388
 20
375.448
 30
0.000000
  70
    32
  0
VERTEX
  8
0
  5
87DB
 10
518.467
 20
375.474
 30
0.000000
  70
    32
  0
VERTEX
  8
0
  5
87DC
 10
518.545
 20
375.500
 30
0.000000
  70
    32
  0
SEQEND
  8
0
  5
87DD
  0
LINE
  5
7184
  8
0
 10
518.54526830092072
 20
385.00000214576721
 30
0.0
 11
518.54526830092072
 21
375.49999779462809
 31
0.0
  0
LINE
  5
7185
  8
0
 10
507.45473169907922
 20
385.00000214576721
 30
0.0
 11
502.00000005960459
 21
385.00000214576721
 31
0.0
  0
LINE
  5
7186
  8
0
 10
523.99999994039536
 20
385.00000214576721
 30
0.0
 11
518.54526830092072
 21
385.00000214576721
 31
0.0
  0
LINE
  5
7187
  8
0
 10
518.54526830092072
 20
375.49999779462809
 30
0.0
 11
507.45473169907922
 21
375.49999779462809
 31
0.0
  0
ARC
  5
7188
  8
0
 10
512.66059309741206
 20
374.24523104224892
 30
0.0
 40
12.259465883139519
 50
61.313897001127039
 51
88.413546860863036
  0
LINE
  5
718A
  8
0
 10
503.50000030547369
 20
386.4999977350235
 30
0.0
 11
522.49999969452608
 21
386.4999977350235
 31
0.0
  0
ARC
  5
718B
  8
0
 10
513.32836824255082
 20
374.28603938330491
 30
0.0
 40
12.218371590364731
 50
91.540007177936118
 51
118.73254896007531
  0
CIRCLE
  5
718C
  8
0
 10
513.0
 20
381.49999898672098
 30
0.0
 40
2.6500000000000901
  0
CIRCLE
  5
718D
  8
0
 10
513.0
 20
381.49999898672098
 30
0.0
 40
2.1000000000000218
  0
LINE
  5
7192
  8
0
 10
117.9999998882414
 20
329.00000041723251
 30
0.0
 11
117.9999998882414
 21
339.49999934434891
 31
0.0
  0
LINE
  5
7193
  8
0
 10
108.00000011175879
 20
339.49999934434891
 30
0.0
 11
108.00000011175879
 21
329.00000041723251
 31
0.0
  0
LINE
  5
7194
  8
0
 10
117.9999998882414
 20
373.5000011920929
 30
0.0
 11
116.5000001080335
 21
374.36602687835688
 31
0.0
  0
LINE
  5
7195
  8
0
 10
109.4999998919667
 20
374.36602687835688
 30
0.0
 11
108.00000011175879
 21
373.5000011920929
 31
0.0
  0
ARC
  5
7196
  8
0
 10
112.9999999999999
 20
373.9999989867211
 30
0.0
 40
4.9999999999999751
 50
45.57299599919812
 51
134.42700400080179
  0
LINE
  5
7197
  8
0
 10
116.5000001080335
 20
374.36602687835688
 30
0.0
 11
116.5000001080335
 21
377.57071530818928
 31
0.0
  0
LINE
  5
7198
  8
0
 10
109.4999998919667
 20
377.57071530818928
 30
0.0
 11
109.4999998919667
 21
374.36602687835688
 31
0.0
  0
LINE
  5
7199
  8
0
 10
132.99999955296511
 20
373.00000017881388
 30
0.0
 11
131.50000023841861
 21
374.49999576807022
 31
0.0
  0
LINE
  5
719A
  8
0
 10
94.499999761581421
 20
374.49999576807022
 30
0.0
 11
93.000000447034836
 21
373.00000017881388
 31
0.0
  0
LINE
  5
719B
  8
0
 10
132.99999955296511
 20
348.7499994636612
 30
0.0
 11
132.99999955296511
 21
373.00000017881388
 31
0.0
  0
LINE
  5
719C
  8
0
 10
132.99999955296511
 20
301.49999870359892
 30
0.0
 11
132.99999955296511
 21
341.04999898665483
 31
0.0
  0
LINE
  5
719D
  8
0
 10
93.000000447034836
 20
341.04999898714232
 30
0.0
 11
93.000000447034836
 21
301.49999870359892
 31
0.0
  0
LINE
  5
719E
  8
0
 10
93.000000447034836
 20
373.00000017881388
 30
0.0
 11
93.000000447034836
 21
348.74999946317331
 31
0.0
  0
ARC
  5
719F
  8
0
 10
131.99999999999989
 20
301.49999898672098
 30
0.0
 40
1.0
 50
270.0
 51
0.0
  0
ARC
  5
71A0
  8
0
 10
93.999999999999886
 20
301.49999898672098
 30
0.0
 40
1.0
 50
180.0
 51
270.0
  0
LINE
  5
71A1
  8
0
 10
70.499999552965164
 20
280.99999901046971
 30
0.0
 11
71.000000566244125
 21
280.49999898672098
 31
0.0
  0
LINE
  5
71A2
  8
0
 10
70.499999552965164
 20
294.49999941885471
 30
0.0
 11
70.499999552965164
 21
280.99999901046971
 31
0.0
  0
ARC
  5
71A3
  8
0
 10
71.499999999999886
 20
294.4999989867211
 30
0.0
 40
1.0
 50
90.0
 51
180.0
  0
ARC
  5
71A4
  8
0
 10
154.5
 20
294.4999989867211
 30
0.0
 40
1.0
 50
0.0
 51
90.0
  0
LINE
  5
71A5
  8
0
 10
155.50000044703481
 20
280.99999901046971
 30
0.0
 11
155.50000044703481
 21
294.49999941885471
 31
0.0
  0
LINE
  5
71A6
  8
0
 10
154.9999994337559
 20
280.49999898672098
 30
0.0
 11
155.50000044703481
 21
280.99999901046971
 31
0.0
  0
LINE
  5
71A7
  8
0
 10
132.9950002133846
 20
295.49999865144491
 30
0.0
 11
132.9950002133846
 21
296.29999822378147
 31
0.0
  0
LINE
  5
71A8
  8
0
 10
93.004999786615372
 20
296.29999822378147
 30
0.0
 11
93.004999786615372
 21
295.49999865144491
 31
0.0
  0
LINE
  5
71A9
  8
0
 10
132.9950002133846
 20
296.29999822378147
 30
0.0
 11
132.7950005531311
 21
296.4999997466802
 31
0.0
  0
LINE
  5
71AA
  8
0
 10
93.204999446868896
 20
296.4999997466802
 30
0.0
 11
93.004999786615372
 21
296.29999822378147
 31
0.0
  0
LINE
  5
71AB
  8
0
 10
95.499999925494194
 20
271.49999937415117
 30
0.0
 11
96.654700219631195
 21
269.49999904632568
 31
0.0
  0
LINE
  5
71AC
  8
0
 10
129.3452997803688
 20
269.49999904632568
 30
0.0
 11
130.50000007450581
 21
271.49999937415117
 31
0.0
  0
LINE
  5
71AD
  8
0
 10
130.50000007450581
 20
271.49999937415117
 30
0.0
 11
130.50000007450581
 21
280.49999898672098
 31
0.0
  0
LINE
  5
71AE
  8
0
 10
95.499999925494194
 20
280.49999898672098
 30
0.0
 11
95.499999925494194
 21
271.49999937415117
 31
0.0
  0
ARC
  5
71AF
  8
0
 10
96.999999999999886
 20
298.4999989867211
 30
0.0
 40
2.0
 50
270.0
 51
0.0
  0
ARC
  5
71B0
  8
0
 10
128.99999999999989
 20
298.4999989867211
 30
0.0
 40
2.0
 50
180.0
 51
270.0
  0
LINE
  5
71B1
  8
0
 10
127.0000004321337
 20
298.4999982118606
 30
0.0
 11
127.0000004321337
 21
300.4999985396862
 31
0.0
  0
LINE
  5
71B2
  8
0
 10
98.999999567866325
 20
300.4999985396862
 30
0.0
 11
98.999999567866325
 21
298.4999982118606
 31
0.0
  0
LINE
  5
71B3
  8
0
 10
123.9999999403953
 20
385.00000214576721
 30
0.0
 11
122.4999996945262
 21
386.4999977350235
 31
0.0
  0
LINE
  5
71B4
  8
0
 10
103.5000003054738
 20
386.4999977350235
 30
0.0
 11
102.0000000596046
 21
385.00000214576721
 31
0.0
  0
LINE
  5
71B5
  8
0
 10
123.9999999403953
 20
374.49999576807022
 30
0.0
 11
123.9999999403953
 21
385.00000214576721
 31
0.0
  0
LINE
  5
71B6
  8
0
 10
102.0000000596046
 20
385.00000214576721
 30
0.0
 11
102.0000000596046
 21
374.49999576807022
 31
0.0
  0
LINE
  5
720E
  8
0
 10
121.5000004619361
 20
321.9999974071979
 30
0.0
 11
121.5000004619361
 21
329.00000041723251
 31
0.0
  0
LINE
  5
720F
  8
0
 10
121.5000004619361
 20
321.9999974071979
 30
0.0
 11
104.4999995380641
 21
321.9999974071979
 31
0.0
  0
LINE
  5
7210
  8
0
 10
112.9999999999999
 20
321.9999974071979
 30
0.0
 11
112.9999999999999
 21
329.00000041723251
 31
0.0
  0
LINE
  5
7211
  8
0
 10
121.5000004619361
 20
329.00000041723251
 30
0.0
 11
104.4999995380641
 21
329.00000041723251
 31
0.0
  0
LINE
  5
7212
  8
0
 10
104.4999995380641
 20
321.9999974071979
 30
0.0
 11
104.4999995380641
 21
329.00000041723251
 31
0.0
  0
LINE
  5
7215
  8
0
 10
116.5000001080334
 20
374.36602687835688
 30
0.0
 11
109.4999998919667
 21
374.36602687835688
 31
0.0
  0
LINE
  5
7217
  8
0
 10
116.4999978502277
 20
377.57071530818928
 30
0.0
 11
109.4999998919667
 21
377.57071530818928
 31
0.0
  0
LINE
  5
7219
  8
0
 10
112.9999999999999
 20
345.49999660253519
 30
0.0
 11
112.9999999999999
 21
339.49999934434891
 31
0.0
  0
LINE
  5
721A
  8
0
 10
121.5000004619361
 20
345.49999660253519
 30
0.0
 11
121.5000004619361
 21
339.49999934434891
 31
0.0
  0
LINE
  5
721E
  8
0
 10
104.4999995380641
 20
345.49999660253519
 30
0.0
 11
104.4999995380641
 21
339.49999934434891
 31
0.0
  0
LINE
  5
721F
  8
0
 10
104.4999995380641
 20
339.49999934434891
 30
0.0
 11
121.500000461936
 21
339.49999934434891
 31
0.0
  0
LINE
  5
7222
  8
0
 10
112.9999999999999
 20
373.5000011920929
 30
0.0
 11
112.9999999999999
 21
367.4999964833259
 31
0.0
  0
LINE
  5
7223
  8
0
 10
121.5000004619361
 20
373.5000011920929
 30
0.0
 11
121.5000004619361
 21
367.4999964833259
 31
0.0
  0
LINE
  5
7227
  8
0
 10
104.4999995380641
 20
373.5000011920929
 30
0.0
 11
104.4999995380641
 21
367.4999964833259
 31
0.0
  0
LINE
  5
7228
  8
0
 10
104.4999995380641
 20
373.5000011920929
 30
0.0
 11
121.5000004619361
 21
373.5000011920929
 31
0.0
  0
LINE
  5
7238
  8
0
 10
121.99999961256989
 20
345.49999660253519
 30
0.0
 11
104.0000000000001
 21
345.49999898672098
 31
0.0
  0
ARC
  5
723C
  8
0
 10
104.0000000000001
 20
346.49999898672098
 30
0.0
 40
1.0
 50
180.0
 51
270.0
  0
ARC
  5
723E
  8
0
 10
122.0000000000001
 20
346.49999898672098
 30
0.0
 40
1.0
 50
270.0
 51
0.0
  0
LINE
  5
723F
  8
0
 10
103.0000002235175
 20
345.95740264654199
 30
0.0
 11
103.0000002235175
 21
366.50000190734858
 31
0.0
  0
LINE
  5
7241
  8
0
 10
122.9999997764827
 20
345.95740264654131
 30
0.0
 11
122.9999997764827
 21
366.50000190734858
 31
0.0
  0
ARC
  5
7242
  8
0
 10
104.0000000000001
 20
366.49999898672098
 30
0.0
 40
1.0
 50
90.0
 51
180.0
  0
ARC
  5
7247
  8
0
 10
122.0000000000001
 20
366.49999898672098
 30
0.0
 40
1.0
 50
0.0
 51
90.0
  0
ARC
  5
7250
  8
0
 10
82.310480882000306
 20
350.73159282543259
 30
0.0
 40
21.233207540247712
 50
324.82612141321499
 51
347.00620955686782
  0
ARC
  5
7251
  8
0
 10
143.68951911799959
 20
350.73159282543259
 30
0.0
 40
21.23320754024758
 50
192.99379044313551
 51
215.1738785867868
  0
LINE
  5
7252
  8
0
 10
99.666666343808174
 20
338.49999731779093
 30
0.0
 11
99.666666343808174
 21
366.50000190734858
 31
0.0
  0
LINE
  5
7254
  8
0
 10
103.3570702299476
 20
367.4999964833259
 30
0.0
 11
103.2169704437256
 21
367.48104965686792
 31
0.0
  0
LINE
  5
7255
  8
0
 10
103.3570702299476
 20
367.4999964833259
 30
0.0
 11
122.6429297700525
 21
367.4999964833259
 31
0.0
  0
ARC
  5
7256
  8
0
 10
119.3482126159812
 20
348.03151889933901
 30
0.0
 40
19.745297682322601
 50
69.282457118909321
 51
80.394647880010993
  0
LINE
  5
7259
  8
0
 10
126.3333336561918
 20
366.50000190734858
 30
0.0
 11
126.3333336561918
 21
338.49999731779093
 31
0.0
  0
LINE
  5
725C
  8
0
 10
132.99999955296511
 20
373.00000017881388
 30
0.0
 11
121.500000461936
 21
373.00000017881388
 31
0.0
  0
LINE
  5
725D
  8
0
 10
104.499999538064
 20
373.00000017881388
 30
0.0
 11
93.000000447034836
 21
373.00000017881388
 31
0.0
  0
LINE
  5
725E
  8
0
 10
94.499999761581421
 20
374.49999576807022
 30
0.0
 11
109.4999998919666
 21
374.49999576807022
 31
0.0
  0
LINE
  5
725F
  8
0
 10
116.5000001080334
 20
374.49999576807022
 30
0.0
 11
131.50000023841861
 21
374.49999576807022
 31
0.0
  0
LINE
  5
7264
  8
0
 10
131.99999938905239
 20
300.4999985396862
 30
0.0
 11
94.000000610947609
 21
300.4999985396862
 31
0.0
  0
LINE
  5
7265
  8
0
 10
154.99999943375599
 20
280.49999898672098
 30
0.0
 11
71.000000566244125
 21
280.49999898672098
 31
0.0
  0
LINE
  5
7280
  8
0
 10
93.204999446868896
 20
296.4999997466802
 30
0.0
 11
132.7950005531311
 21
296.4999997466802
 31
0.0
  0
LINE
  5
7281
  8
0
 10
129.3452997803688
 20
269.49999904632568
 30
0.0
 11
96.654700219631195
 21
269.49999904632568
 31
0.0
  0
LINE
  5
7282
  8
0
 10
95.499999925494194
 20
271.49999937415117
 30
0.0
 11
130.50000007450581
 21
271.49999937415117
 31
0.0
  0
LINE
  5
7283
  8
0
 10
123.9999999403953
 20
385.00000214576721
 30
0.0
 11
102.0000000596046
 21
385.00000214576721
 31
0.0
  0
LINE
  5
7284
  8
0
 10
103.5000003054738
 20
386.4999977350235
 30
0.0
 11
122.4999996945262
 21
386.4999977350235
 31
0.0
  0
LINE
  5
7285
  8
0
 10
126.3333336561918
 20
338.49999731779093
 30
0.0
 11
117.99999988824131
 21
338.49999731779093
 31
0.0
  0
LINE
  5
7286
  8
0
 10
108.00000011175869
 20
338.49999731779093
 30
0.0
 11
99.666666343808174
 21
338.49999731779093
 31
0.0
  0
ARC
  5
7287
  8
0
 10
106.79153677418201
 20
347.63048228912152
 30
0.0
 40
20.169842569347772
 50
100.2080672499893
 51
110.6858450062071
  0
CIRCLE
  5
7292
  8
0
 10
268.0
 20
504.99999773502338
 30
0.0
 40
3.499999999999992
  0
CIRCLE
  5
7293
  8
0
 10
268.0
 20
504.99999773502338
 30
0.0
 40
4.9999999999999671
  0
LINE
  5
7294
  8
0
 10
277.81495350599289
 20
504.99999773502338
 30
0.0
 11
272.90747585892677
 21
513.49999819695915
 31
0.0
  0
LINE
  5
7295
  8
0
 10
272.90747585892677
 20
496.49999727308722
 30
0.0
 11
277.81495350599289
 21
504.99999773502338
 31
0.0
  0
LINE
  5
7296
  8
0
 10
263.09252429008478
 20
496.49999727308722
 30
0.0
 11
272.90747585892677
 21
496.49999727308722
 31
0.0
  0
LINE
  5
7297
  8
0
 10
258.18504664301872
 20
504.9999977350235
 30
0.0
 11
263.09252429008478
 21
496.49999727308722
 31
0.0
  0
LINE
  5
7298
  8
0
 10
263.09252429008478
 20
513.49999819695915
 30
0.0
 11
258.18504664301872
 21
504.9999977350235
 31
0.0
  0
CIRCLE
  5
7299
  8
0
 10
268.0
 20
504.99999773502338
 30
0.0
 40
5.0
  0
LINE
  5
729A
  8
0
 10
272.90747585892677
 20
513.49999819695915
 30
0.0
 11
263.09252429008478
 21
513.49999819695915
 31
0.0
  0
CIRCLE
  5
72A6
  8
0
 10
313.0
 20
504.99999773502321
 30
0.0
 40
19.99999999999994
  0
CIRCLE
  5
72A7
  8
0
 10
313.0
 20
504.99999773502321
 30
0.0
 40
18.49999999999994
  0
CIRCLE
  5
72A8
  8
0
 10
313.0
 20
504.99999773502321
 30
0.0
 40
12.0
  0
ARC
  5
72B0
  8
0
 10
290.63932022500222
 20
484.99999773502333
 30
0.0
 40
10.0
 50
41.810314895782327
 51
90.0
  0
ARC
  5
72B2
  8
0
 10
290.63932022500222
 20
524.99999773502316
 30
0.0
 40
9.9999999999999734
 50
270.0
 51
318.18968510422542
  0
ARC
  5
72B4
  8
0
 10
268.0
 20
504.99999773502333
 30
0.0
 40
10.0
 50
90.0
 51
270.0
  0
LINE
  5
72B8
  8
0
 10
267.9999982118606
 20
514.99999751150585
 30
0.0
 11
290.6393193751573
 21
514.99999751150585
 31
0.0
  0
ARC
  5
72BB
  8
0
 10
276.0
 20
504.99999773502333
 30
0.0
 40
5.2000000000000446
 50
270.0
 51
90.0
  0
LINE
  5
72BE
  8
0
 10
275.99999952316278
 20
510.19999774917932
 30
0.0
 11
274.81273460388178
 21
510.19999774917932
 31
0.0
  0
LINE
  5
72BF
  8
0
 10
274.81273460388178
 20
499.79999772086711
 30
0.0
 11
275.99999952316278
 21
499.79999772086711
 31
0.0
  0
LINE
  5
72C0
  8
0
 10
290.6393193751573
 20
494.99999795854058
 30
0.0
 11
267.9999982118606
 21
494.99999795854058
 31
0.0
  0
CIRCLE
  5
72C3
  8
0
 10
313.0
 20
504.99999773502321
 30
0.0
 40
9.5
  0
LINE
  5
72C4
  8
0
 10
322.4999996945262
 20
499.45472943410249
 30
0.0
 11
322.49999969452631
 21
510.54526651155697
 31
0.0
  0
ARC
  5
72CA
  8
0
 10
313.0
 20
527.49999773502338
 30
0.0
 40
20.00000000000006
 50
0.0
 51
180.0
  0
ARC
  5
72D3
  8
0
 10
313.0
 20
504.9999977350235
 30
0.0
 40
37.249999999999943
 50
80.000000000001336
 51
99.999999999998664
  0
ARC
  5
72D5
  8
0
 10
318.55674168534188
 20
536.51384583141407
 30
0.0
 40
5.2500000000000151
 50
260.00000000000119
 51
80.000000000001336
  0
ARC
  5
72D7
  8
0
 10
307.44325831465818
 20
536.51384583141407
 30
0.0
 40
5.2500000000000151
 50
99.999999999998664
 51
279.99999999999869
  0
ARC
  5
72D9
  8
0
 10
313.0
 20
504.9999977350235
 30
0.0
 40
26.750000000000021
 50
80.000000000001336
 51
99.999999999998664
  0
LINE
  5
72DB
  8
0
 10
293.00000044703478
 20
515.28263249248255
 30
0.0
 11
293.00000044703478
 21
527.49999862909306
 31
0.0
  0
LINE
  5
72E2
  8
0
 10
332.99999955296511
 20
527.50422637473753
 30
0.0
 11
332.99999955296511
 21
482.49999684095388
 31
0.0
  0
LINE
  5
72E4
  8
0
 10
293.00000044703478
 20
482.49999684095388
 30
0.0
 11
293.00000044703478
 21
494.71736297756439
 31
0.0
  0
ARC
  5
72E5
  8
0
 10
313.0
 20
482.4999977350235
 30
0.0
 40
20.00000000000006
 50
180.0
 51
0.0
  0
ARC
  5
72E6
  8
0
 10
313.0
 20
504.9999977350235
 30
0.0
 40
26.750000000000021
 50
260.00000000000119
 51
279.99999999999869
  0
ARC
  5
72E9
  8
0
 10
307.44325831465818
 20
473.48614963863281
 30
0.0
 40
5.2500000000000151
 50
80.000000000001336
 51
260.00000000000119
  0
ARC
  5
72EB
  8
0
 10
318.55674168534188
 20
473.48614963863281
 30
0.0
 40
5.2500000000000151
 50
279.99999999999869
 51
99.999999999998664
  0
ARC
  5
72ED
  8
0
 10
313.0
 20
504.9999977350235
 30
0.0
 40
37.25
 50
260.00000000000119
 51
279.99999999999869
  0
CIRCLE
  5
734F
  8
0
 10
313.0
 20
504.99999773502321
 30
0.0
 40
11.0
  0
LINE
  5
7357
  8
0
 10
71.499999999999886
 20
295.4999989867211
 30
0.0
 11
154.5
 21
295.4999989867211
 31
0.0
  0
LINE
  5
73A7
  8
0
 10
471.49999999999989
 20
295.4999989867211
 30
0.0
 11
554.50000000000023
 21
295.4999989867211
 31
0.0
  0
LINE
  5
73AF
  8
1
 10
113.0
 20
210.5
 30
0.0
 11
113.0
 21
394.4999977350235
 31
0.0
  0
LINE
  5
73B4
  8
1
 10
313.0
 20
210.5
 30
0.0
 11
313.0
 21
394.4999977350235
 31
0.0
  0
LINE
  5
73B5
  8
1
 10
513.0
 20
210.5
 30
0.0
 11
513.0
 21
394.4999977350235
 31
0.0
  0
LINE
  5
73BE
  8
1
 10
250.0
 20
504.99999773502333
 30
0.0
 11
341.0
 21
504.99999773502333
 31
0.0
  0
LINE
  5
73BF
  8
1
 10
313.0
 20
555.49999773502338
 30
0.0
 11
313.0
 21
454.49999773502338
 31
0.0
  0
LINE
  5
73C0
  8
1
 10
341.0
 20
100.0
 30
0.0
 11
250.0
 21
100.0
 31
0.0
  0
LINE
  5
73C1
  8
1
 10
313.0
 20
150.5
 30
0.0
 11
313.0
 21
49.499999999999943
 31
0.0
  0
LINE
  5
73C6
  8
1
 10
268.00000007450581
 20
316.9999974071979
 30
0.0
 11
268.00000007450581
 21
383.9999989867211
 31
0.0
  0
LINE
  5
73CD
  8
1
 10
508.34999999999991
 20
381.49999898672098
 30
0.0
 11
517.64999999999998
 21
381.49999898672098
 31
0.0
  0
LINE
  5
73D2
  8
1
 10
521.3499999999998
 20
288.49999898672098
 30
0.0
 11
530.64999999999998
 21
288.49999898672098
 31
0.0
  0
LINE
  5
73D7
  8
1
 10
526.0
 20
293.14999898672102
 30
0.0
 11
526.0
 21
283.849998986721
 31
0.0
  0
LINE
  5
73DC
  8
1
 10
268.00000007450581
 20
113.5000004619358
 30
0.0
 11
268.00000007450581
 21
86.499999538063889
 31
0.0
  0
LINE
  5
73DD
  8
1
 10
275.99999952316278
 20
89.799999985843655
 30
0.0
 11
275.99999952316273
 21
110.2000000141558
 31
0.0
  0
LINE
  5
73DE
  8
1
 10
268.00000007450581
 20
518.49999819695938
 30
0.0
 11
268.00000007450581
 21
491.4999972730875
 31
0.0
  0
LINE
  5
73DF
  8
1
 10
275.99999952316278
 20
494.79999772086728
 30
0.0
 11
275.99999952316273
 21
515.19999774917949
 31
0.0
  0
ARC
  5
73E7
  8
1
 10
313.0
 20
100.0
 30
0.0
 40
32.0
 50
65.187213462915835
 51
114.81278653708409
  0
ARC
  5
73E8
  8
1
 10
313.0
 20
100.0
 30
0.0
 40
32.0
 50
245.18721346291591
 51
294.81278653708421
  0
ARC
  5
73EF
  8
1
 10
313.0
 20
504.9999977350235
 30
0.0
 40
32.0
 50
65.187213462916034
 51
114.81278653708389
  0
ARC
  5
73F0
  8
1
 10
313.0
 20
504.9999977350235
 30
0.0
 40
32.0
 50
245.18721346291599
 51
294.81278653708392
  0
LINE
  5
73F1
  8
1
 10
145.0
 20
275.49999898672098
 30
0.0
 11
145.0
 21
300.4999989867211
 31
0.0
  0
LINE
  5
73F2
  8
1
 10
81.0
 20
275.49999898672098
 30
0.0
 11
81.0
 21
300.4999989867211
 31
0.0
  0
LINE
  5
73F7
  8
1
 10
481.0
 20
275.49999898672098
 30
0.0
 11
481.0
 21
300.4999989867211
 31
0.0
  0
LINE
  5
73F8
  8
1
 10
545.0
 20
275.49999898672098
 30
0.0
 11
545.0
 21
300.4999989867211
 31
0.0
  0
LINE
  5
7405
  8
3
 10
272.18800089406977
 20
329.00000041723251
 30
0.0
 11
272.18800089406989
 21
339.49999934434891
 31
0.0
  0
LINE
  5
7406
  8
3
 10
263.81200089406951
 20
329.00000041723251
 30
0.0
 11
263.81200089406968
 21
339.49999934434891
 31
0.0
  0
LINE
  5
7407
  8
3
 10
117.1880008195638
 20
329.00000041723251
 30
0.0
 11
117.1880008195639
 21
339.49999934434891
 31
0.0
  0
LINE
  5
7408
  8
3
 10
108.81200081956359
 20
329.00000041723251
 30
0.0
 11
108.81200081956371
 21
339.49999934434891
 31
0.0
  0
LINE
  5
841F
  8
0
 10
263.09252429008478
 20
91.499999538063634
 30
0.0
 11
272.90747585892677
 21
91.499999538063634
 31
0.0
  0
LINE
  5
8420
  8
0
 10
258.18504664301872
 20
99.999999999999659
 30
0.0
 11
263.09252429008478
 21
91.499999538063634
 31
0.0
  0
LINE
  5
8421
  8
0
 10
263.09252429008478
 20
108.5000004619356
 30
0.0
 11
258.18504664301872
 21
99.999999999999659
 31
0.0
  0
LINE
  5
8422
  8
0
 10
272.90747585892677
 20
108.5000004619356
 30
0.0
 11
263.09252429008478
 21
108.5000004619356
 31
0.0
  0
LINE
  5
8423
  8
0
 10
277.81495350599289
 20
99.999999999999659
 30
0.0
 11
272.90747585892677
 21
108.5000004619356
 31
0.0
  0
LINE
  5
8424
  8
0
 10
272.90747585892677
 20
91.499999538063634
 30
0.0
 11
277.81495350599289
 21
99.999999999999659
 31
0.0
  0
POLYLINE
  5
842C
  8
0
 66
     1
 10
0.0
 20
0.0
 30
0.0
 70
   128
  0
VERTEX
  5
8754
  8
0
 10
293.00000044703478
 20
89.701418206095255
 30
0.0
  0
VERTEX
  5
8755
  8
0
 10
292.0362287312746
 20
89.901588298379934
 30
0.0
  0
VERTEX
  5
8756
  8
0
 10
290.6393193751573
 20
90.000000223516963
 30
0.0
  0
SEQEND
  5
8757
  8
0
  0
POLYLINE
  5
842D
  8
0
 66
     1
 10
0.0
 20
0.0
 30
0.0
 70
   128
  0
VERTEX
  5
8758
  8
0
 10
290.6393193751573
 20
109.9999997764821
 30
0.0
  0
VERTEX
  5
8759
  8
0
 10
292.0362287312746
 20
110.0984117016192
 30
0.0
  0
VERTEX
  5
875A
  8
0
 10
293.00000044703478
 20
110.29858179390391
 30
0.0
  0
SEQEND
  5
875B
  8
0
  0
LINE
  5
842E
  8
0
 10
290.6393193751573
 20
90.000000223516963
 30
0.0
 11
287.54415634274483
 21
90.000000223516963
 31
0.0
  0
LINE
  5
842F
  8
0
 10
287.54415634274483
 20
109.9999997764821
 30
0.0
 11
290.6393193751573
 21
109.9999997764821
 31
0.0
  0
ARC
  5
8430
  8
0
 10
268.00000000000011
 20
99.999999999999574
 30
0.0
 40
10.0
 50
90.0
 51
270.0
  0
LINE
  5
8431
  8
0
 10
287.54415634274483
 20
90.000000223516963
 30
0.0
 11
267.9999982118606
 21
90.000000223516963
 31
0.0
  0
LINE
  5
8432
  8
0
 10
274.81273460388178
 20
94.799999985843456
 30
0.0
 11
275.99999952316278
 21
94.799999985843456
 31
0.0
  0
ARC
  5
8433
  8
0
 10
276.00000000000011
 20
99.999999999999574
 30
0.0
 40
5.1999999999999877
 50
270.0
 51
90.0
  0
LINE
  5
8434
  8
0
 10
275.99999952316278
 20
105.20000001415571
 30
0.0
 11
274.81273460388178
 21
105.20000001415571
 31
0.0
  0
LINE
  5
8435
  8
0
 10
267.9999982118606
 20
109.9999997764821
 30
0.0
 11
287.54415634274483
 21
109.9999997764821
 31
0.0
  0
ARC
  5
8439
  8
0
 10
313.0
 20
77.499999999999801
 30
0.0
 40
20.00000000000006
 50
180.0
 51
0.0
  0
ARC
  5
843A
  8
0
 10
313.0
 20
99.999999999999801
 30
0.0
 40
37.250000000000021
 50
260.00000000000142
 51
279.99999999999858
  0
ARC
  5
843B
  8
0
 10
307.44325831465818
 20
68.486151903609141
 30
0.0
 40
5.2500000000000151
 50
80.000000000001464
 51
260.00000000000142
  0
ARC
  5
843C
  8
0
 10
318.55674168534182
 20
68.486151903609141
 30
0.0
 40
5.2500000000000151
 50
279.99999999999858
 51
99.999999999998565
  0
ARC
  5
843D
  8
0
 10
313.0
 20
99.999999999999801
 30
0.0
 40
26.750000000000021
 50
260.00000000000142
 51
279.99999999999858
  0
LINE
  5
843E
  8
0
 10
332.99999955296511
 20
122.5000008940694
 30
0.0
 11
332.99999955296511
 21
77.499999105930129
 31
0.0
  0
LINE
  5
843F
  8
0
 10
293.00000044703478
 20
77.499999105930129
 30
0.0
 11
293.00000044703478
 21
122.5000008940694
 31
0.0
  0
ARC
  5
8440
  8
0
 10
313.0
 20
122.4999999999998
 30
0.0
 40
20.00000000000006
 50
0.0
 51
180.0
  0
ARC
  5
8441
  8
0
 10
307.44325831465818
 20
131.5138480963904
 30
0.0
 40
5.2500000000000151
 50
99.999999999998565
 51
279.99999999999858
  0
ARC
  5
8442
  8
0
 10
318.55674168534182
 20
131.5138480963904
 30
0.0
 40
5.2500000000000151
 50
260.00000000000142
 51
80.000000000001464
  0
ARC
  5
8443
  8
0
 10
313.0
 20
99.999999999999801
 30
0.0
 40
26.749999999999989
 50
80.000000000001464
 51
99.999999999998565
  0
ARC
  5
8444
  8
0
 10
313.0
 20
99.999999999999801
 30
0.0
 40
37.250000000000021
 50
80.000000000001464
 51
99.999999999998565
  0
POLYLINE
  5
8445
  8
0
 10
124.5000000000001
 20
224.79999898672108
 30
0.0
 66
     1
 70
     8
  0
VERTEX
  8
0
  5
87DE
 10
124.500
 20
224.800
 30
0.000000
  70
    32
  0
VERTEX
  8
0
  5
87DF
 10
124.525
 20
224.800
 30
0.000000
  70
    32
  0
VERTEX
  8
0
  5
87E0
 10
124.549
 20
224.802
 30
0.000000
  70
    32
  0
VERTEX
  8
0
  5
87E1
 10
124.574
 20
224.804
 30
0.000000
  70
    32
  0
VERTEX
  8
0
  5
87E2
 10
124.598
 20
224.808
 30
0.000000
  70
    32
  0
VERTEX
  8
0
  5
87E3
 10
124.622
 20
224.812
 30
0.000000
  70
    32
  0
VERTEX
  8
0
  5
87E4
 10
124.647
 20
224.817
 30
0.000000
  70
    32
  0
VERTEX
  8
0
  5
87E5
 10
124.671
 20
224.824
 30
0.000000
  70
    32
  0
VERTEX
  8
0
  5
87E6
 10
124.695
 20
224.831
 30
0.000000
  70
    32
  0
VERTEX
  8
0
  5
87E7
 10
124.719
 20
224.839
 30
0.000000
  70
    32
  0
VERTEX
  8
0
  5
87E8
 10
124.743
 20
224.848
 30
0.000000
  70
    32
  0
VERTEX
  8
0
  5
87E9
 10
124.767
 20
224.858
 30
0.000000
  70
    32
  0
VERTEX
  8
0
  5
87EA
 10
124.790
 20
224.869
 30
0.000000
  70
    32
  0
VERTEX
  8
0
  5
87EB
 10
124.814
 20
224.881
 30
0.000000
  70
    32
  0
VERTEX
  8
0
  5
87EC
 10
124.837
 20
224.894
 30
0.000000
  70
    32
  0
VERTEX
  8
0
  5
87ED
 10
124.860
 20
224.907
 30
0.000000
  70
    32
  0
VERTEX
  8
0
  5
87EE
 10
124.883
 20
224.922
 30
0.000000
  70
    32
  0
VERTEX
  8
0
  5
87EF
 10
124.905
 20
224.937
 30
0.000000
  70
    32
  0
VERTEX
  8
0
  5
87F0
 10
124.928
 20
224.954
 30
0.000000
  70
    32
  0
VERTEX
  8
0
  5
87F1
 10
124.950
 20
224.971
 30
0.000000
  70
    32
  0
VERTEX
  8
0
  5
87F2
 10
124.971
 20
224.989
 30
0.000000
  70
    32
  0
VERTEX
  8
0
  5
87F3
 10
124.993
 20
225.008
 30
0.000000
  70
    32
  0
VERTEX
  8
0
  5
87F4
 10
125.014
 20
225.028
 30
0.000000
  70
    32
  0
VERTEX
  8
0
  5
87F5
 10
125.035
 20
225.048
 30
0.000000
  70
    32
  0
VERTEX
  8
0
  5
87F6
 10
125.056
 20
225.070
 30
0.000000
  70
    32
  0
VERTEX
  8
0
  5
87F7
 10
125.076
 20
225.092
 30
0.000000
  70
    32
  0
VERTEX
  8
0
  5
87F8
 10
125.096
 20
225.115
 30
0.000000
  70
    32
  0
VERTEX
  8
0
  5
87F9
 10
125.115
 20
225.139
 30
0.000000
  70
    32
  0
VERTEX
  8
0
  5
87FA
 10
125.134
 20
225.163
 30
0.000000
  70
    32
  0
VERTEX
  8
0
  5
87FB
 10
125.153
 20
225.188
 30
0.000000
  70
    32
  0
VERTEX
  8
0
  5
87FC
 10
125.172
 20
225.214
 30
0.000000
  70
    32
  0
VERTEX
  8
0
  5
87FD
 10
125.190
 20
225.241
 30
0.000000
  70
    32
  0
VERTEX
  8
0
  5
87FE
 10
125.207
 20
225.269
 30
0.000000
  70
    32
  0
VERTEX
  8
0
  5
87FF
 10
125.224
 20
225.297
 30
0.000000
  70
    32
  0
VERTEX
  8
0
  5
8800
 10
125.241
 20
225.326
 30
0.000000
  70
    32
  0
VERTEX
  8
0
  5
8801
 10
125.257
 20
225.355
 30
0.000000
  70
    32
  0
VERTEX
  8
0
  5
8802
 10
125.273
 20
225.385
 30
0.000000
  70
    32
  0
VERTEX
  8
0
  5
8803
 10
125.288
 20
225.416
 30
0.000000
  70
    32
  0
VERTEX
  8
0
  5
8804
 10
125.303
 20
225.447
 30
0.000000
  70
    32
  0
VERTEX
  8
0
  5
8805
 10
125.318
 20
225.479
 30
0.000000
  70
    32
  0
VERTEX
  8
0
  5
8806
 10
125.331
 20
225.511
 30
0.000000
  70
    32
  0
VERTEX
  8
0
  5
8807
 10
125.345
 20
225.544
 30
0.000000
  70
    32
  0
VERTEX
  8
0
  5
8808
 10
125.358
 20
225.577
 30
0.000000
  70
    32
  0
VERTEX
  8
0
  5
8809
 10
125.370
 20
225.611
 30
0.000000
  70
    32
  0
VERTEX
  8
0
  5
880A
 10
125.382
 20
225.646
 30
0.000000
  70
    32
  0
VERTEX
  8
0
  5
880B
 10
125.393
 20
225.681
 30
0.000000
  70
    32
  0
VERTEX
  8
0
  5
880C
 10
125.404
 20
225.716
 30
0.000000
  70
    32
  0
VERTEX
  8
0
  5
880D
 10
125.414
 20
225.752
 30
0.000000
  70
    32
  0
VERTEX
  8
0
  5
880E
 10
125.424
 20
225.788
 30
0.000000
  70
    32
  0
VERTEX
  8
0
  5
880F
 10
125.433
 20
225.824
 30
0.000000
  70
    32
  0
VERTEX
  8
0
  5
8810
 10
125.442
 20
225.861
 30
0.000000
  70
    32
  0
VERTEX
  8
0
  5
8811
 10
125.450
 20
225.898
 30
0.000000
  70
    32
  0
VERTEX
  8
0
  5
8812
 10
125.457
 20
225.936
 30
0.000000
  70
    32
  0
VERTEX
  8
0
  5
8813
 10
125.464
 20
225.973
 30
0.000000
  70
    32
  0
VERTEX
  8
0
  5
8814
 10
125.470
 20
226.011
 30
0.000000
  70
    32
  0
VERTEX
  8
0
  5
8815
 10
125.476
 20
226.049
 30
0.000000
  70
    32
  0
VERTEX
  8
0
  5
8816
 10
125.481
 20
226.088
 30
0.000000
  70
    32
  0
VERTEX
  8
0
  5
8817
 10
125.485
 20
226.126
 30
0.000000
  70
    32
  0
VERTEX
  8
0
  5
8818
 10
125.489
 20
226.165
 30
0.000000
  70
    32
  0
VERTEX
  8
0
  5
8819
 10
125.492
 20
226.204
 30
0.000000
  70
    32
  0
VERTEX
  8
0
  5
881A
 10
125.495
 20
226.243
 30
0.000000
  70
    32
  0
VERTEX
  8
0
  5
881B
 10
125.497
 20
226.282
 30
0.000000
  70
    32
  0
VERTEX
  8
0
  5
881C
 10
125.499
 20
226.321
 30
0.000000
  70
    32
  0
VERTEX
  8
0
  5
881D
 10
125.500
 20
226.361
 30
0.000000
  70
    32
  0
VERTEX
  8
0
  5
881E
 10
125.500
 20
226.400
 30
0.000000
  70
    32
  0
VERTEX
  8
0
  5
881F
 10
125.500
 20
226.439
 30
0.000000
  70
    32
  0
VERTEX
  8
0
  5
8820
 10
125.499
 20
226.479
 30
0.000000
  70
    32
  0
VERTEX
  8
0
  5
8821
 10
125.497
 20
226.518
 30
0.000000
  70
    32
  0
VERTEX
  8
0
  5
8822
 10
125.495
 20
226.557
 30
0.000000
  70
    32
  0
VERTEX
  8
0
  5
8823
 10
125.492
 20
226.596
 30
0.000000
  70
    32
  0
VERTEX
  8
0
  5
8824
 10
125.489
 20
226.635
 30
0.000000
  70
    32
  0
VERTEX
  8
0
  5
8825
 10
125.485
 20
226.674
 30
0.000000
  70
    32
  0
VERTEX
  8
0
  5
8826
 10
125.481
 20
226.712
 30
0.000000
  70
    32
  0
VERTEX
  8
0
  5
8827
 10
125.476
 20
226.751
 30
0.000000
  70
    32
  0
VERTEX
  8
0
  5
8828
 10
125.470
 20
226.789
 30
0.000000
  70
    32
  0
VERTEX
  8
0
  5
8829
 10
125.464
 20
226.827
 30
0.000000
  70
    32
  0
VERTEX
  8
0
  5
882A
 10
125.457
 20
226.864
 30
0.000000
  70
    32
  0
VERTEX
  8
0
  5
882B
 10
125.450
 20
226.902
 30
0.000000
  70
    32
  0
VERTEX
  8
0
  5
882C
 10
125.442
 20
226.939
 30
0.000000
  70
    32
  0
VERTEX
  8
0
  5
882D
 10
125.433
 20
226.976
 30
0.000000
  70
    32
  0
VERTEX
  8
0
  5
882E
 10
125.424
 20
227.012
 30
0.000000
  70
    32
  0
VERTEX
  8
0
  5
882F
 10
125.414
 20
227.048
 30
0.000000
  70
    32
  0
VERTEX
  8
0
  5
8830
 10
125.404
 20
227.084
 30
0.000000
  70
    32
  0
VERTEX
  8
0
  5
8831
 10
125.393
 20
227.119
 30
0.000000
  70
    32
  0
VERTEX
  8
0
  5
8832
 10
125.382
 20
227.154
 30
0.000000
  70
    32
  0
VERTEX
  8
0
  5
8833
 10
125.370
 20
227.189
 30
0.000000
  70
    32
  0
VERTEX
  8
0
  5
8834
 10
125.358
 20
227.223
 30
0.000000
  70
    32
  0
VERTEX
  8
0
  5
8835
 10
125.345
 20
227.256
 30
0.000000
  70
    32
  0
VERTEX
  8
0
  5
8836
 10
125.331
 20
227.289
 30
0.000000
  70
    32
  0
VERTEX
  8
0
  5
8837
 10
125.318
 20
227.321
 30
0.000000
  70
    32
  0
VERTEX
  8
0
  5
8838
 10
125.303
 20
227.353
 30
0.000000
  70
    32
  0
VERTEX
  8
0
  5
8839
 10
125.288
 20
227.384
 30
0.000000
  70
    32
  0
VERTEX
  8
0
  5
883A
 10
125.273
 20
227.415
 30
0.000000
  70
    32
  0
VERTEX
  8
0
  5
883B
 10
125.257
 20
227.445
 30
0.000000
  70
    32
  0
VERTEX
  8
0
  5
883C
 10
125.241
 20
227.474
 30
0.000000
  70
    32
  0
VERTEX
  8
0
  5
883D
 10
125.224
 20
227.503
 30
0.000000
  70
    32
  0
VERTEX
  8
0
  5
883E
 10
125.207
 20
227.531
 30
0.000000
  70
    32
  0
VERTEX
  8
0
  5
883F
 10
125.190
 20
227.559
 30
0.000000
  70
    32
  0
VERTEX
  8
0
  5
8840
 10
125.172
 20
227.586
 30
0.000000
  70
    32
  0
VERTEX
  8
0
  5
8841
 10
125.153
 20
227.612
 30
0.000000
  70
    32
  0
VERTEX
  8
0
  5
8842
 10
125.134
 20
227.637
 30
0.000000
  70
    32
  0
VERTEX
  8
0
  5
8843
 10
125.115
 20
227.661
 30
0.000000
  70
    32
  0
VERTEX
  8
0
  5
8844
 10
125.096
 20
227.685
 30
0.000000
  70
    32
  0
VERTEX
  8
0
  5
8845
 10
125.076
 20
227.708
 30
0.000000
  70
    32
  0
VERTEX
  8
0
  5
8846
 10
125.056
 20
227.730
 30
0.000000
  70
    32
  0
VERTEX
  8
0
  5
8847
 10
125.035
 20
227.752
 30
0.000000
  70
    32
  0
VERTEX
  8
0
  5
8848
 10
125.014
 20
227.772
 30
0.000000
  70
    32
  0
VERTEX
  8
0
  5
8849
 10
124.993
 20
227.792
 30
0.000000
  70
    32
  0
VERTEX
  8
0
  5
884A
 10
124.971
 20
227.811
 30
0.000000
  70
    32
  0
VERTEX
  8
0
  5
884B
 10
124.950
 20
227.829
 30
0.000000
  70
    32
  0
VERTEX
  8
0
  5
884C
 10
124.928
 20
227.846
 30
0.000000
  70
    32
  0
VERTEX
  8
0
  5
884D
 10
124.905
 20
227.863
 30
0.000000
  70
    32
  0
VERTEX
  8
0
  5
884E
 10
124.883
 20
227.878
 30
0.000000
  70
    32
  0
VERTEX
  8
0
  5
884F
 10
124.860
 20
227.893
 30
0.000000
  70
    32
  0
VERTEX
  8
0
  5
8850
 10
124.837
 20
227.906
 30
0.000000
  70
    32
  0
VERTEX
  8
0
  5
8851
 10
124.814
 20
227.919
 30
0.000000
  70
    32
  0
VERTEX
  8
0
  5
8852
 10
124.790
 20
227.931
 30
0.000000
  70
    32
  0
VERTEX
  8
0
  5
8853
 10
124.767
 20
227.942
 30
0.000000
  70
    32
  0
VERTEX
  8
0
  5
8854
 10
124.743
 20
227.952
 30
0.000000
  70
    32
  0
VERTEX
  8
0
  5
8855
 10
124.719
 20
227.961
 30
0.000000
  70
    32
  0
VERTEX
  8
0
  5
8856
 10
124.695
 20
227.969
 30
0.000000
  70
    32
  0
VERTEX
  8
0
  5
8857
 10
124.671
 20
227.976
 30
0.000000
  70
    32
  0
VERTEX
  8
0
  5
8858
 10
124.647
 20
227.983
 30
0.000000
  70
    32
  0
VERTEX
  8
0
  5
8859
 10
124.622
 20
227.988
 30
0.000000
  70
    32
  0
VERTEX
  8
0
  5
885A
 10
124.598
 20
227.992
 30
0.000000
  70
    32
  0
VERTEX
  8
0
  5
885B
 10
124.574
 20
227.996
 30
0.000000
  70
    32
  0
VERTEX
  8
0
  5
885C
 10
124.549
 20
227.998
 30
0.000000
  70
    32
  0
VERTEX
  8
0
  5
885D
 10
124.525
 20
228.000
 30
0.000000
  70
    32
  0
VERTEX
  8
0
  5
885E
 10
124.500
 20
228.000
 30
0.000000
  70
    32
  0
SEQEND
  8
0
  5
885F
  0
POLYLINE
  5
8446
  8
0
 10
101.5000000000001
 20
227.99999898672101
 30
0.0
 66
     1
 70
     8
  0
VERTEX
  8
0
  5
8860
 10
101.500
 20
228.000
 30
0.000000
  70
    32
  0
VERTEX
  8
0
  5
8861
 10
101.475
 20
228.000
 30
0.000000
  70
    32
  0
VERTEX
  8
0
  5
8862
 10
101.451
 20
227.998
 30
0.000000
  70
    32
  0
VERTEX
  8
0
  5
8863
 10
101.426
 20
227.996
 30
0.000000
  70
    32
  0
VERTEX
  8
0
  5
8864
 10
101.402
 20
227.992
 30
0.000000
  70
    32
  0
VERTEX
  8
0
  5
8865
 10
101.378
 20
227.988
 30
0.000000
  70
    32
  0
VERTEX
  8
0
  5
8866
 10
101.353
 20
227.983
 30
0.000000
  70
    32
  0
VERTEX
  8
0
  5
8867
 10
101.329
 20
227.976
 30
0.000000
  70
    32
  0
VERTEX
  8
0
  5
8868
 10
101.305
 20
227.969
 30
0.000000
  70
    32
  0
VERTEX
  8
0
  5
8869
 10
101.281
 20
227.961
 30
0.000000
  70
    32
  0
VERTEX
  8
0
  5
886A
 10
101.257
 20
227.952
 30
0.000000
  70
    32
  0
VERTEX
  8
0
  5
886B
 10
101.233
 20
227.942
 30
0.000000
  70
    32
  0
VERTEX
  8
0
  5
886C
 10
101.210
 20
227.931
 30
0.000000
  70
    32
  0
VERTEX
  8
0
  5
886D
 10
101.186
 20
227.919
 30
0.000000
  70
    32
  0
VERTEX
  8
0
  5
886E
 10
101.163
 20
227.906
 30
0.000000
  70
    32
  0
VERTEX
  8
0
  5
886F
 10
101.140
 20
227.893
 30
0.000000
  70
    32
  0
VERTEX
  8
0
  5
8870
 10
101.117
 20
227.878
 30
0.000000
  70
    32
  0
VERTEX
  8
0
  5
8871
 10
101.095
 20
227.863
 30
0.000000
  70
    32
  0
VERTEX
  8
0
  5
8872
 10
101.072
 20
227.846
 30
0.000000
  70
    32
  0
VERTEX
  8
0
  5
8873
 10
101.050
 20
227.829
 30
0.000000
  70
    32
  0
VERTEX
  8
0
  5
8874
 10
101.029
 20
227.811
 30
0.000000
  70
    32
  0
VERTEX
  8
0
  5
8875
 10
101.007
 20
227.792
 30
0.000000
  70
    32
  0
VERTEX
  8
0
  5
8876
 10
100.986
 20
227.772
 30
0.000000
  70
    32
  0
VERTEX
  8
0
  5
8877
 10
100.965
 20
227.752
 30
0.000000
  70
    32
  0
VERTEX
  8
0
  5
8878
 10
100.944
 20
227.730
 30
0.000000
  70
    32
  0
VERTEX
  8
0
  5
8879
 10
100.924
 20
227.708
 30
0.000000
  70
    32
  0
VERTEX
  8
0
  5
887A
 10
100.904
 20
227.685
 30
0.000000
  70
    32
  0
VERTEX
  8
0
  5
887B
 10
100.885
 20
227.661
 30
0.000000
  70
    32
  0
VERTEX
  8
0
  5
887C
 10
100.866
 20
227.637
 30
0.000000
  70
    32
  0
VERTEX
  8
0
  5
887D
 10
100.847
 20
227.612
 30
0.000000
  70
    32
  0
VERTEX
  8
0
  5
887E
 10
100.828
 20
227.586
 30
0.000000
  70
    32
  0
VERTEX
  8
0
  5
887F
 10
100.810
 20
227.559
 30
0.000000
  70
    32
  0
VERTEX
  8
0
  5
8880
 10
100.793
 20
227.531
 30
0.000000
  70
    32
  0
VERTEX
  8
0
  5
8881
 10
100.776
 20
227.503
 30
0.000000
  70
    32
  0
VERTEX
  8
0
  5
8882
 10
100.759
 20
227.474
 30
0.000000
  70
    32
  0
VERTEX
  8
0
  5
8883
 10
100.743
 20
227.445
 30
0.000000
  70
    32
  0
VERTEX
  8
0
  5
8884
 10
100.727
 20
227.415
 30
0.000000
  70
    32
  0
VERTEX
  8
0
  5
8885
 10
100.712
 20
227.384
 30
0.000000
  70
    32
  0
VERTEX
  8
0
  5
8886
 10
100.697
 20
227.353
 30
0.000000
  70
    32
  0
VERTEX
  8
0
  5
8887
 10
100.682
 20
227.321
 30
0.000000
  70
    32
  0
VERTEX
  8
0
  5
8888
 10
100.669
 20
227.289
 30
0.000000
  70
    32
  0
VERTEX
  8
0
  5
8889
 10
100.655
 20
227.256
 30
0.000000
  70
    32
  0
VERTEX
  8
0
  5
888A
 10
100.642
 20
227.223
 30
0.000000
  70
    32
  0
VERTEX
  8
0
  5
888B
 10
100.630
 20
227.189
 30
0.000000
  70
    32
  0
VERTEX
  8
0
  5
888C
 10
100.618
 20
227.154
 30
0.000000
  70
    32
  0
VERTEX
  8
0
  5
888D
 10
100.607
 20
227.119
 30
0.000000
  70
    32
  0
VERTEX
  8
0
  5
888E
 10
100.596
 20
227.084
 30
0.000000
  70
    32
  0
VERTEX
  8
0
  5
888F
 10
100.586
 20
227.048
 30
0.000000
  70
    32
  0
VERTEX
  8
0
  5
8890
 10
100.576
 20
227.012
 30
0.000000
  70
    32
  0
VERTEX
  8
0
  5
8891
 10
100.567
 20
226.976
 30
0.000000
  70
    32
  0
VERTEX
  8
0
  5
8892
 10
100.558
 20
226.939
 30
0.000000
  70
    32
  0
VERTEX
  8
0
  5
8893
 10
100.550
 20
226.902
 30
0.000000
  70
    32
  0
VERTEX
  8
0
  5
8894
 10
100.543
 20
226.864
 30
0.000000
  70
    32
  0
VERTEX
  8
0
  5
8895
 10
100.536
 20
226.827
 30
0.000000
  70
    32
  0
VERTEX
  8
0
  5
8896
 10
100.530
 20
226.789
 30
0.000000
  70
    32
  0
VERTEX
  8
0
  5
8897
 10
100.524
 20
226.751
 30
0.000000
  70
    32
  0
VERTEX
  8
0
  5
8898
 10
100.519
 20
226.712
 30
0.000000
  70
    32
  0
VERTEX
  8
0
  5
8899
 10
100.515
 20
226.674
 30
0.000000
  70
    32
  0
VERTEX
  8
0
  5
889A
 10
100.511
 20
226.635
 30
0.000000
  70
    32
  0
VERTEX
  8
0
  5
889B
 10
100.508
 20
226.596
 30
0.000000
  70
    32
  0
VERTEX
  8
0
  5
889C
 10
100.505
 20
226.557
 30
0.000000
  70
    32
  0
VERTEX
  8
0
  5
889D
 10
100.503
 20
226.518
 30
0.000000
  70
    32
  0
VERTEX
  8
0
  5
889E
 10
100.501
 20
226.479
 30
0.000000
  70
    32
  0
VERTEX
  8
0
  5
889F
 10
100.500
 20
226.439
 30
0.000000
  70
    32
  0
VERTEX
  8
0
  5
88A0
 10
100.500
 20
226.400
 30
0.000000
  70
    32
  0
VERTEX
  8
0
  5
88A1
 10
100.500
 20
226.361
 30
0.000000
  70
    32
  0
VERTEX
  8
0
  5
88A2
 10
100.501
 20
226.321
 30
0.000000
  70
    32
  0
VERTEX
  8
0
  5
88A3
 10
100.503
 20
226.282
 30
0.000000
  70
    32
  0
VERTEX
  8
0
  5
88A4
 10
100.505
 20
226.243
 30
0.000000
  70
    32
  0
VERTEX
  8
0
  5
88A5
 10
100.508
 20
226.204
 30
0.000000
  70
    32
  0
VERTEX
  8
0
  5
88A6
 10
100.511
 20
226.165
 30
0.000000
  70
    32
  0
VERTEX
  8
0
  5
88A7
 10
100.515
 20
226.126
 30
0.000000
  70
    32
  0
VERTEX
  8
0
  5
88A8
 10
100.519
 20
226.088
 30
0.000000
  70
    32
  0
VERTEX
  8
0
  5
88A9
 10
100.524
 20
226.049
 30
0.000000
  70
    32
  0
VERTEX
  8
0
  5
88AA
 10
100.530
 20
226.011
 30
0.000000
  70
    32
  0
VERTEX
  8
0
  5
88AB
 10
100.536
 20
225.973
 30
0.000000
  70
    32
  0
VERTEX
  8
0
  5
88AC
 10
100.543
 20
225.936
 30
0.000000
  70
    32
  0
VERTEX
  8
0
  5
88AD
 10
100.550
 20
225.898
 30
0.000000
  70
    32
  0
VERTEX
  8
0
  5
88AE
 10
100.558
 20
225.861
 30
0.000000
  70
    32
  0
VERTEX
  8
0
  5
88AF
 10
100.567
 20
225.824
 30
0.000000
  70
    32
  0
VERTEX
  8
0
  5
88B0
 10
100.576
 20
225.788
 30
0.000000
  70
    32
  0
VERTEX
  8
0
  5
88B1
 10
100.586
 20
225.752
 30
0.000000
  70
    32
  0
VERTEX
  8
0
  5
88B2
 10
100.596
 20
225.716
 30
0.000000
  70
    32
  0
VERTEX
  8
0
  5
88B3
 10
100.607
 20
225.681
 30
0.000000
  70
    32
  0
VERTEX
  8
0
  5
88B4
 10
100.618
 20
225.646
 30
0.000000
  70
    32
  0
VERTEX
  8
0
  5
88B5
 10
100.630
 20
225.611
 30
0.000000
  70
    32
  0
VERTEX
  8
0
  5
88B6
 10
100.642
 20
225.577
 30
0.000000
  70
    32
  0
VERTEX
  8
0
  5
88B7
 10
100.655
 20
225.544
 30
0.000000
  70
    32
  0
VERTEX
  8
0
  5
88B8
 10
100.669
 20
225.511
 30
0.000000
  70
    32
  0
VERTEX
  8
0
  5
88B9
 10
100.682
 20
225.479
 30
0.000000
  70
    32
  0
VERTEX
  8
0
  5
88BA
 10
100.697
 20
225.447
 30
0.000000
  70
    32
  0
VERTEX
  8
0
  5
88BB
 10
100.712
 20
225.416
 30
0.000000
  70
    32
  0
VERTEX
  8
0
  5
88BC
 10
100.727
 20
225.385
 30
0.000000
  70
    32
  0
VERTEX
  8
0
  5
88BD
 10
100.743
 20
225.355
 30
0.000000
  70
    32
  0
VERTEX
  8
0
  5
88BE
 10
100.759
 20
225.326
 30
0.000000
  70
    32
  0
VERTEX
  8
0
  5
88BF
 10
100.776
 20
225.297
 30
0.000000
  70
    32
  0
VERTEX
  8
0
  5
88C0
 10
100.793
 20
225.269
 30
0.000000
  70
    32
  0
VERTEX
  8
0
  5
88C1
 10
100.810
 20
225.241
 30
0.000000
  70
    32
  0
VERTEX
  8
0
  5
88C2
 10
100.828
 20
225.214
 30
0.000000
  70
    32
  0
VERTEX
  8
0
  5
88C3
 10
100.847
 20
225.188
 30
0.000000
  70
    32
  0
VERTEX
  8
0
  5
88C4
 10
100.866
 20
225.163
 30
0.000000
  70
    32
  0
VERTEX
  8
0
  5
88C5
 10
100.885
 20
225.139
 30
0.000000
  70
    32
  0
VERTEX
  8
0
  5
88C6
 10
100.904
 20
225.115
 30
0.000000
  70
    32
  0
VERTEX
  8
0
  5
88C7
 10
100.924
 20
225.092
 30
0.000000
  70
    32
  0
VERTEX
  8
0
  5
88C8
 10
100.944
 20
225.070
 30
0.000000
  70
    32
  0
VERTEX
  8
0
  5
88C9
 10
100.965
 20
225.048
 30
0.000000
  70
    32
  0
VERTEX
  8
0
  5
88CA
 10
100.986
 20
225.028
 30
0.000000
  70
    32
  0
VERTEX
  8
0
  5
88CB
 10
101.007
 20
225.008
 30
0.000000
  70
    32
  0
VERTEX
  8
0
  5
88CC
 10
101.029
 20
224.989
 30
0.000000
  70
    32
  0
VERTEX
  8
0
  5
88CD
 10
101.050
 20
224.971
 30
0.000000
  70
    32
  0
VERTEX
  8
0
  5
88CE
 10
101.072
 20
224.954
 30
0.000000
  70
    32
  0
VERTEX
  8
0
  5
88CF
 10
101.095
 20
224.937
 30
0.000000
  70
    32
  0
VERTEX
  8
0
  5
88D0
 10
101.117
 20
224.922
 30
0.000000
  70
    32
  0
VERTEX
  8
0
  5
88D1
 10
101.140
 20
224.907
 30
0.000000
  70
    32
  0
VERTEX
  8
0
  5
88D2
 10
101.163
 20
224.894
 30
0.000000
  70
    32
  0
VERTEX
  8
0
  5
88D3
 10
101.186
 20
224.881
 30
0.000000
  70
    32
  0
VERTEX
  8
0
  5
88D4
 10
101.210
 20
224.869
 30
0.000000
  70
    32
  0
VERTEX
  8
0
  5
88D5
 10
101.233
 20
224.858
 30
0.000000
  70
    32
  0
VERTEX
  8
0
  5
88D6
 10
101.257
 20
224.848
 30
0.000000
  70
    32
  0
VERTEX
  8
0
  5
88D7
 10
101.281
 20
224.839
 30
0.000000
  70
    32
  0
VERTEX
  8
0
  5
88D8
 10
101.305
 20
224.831
 30
0.000000
  70
    32
  0
VERTEX
  8
0
  5
88D9
 10
101.329
 20
224.824
 30
0.000000
  70
    32
  0
VERTEX
  8
0
  5
88DA
 10
101.353
 20
224.817
 30
0.000000
  70
    32
  0
VERTEX
  8
0
  5
88DB
 10
101.378
 20
224.812
 30
0.000000
  70
    32
  0
VERTEX
  8
0
  5
88DC
 10
101.402
 20
224.808
 30
0.000000
  70
    32
  0
VERTEX
  8
0
  5
88DD
 10
101.426
 20
224.804
 30
0.000000
  70
    32
  0
VERTEX
  8
0
  5
88DE
 10
101.451
 20
224.802
 30
0.000000
  70
    32
  0
VERTEX
  8
0
  5
88DF
 10
101.475
 20
224.800
 30
0.000000
  70
    32
  0
VERTEX
  8
0
  5
88E0
 10
101.500
 20
224.800
 30
0.000000
  70
    32
  0
SEQEND
  8
0
  5
88E1
  0
POLYLINE
  5
8447
  8
0
 10
124.5000000000001
 20
238.79999898672111
 30
0.0
 66
     1
 70
     8
  0
VERTEX
  8
0
  5
88E2
 10
124.500
 20
238.800
 30
0.000000
  70
    32
  0
VERTEX
  8
0
  5
88E3
 10
124.525
 20
238.800
 30
0.000000
  70
    32
  0
VERTEX
  8
0
  5
88E4
 10
124.549
 20
238.802
 30
0.000000
  70
    32
  0
VERTEX
  8
0
  5
88E5
 10
124.574
 20
238.804
 30
0.000000
  70
    32
  0
VERTEX
  8
0
  5
88E6
 10
124.598
 20
238.808
 30
0.000000
  70
    32
  0
VERTEX
  8
0
  5
88E7
 10
124.622
 20
238.812
 30
0.000000
  70
    32
  0
VERTEX
  8
0
  5
88E8
 10
124.647
 20
238.817
 30
0.000000
  70
    32
  0
VERTEX
  8
0
  5
88E9
 10
124.671
 20
238.824
 30
0.000000
  70
    32
  0
VERTEX
  8
0
  5
88EA
 10
124.695
 20
238.831
 30
0.000000
  70
    32
  0
VERTEX
  8
0
  5
88EB
 10
124.719
 20
238.839
 30
0.000000
  70
    32
  0
VERTEX
  8
0
  5
88EC
 10
124.743
 20
238.848
 30
0.000000
  70
    32
  0
VERTEX
  8
0
  5
88ED
 10
124.767
 20
238.858
 30
0.000000
  70
    32
  0
VERTEX
  8
0
  5
88EE
 10
124.790
 20
238.869
 30
0.000000
  70
    32
  0
VERTEX
  8
0
  5
88EF
 10
124.814
 20
238.881
 30
0.000000
  70
    32
  0
VERTEX
  8
0
  5
88F0
 10
124.837
 20
238.894
 30
0.000000
  70
    32
  0
VERTEX
  8
0
  5
88F1
 10
124.860
 20
238.907
 30
0.000000
  70
    32
  0
VERTEX
  8
0
  5
88F2
 10
124.883
 20
238.922
 30
0.000000
  70
    32
  0
VERTEX
  8
0
  5
88F3
 10
124.905
 20
238.937
 30
0.000000
  70
    32
  0
VERTEX
  8
0
  5
88F4
 10
124.928
 20
238.954
 30
0.000000
  70
    32
  0
VERTEX
  8
0
  5
88F5
 10
124.950
 20
238.971
 30
0.000000
  70
    32
  0
VERTEX
  8
0
  5
88F6
 10
124.971
 20
238.989
 30
0.000000
  70
    32
  0
VERTEX
  8
0
  5
88F7
 10
124.993
 20
239.008
 30
0.000000
  70
    32
  0
VERTEX
  8
0
  5
88F8
 10
125.014
 20
239.028
 30
0.000000
  70
    32
  0
VERTEX
  8
0
  5
88F9
 10
125.035
 20
239.048
 30
0.000000
  70
    32
  0
VERTEX
  8
0
  5
88FA
 10
125.056
 20
239.070
 30
0.000000
  70
    32
  0
VERTEX
  8
0
  5
88FB
 10
125.076
 20
239.092
 30
0.000000
  70
    32
  0
VERTEX
  8
0
  5
88FC
 10
125.096
 20
239.115
 30
0.000000
  70
    32
  0
VERTEX
  8
0
  5
88FD
 10
125.115
 20
239.139
 30
0.000000
  70
    32
  0
VERTEX
  8
0
  5
88FE
 10
125.134
 20
239.163
 30
0.000000
  70
    32
  0
VERTEX
  8
0
  5
88FF
 10
125.153
 20
239.188
 30
0.000000
  70
    32
  0
VERTEX
  8
0
  5
8900
 10
125.172
 20
239.214
 30
0.000000
  70
    32
  0
VERTEX
  8
0
  5
8901
 10
125.190
 20
239.241
 30
0.000000
  70
    32
  0
VERTEX
  8
0
  5
8902
 10
125.207
 20
239.269
 30
0.000000
  70
    32
  0
VERTEX
  8
0
  5
8903
 10
125.224
 20
239.297
 30
0.000000
  70
    32
  0
VERTEX
  8
0
  5
8904
 10
125.241
 20
239.326
 30
0.000000
  70
    32
  0
VERTEX
  8
0
  5
8905
 10
125.257
 20
239.355
 30
0.000000
  70
    32
  0
VERTEX
  8
0
  5
8906
 10
125.273
 20
239.385
 30
0.000000
  70
    32
  0
VERTEX
  8
0
  5
8907
 10
125.288
 20
239.416
 30
0.000000
  70
    32
  0
VERTEX
  8
0
  5
8908
 10
125.303
 20
239.447
 30
0.000000
  70
    32
  0
VERTEX
  8
0
  5
8909
 10
125.318
 20
239.479
 30
0.000000
  70
    32
  0
VERTEX
  8
0
  5
890A
 10
125.331
 20
239.511
 30
0.000000
  70
    32
  0
VERTEX
  8
0
  5
890B
 10
125.345
 20
239.544
 30
0.000000
  70
    32
  0
VERTEX
  8
0
  5
890C
 10
125.358
 20
239.577
 30
0.000000
  70
    32
  0
VERTEX
  8
0
  5
890D
 10
125.370
 20
239.611
 30
0.000000
  70
    32
  0
VERTEX
  8
0
  5
890E
 10
125.382
 20
239.646
 30
0.000000
  70
    32
  0
VERTEX
  8
0
  5
890F
 10
125.393
 20
239.681
 30
0.000000
  70
    32
  0
VERTEX
  8
0
  5
8910
 10
125.404
 20
239.716
 30
0.000000
  70
    32
  0
VERTEX
  8
0
  5
8911
 10
125.414
 20
239.752
 30
0.000000
  70
    32
  0
VERTEX
  8
0
  5
8912
 10
125.424
 20
239.788
 30
0.000000
  70
    32
  0
VERTEX
  8
0
  5
8913
 10
125.433
 20
239.824
 30
0.000000
  70
    32
  0
VERTEX
  8
0
  5
8914
 10
125.442
 20
239.861
 30
0.000000
  70
    32
  0
VERTEX
  8
0
  5
8915
 10
125.450
 20
239.898
 30
0.000000
  70
    32
  0
VERTEX
  8
0
  5
8916
 10
125.457
 20
239.936
 30
0.000000
  70
    32
  0
VERTEX
  8
0
  5
8917
 10
125.464
 20
239.973
 30
0.000000
  70
    32
  0
VERTEX
  8
0
  5
8918
 10
125.470
 20
240.011
 30
0.000000
  70
    32
  0
VERTEX
  8
0
  5
8919
 10
125.476
 20
240.049
 30
0.000000
  70
    32
  0
VERTEX
  8
0
  5
891A
 10
125.481
 20
240.088
 30
0.000000
  70
    32
  0
VERTEX
  8
0
  5
891B
 10
125.485
 20
240.126
 30
0.000000
  70
    32
  0
VERTEX
  8
0
  5
891C
 10
125.489
 20
240.165
 30
0.000000
  70
    32
  0
VERTEX
  8
0
  5
891D
 10
125.492
 20
240.204
 30
0.000000
  70
    32
  0
VERTEX
  8
0
  5
891E
 10
125.495
 20
240.243
 30
0.000000
  70
    32
  0
VERTEX
  8
0
  5
891F
 10
125.497
 20
240.282
 30
0.000000
  70
    32
  0
VERTEX
  8
0
  5
8920
 10
125.499
 20
240.321
 30
0.000000
  70
    32
  0
VERTEX
  8
0
  5
8921
 10
125.500
 20
240.361
 30
0.000000
  70
    32
  0
VERTEX
  8
0
  5
8922
 10
125.500
 20
240.400
 30
0.000000
  70
    32
  0
VERTEX
  8
0
  5
8923
 10
125.500
 20
240.439
 30
0.000000
  70
    32
  0
VERTEX
  8
0
  5
8924
 10
125.499
 20
240.479
 30
0.000000
  70
    32
  0
VERTEX
  8
0
  5
8925
 10
125.497
 20
240.518
 30
0.000000
  70
    32
  0
VERTEX
  8
0
  5
8926
 10
125.495
 20
240.557
 30
0.000000
  70
    32
  0
VERTEX
  8
0
  5
8927
 10
125.492
 20
240.596
 30
0.000000
  70
    32
  0
VERTEX
  8
0
  5
8928
 10
125.489
 20
240.635
 30
0.000000
  70
    32
  0
VERTEX
  8
0
  5
8929
 10
125.485
 20
240.674
 30
0.000000
  70
    32
  0
VERTEX
  8
0
  5
892A
 10
125.481
 20
240.712
 30
0.000000
  70
    32
  0
VERTEX
  8
0
  5
892B
 10
125.476
 20
240.751
 30
0.000000
  70
    32
  0
VERTEX
  8
0
  5
892C
 10
125.470
 20
240.789
 30
0.000000
  70
    32
  0
VERTEX
  8
0
  5
892D
 10
125.464
 20
240.827
 30
0.000000
  70
    32
  0
VERTEX
  8
0
  5
892E
 10
125.457
 20
240.864
 30
0.000000
  70
    32
  0
VERTEX
  8
0
  5
892F
 10
125.450
 20
240.902
 30
0.000000
  70
    32
  0
VERTEX
  8
0
  5
8930
 10
125.442
 20
240.939
 30
0.000000
  70
    32
  0
VERTEX
  8
0
  5
8931
 10
125.433
 20
240.976
 30
0.000000
  70
    32
  0
VERTEX
  8
0
  5
8932
 10
125.424
 20
241.012
 30
0.000000
  70
    32
  0
VERTEX
  8
0
  5
8933
 10
125.414
 20
241.048
 30
0.000000
  70
    32
  0
VERTEX
  8
0
  5
8934
 10
125.404
 20
241.084
 30
0.000000
  70
    32
  0
VERTEX
  8
0
  5
8935
 10
125.393
 20
241.119
 30
0.000000
  70
    32
  0
VERTEX
  8
0
  5
8936
 10
125.382
 20
241.154
 30
0.000000
  70
    32
  0
VERTEX
  8
0
  5
8937
 10
125.370
 20
241.189
 30
0.000000
  70
    32
  0
VERTEX
  8
0
  5
8938
 10
125.358
 20
241.223
 30
0.000000
  70
    32
  0
VERTEX
  8
0
  5
8939
 10
125.345
 20
241.256
 30
0.000000
  70
    32
  0
VERTEX
  8
0
  5
893A
 10
125.331
 20
241.289
 30
0.000000
  70
    32
  0
VERTEX
  8
0
  5
893B
 10
125.318
 20
241.321
 30
0.000000
  70
    32
  0
VERTEX
  8
0
  5
893C
 10
125.303
 20
241.353
 30
0.000000
  70
    32
  0
VERTEX
  8
0
  5
893D
 10
125.288
 20
241.384
 30
0.000000
  70
    32
  0
VERTEX
  8
0
  5
893E
 10
125.273
 20
241.415
 30
0.000000
  70
    32
  0
VERTEX
  8
0
  5
893F
 10
125.257
 20
241.445
 30
0.000000
  70
    32
  0
VERTEX
  8
0
  5
8940
 10
125.241
 20
241.474
 30
0.000000
  70
    32
  0
VERTEX
  8
0
  5
8941
 10
125.224
 20
241.503
 30
0.000000
  70
    32
  0
VERTEX
  8
0
  5
8942
 10
125.207
 20
241.531
 30
0.000000
  70
    32
  0
VERTEX
  8
0
  5
8943
 10
125.190
 20
241.559
 30
0.000000
  70
    32
  0
VERTEX
  8
0
  5
8944
 10
125.172
 20
241.586
 30
0.000000
  70
    32
  0
VERTEX
  8
0
  5
8945
 10
125.153
 20
241.612
 30
0.000000
  70
    32
  0
VERTEX
  8
0
  5
8946
 10
125.134
 20
241.637
 30
0.000000
  70
    32
  0
VERTEX
  8
0
  5
8947
 10
125.115
 20
241.661
 30
0.000000
  70
    32
  0
VERTEX
  8
0
  5
8948
 10
125.096
 20
241.685
 30
0.000000
  70
    32
  0
VERTEX
  8
0
  5
8949
 10
125.076
 20
241.708
 30
0.000000
  70
    32
  0
VERTEX
  8
0
  5
894A
 10
125.056
 20
241.730
 30
0.000000
  70
    32
  0
VERTEX
  8
0
  5
894B
 10
125.035
 20
241.752
 30
0.000000
  70
    32
  0
VERTEX
  8
0
  5
894C
 10
125.014
 20
241.772
 30
0.000000
  70
    32
  0
VERTEX
  8
0
  5
894D
 10
124.993
 20
241.792
 30
0.000000
  70
    32
  0
VERTEX
  8
0
  5
894E
 10
124.971
 20
241.811
 30
0.000000
  70
    32
  0
VERTEX
  8
0
  5
894F
 10
124.950
 20
241.829
 30
0.000000
  70
    32
  0
VERTEX
  8
0
  5
8950
 10
124.928
 20
241.846
 30
0.000000
  70
    32
  0
VERTEX
  8
0
  5
8951
 10
124.905
 20
241.863
 30
0.000000
  70
    32
  0
VERTEX
  8
0
  5
8952
 10
124.883
 20
241.878
 30
0.000000
  70
    32
  0
VERTEX
  8
0
  5
8953
 10
124.860
 20
241.893
 30
0.000000
  70
    32
  0
VERTEX
  8
0
  5
8954
 10
124.837
 20
241.906
 30
0.000000
  70
    32
  0
VERTEX
  8
0
  5
8955
 10
124.814
 20
241.919
 30
0.000000
  70
    32
  0
VERTEX
  8
0
  5
8956
 10
124.790
 20
241.931
 30
0.000000
  70
    32
  0
VERTEX
  8
0
  5
8957
 10
124.767
 20
241.942
 30
0.000000
  70
    32
  0
VERTEX
  8
0
  5
8958
 10
124.743
 20
241.952
 30
0.000000
  70
    32
  0
VERTEX
  8
0
  5
8959
 10
124.719
 20
241.961
 30
0.000000
  70
    32
  0
VERTEX
  8
0
  5
895A
 10
124.695
 20
241.969
 30
0.000000
  70
    32
  0
VERTEX
  8
0
  5
895B
 10
124.671
 20
241.976
 30
0.000000
  70
    32
  0
VERTEX
  8
0
  5
895C
 10
124.647
 20
241.983
 30
0.000000
  70
    32
  0
VERTEX
  8
0
  5
895D
 10
124.622
 20
241.988
 30
0.000000
  70
    32
  0
VERTEX
  8
0
  5
895E
 10
124.598
 20
241.992
 30
0.000000
  70
    32
  0
VERTEX
  8
0
  5
895F
 10
124.574
 20
241.996
 30
0.000000
  70
    32
  0
VERTEX
  8
0
  5
8960
 10
124.549
 20
241.998
 30
0.000000
  70
    32
  0
VERTEX
  8
0
  5
8961
 10
124.525
 20
242.000
 30
0.000000
  70
    32
  0
VERTEX
  8
0
  5
8962
 10
124.500
 20
242.000
 30
0.000000
  70
    32
  0
SEQEND
  8
0
  5
8963
  0
POLYLINE
  5
8448
  8
0
 10
101.5000000000001
 20
241.99999898672098
 30
0.0
 66
     1
 70
     8
  0
VERTEX
  8
0
  5
8964
 10
101.500
 20
242.000
 30
0.000000
  70
    32
  0
VERTEX
  8
0
  5
8965
 10
101.475
 20
242.000
 30
0.000000
  70
    32
  0
VERTEX
  8
0
  5
8966
 10
101.451
 20
241.998
 30
0.000000
  70
    32
  0
VERTEX
  8
0
  5
8967
 10
101.426
 20
241.996
 30
0.000000
  70
    32
  0
VERTEX
  8
0
  5
8968
 10
101.402
 20
241.992
 30
0.000000
  70
    32
  0
VERTEX
  8
0
  5
8969
 10
101.378
 20
241.988
 30
0.000000
  70
    32
  0
VERTEX
  8
0
  5
896A
 10
101.353
 20
241.983
 30
0.000000
  70
    32
  0
VERTEX
  8
0
  5
896B
 10
101.329
 20
241.976
 30
0.000000
  70
    32
  0
VERTEX
  8
0
  5
896C
 10
101.305
 20
241.969
 30
0.000000
  70
    32
  0
VERTEX
  8
0
  5
896D
 10
101.281
 20
241.961
 30
0.000000
  70
    32
  0
VERTEX
  8
0
  5
896E
 10
101.257
 20
241.952
 30
0.000000
  70
    32
  0
VERTEX
  8
0
  5
896F
 10
101.233
 20
241.942
 30
0.000000
  70
    32
  0
VERTEX
  8
0
  5
8970
 10
101.210
 20
241.931
 30
0.000000
  70
    32
  0
VERTEX
  8
0
  5
8971
 10
101.186
 20
241.919
 30
0.000000
  70
    32
  0
VERTEX
  8
0
  5
8972
 10
101.163
 20
241.906
 30
0.000000
  70
    32
  0
VERTEX
  8
0
  5
8973
 10
101.140
 20
241.893
 30
0.000000
  70
    32
  0
VERTEX
  8
0
  5
8974
 10
101.117
 20
241.878
 30
0.000000
  70
    32
  0
VERTEX
  8
0
  5
8975
 10
101.095
 20
241.863
 30
0.000000
  70
    32
  0
VERTEX
  8
0
  5
8976
 10
101.072
 20
241.846
 30
0.000000
  70
    32
  0
VERTEX
  8
0
  5
8977
 10
101.050
 20
241.829
 30
0.000000
  70
    32
  0
VERTEX
  8
0
  5
8978
 10
101.029
 20
241.811
 30
0.000000
  70
    32
  0
VERTEX
  8
0
  5
8979
 10
101.007
 20
241.792
 30
0.000000
  70
    32
  0
VERTEX
  8
0
  5
897A
 10
100.986
 20
241.772
 30
0.000000
  70
    32
  0
VERTEX
  8
0
  5
897B
 10
100.965
 20
241.752
 30
0.000000
  70
    32
  0
VERTEX
  8
0
  5
897C
 10
100.944
 20
241.730
 30
0.000000
  70
    32
  0
VERTEX
  8
0
  5
897D
 10
100.924
 20
241.708
 30
0.000000
  70
    32
  0
VERTEX
  8
0
  5
897E
 10
100.904
 20
241.685
 30
0.000000
  70
    32
  0
VERTEX
  8
0
  5
897F
 10
100.885
 20
241.661
 30
0.000000
  70
    32
  0
VERTEX
  8
0
  5
8980
 10
100.866
 20
241.637
 30
0.000000
  70
    32
  0
VERTEX
  8
0
  5
8981
 10
100.847
 20
241.612
 30
0.000000
  70
    32
  0
VERTEX
  8
0
  5
8982
 10
100.828
 20
241.586
 30
0.000000
  70
    32
  0
VERTEX
  8
0
  5
8983
 10
100.810
 20
241.559
 30
0.000000
  70
    32
  0
VERTEX
  8
0
  5
8984
 10
100.793
 20
241.531
 30
0.000000
  70
    32
  0
VERTEX
  8
0
  5
8985
 10
100.776
 20
241.503
 30
0.000000
  70
    32
  0
VERTEX
  8
0
  5
8986
 10
100.759
 20
241.474
 30
0.000000
  70
    32
  0
VERTEX
  8
0
  5
8987
 10
100.743
 20
241.445
 30
0.000000
  70
    32
  0
VERTEX
  8
0
  5
8988
 10
100.727
 20
241.415
 30
0.000000
  70
    32
  0
VERTEX
  8
0
  5
8989
 10
100.712
 20
241.384
 30
0.000000
  70
    32
  0
VERTEX
  8
0
  5
898A
 10
100.697
 20
241.353
 30
0.000000
  70
    32
  0
VERTEX
  8
0
  5
898B
 10
100.682
 20
241.321
 30
0.000000
  70
    32
  0
VERTEX
  8
0
  5
898C
 10
100.669
 20
241.289
 30
0.000000
  70
    32
  0
VERTEX
  8
0
  5
898D
 10
100.655
 20
241.256
 30
0.000000
  70
    32
  0
VERTEX
  8
0
  5
898E
 10
100.642
 20
241.223
 30
0.000000
  70
    32
  0
VERTEX
  8
0
  5
898F
 10
100.630
 20
241.189
 30
0.000000
  70
    32
  0
VERTEX
  8
0
  5
8990
 10
100.618
 20
241.154
 30
0.000000
  70
    32
  0
VERTEX
  8
0
  5
8991
 10
100.607
 20
241.119
 30
0.000000
  70
    32
  0
VERTEX
  8
0
  5
8992
 10
100.596
 20
241.084
 30
0.000000
  70
    32
  0
VERTEX
  8
0
  5
8993
 10
100.586
 20
241.048
 30
0.000000
  70
    32
  0
VERTEX
  8
0
  5
8994
 10
100.576
 20
241.012
 30
0.000000
  70
    32
  0
VERTEX
  8
0
  5
8995
 10
100.567
 20
240.976
 30
0.000000
  70
    32
  0
VERTEX
  8
0
  5
8996
 10
100.558
 20
240.939
 30
0.000000
  70
    32
  0
VERTEX
  8
0
  5
8997
 10
100.550
 20
240.902
 30
0.000000
  70
    32
  0
VERTEX
  8
0
  5
8998
 10
100.543
 20
240.864
 30
0.000000
  70
    32
  0
VERTEX
  8
0
  5
8999
 10
100.536
 20
240.827
 30
0.000000
  70
    32
  0
VERTEX
  8
0
  5
899A
 10
100.530
 20
240.789
 30
0.000000
  70
    32
  0
VERTEX
  8
0
  5
899B
 10
100.524
 20
240.751
 30
0.000000
  70
    32
  0
VERTEX
  8
0
  5
899C
 10
100.519
 20
240.712
 30
0.000000
  70
    32
  0
VERTEX
  8
0
  5
899D
 10
100.515
 20
240.674
 30
0.000000
  70
    32
  0
VERTEX
  8
0
  5
899E
 10
100.511
 20
240.635
 30
0.000000
  70
    32
  0
VERTEX
  8
0
  5
899F
 10
100.508
 20
240.596
 30
0.000000
  70
    32
  0
VERTEX
  8
0
  5
89A0
 10
100.505
 20
240.557
 30
0.000000
  70
    32
  0
VERTEX
  8
0
  5
89A1
 10
100.503
 20
240.518
 30
0.000000
  70
    32
  0
VERTEX
  8
0
  5
89A2
 10
100.501
 20
240.479
 30
0.000000
  70
    32
  0
VERTEX
  8
0
  5
89A3
 10
100.500
 20
240.439
 30
0.000000
  70
    32
  0
VERTEX
  8
0
  5
89A4
 10
100.500
 20
240.400
 30
0.000000
  70
    32
  0
VERTEX
  8
0
  5
89A5
 10
100.500
 20
240.361
 30
0.000000
  70
    32
  0
VERTEX
  8
0
  5
89A6
 10
100.501
 20
240.321
 30
0.000000
  70
    32
  0
VERTEX
  8
0
  5
89A7
 10
100.503
 20
240.282
 30
0.000000
  70
    32
  0
VERTEX
  8
0
  5
89A8
 10
100.505
 20
240.243
 30
0.000000
  70
    32
  0
VERTEX
  8
0
  5
89A9
 10
100.508
 20
240.204
 30
0.000000
  70
    32
  0
VERTEX
  8
0
  5
89AA
 10
100.511
 20
240.165
 30
0.000000
  70
    32
  0
VERTEX
  8
0
  5
89AB
 10
100.515
 20
240.126
 30
0.000000
  70
    32
  0
VERTEX
  8
0
  5
89AC
 10
100.519
 20
240.088
 30
0.000000
  70
    32
  0
VERTEX
  8
0
  5
89AD
 10
100.524
 20
240.049
 30
0.000000
  70
    32
  0
VERTEX
  8
0
  5
89AE
 10
100.530
 20
240.011
 30
0.000000
  70
    32
  0
VERTEX
  8
0
  5
89AF
 10
100.536
 20
239.973
 30
0.000000
  70
    32
  0
VERTEX
  8
0
  5
89B0
 10
100.543
 20
239.936
 30
0.000000
  70
    32
  0
VERTEX
  8
0
  5
89B1
 10
100.550
 20
239.898
 30
0.000000
  70
    32
  0
VERTEX
  8
0
  5
89B2
 10
100.558
 20
239.861
 30
0.000000
  70
    32
  0
VERTEX
  8
0
  5
89B3
 10
100.567
 20
239.824
 30
0.000000
  70
    32
  0
VERTEX
  8
0
  5
89B4
 10
100.576
 20
239.788
 30
0.000000
  70
    32
  0
VERTEX
  8
0
  5
89B5
 10
100.586
 20
239.752
 30
0.000000
  70
    32
  0
VERTEX
  8
0
  5
89B6
 10
100.596
 20
239.716
 30
0.000000
  70
    32
  0
VERTEX
  8
0
  5
89B7
 10
100.607
 20
239.681
 30
0.000000
  70
    32
  0
VERTEX
  8
0
  5
89B8
 10
100.618
 20
239.646
 30
0.000000
  70
    32
  0
VERTEX
  8
0
  5
89B9
 10
100.630
 20
239.611
 30
0.000000
  70
    32
  0
VERTEX
  8
0
  5
89BA
 10
100.642
 20
239.577
 30
0.000000
  70
    32
  0
VERTEX
  8
0
  5
89BB
 10
100.655
 20
239.544
 30
0.000000
  70
    32
  0
VERTEX
  8
0
  5
89BC
 10
100.669
 20
239.511
 30
0.000000
  70
    32
  0
VERTEX
  8
0
  5
89BD
 10
100.682
 20
239.479
 30
0.000000
  70
    32
  0
VERTEX
  8
0
  5
89BE
 10
100.697
 20
239.447
 30
0.000000
  70
    32
  0
VERTEX
  8
0
  5
89BF
 10
100.712
 20
239.416
 30
0.000000
  70
    32
  0
VERTEX
  8
0
  5
89C0
 10
100.727
 20
239.385
 30
0.000000
  70
    32
  0
VERTEX
  8
0
  5
89C1
 10
100.743
 20
239.355
 30
0.000000
  70
    32
  0
VERTEX
  8
0
  5
89C2
 10
100.759
 20
239.326
 30
0.000000
  70
    32
  0
VERTEX
  8
0
  5
89C3
 10
100.776
 20
239.297
 30
0.000000
  70
    32
  0
VERTEX
  8
0
  5
89C4
 10
100.793
 20
239.269
 30
0.000000
  70
    32
  0
VERTEX
  8
0
  5
89C5
 10
100.810
 20
239.241
 30
0.000000
  70
    32
  0
VERTEX
  8
0
  5
89C6
 10
100.828
 20
239.214
 30
0.000000
  70
    32
  0
VERTEX
  8
0
  5
89C7
 10
100.847
 20
239.188
 30
0.000000
  70
    32
  0
VERTEX
  8
0
  5
89C8
 10
100.866
 20
239.163
 30
0.000000
  70
    32
  0
VERTEX
  8
0
  5
89C9
 10
100.885
 20
239.139
 30
0.000000
  70
    32
  0
VERTEX
  8
0
  5
89CA
 10
100.904
 20
239.115
 30
0.000000
  70
    32
  0
VERTEX
  8
0
  5
89CB
 10
100.924
 20
239.092
 30
0.000000
  70
    32
  0
VERTEX
  8
0
  5
89CC
 10
100.944
 20
239.070
 30
0.000000
  70
    32
  0
VERTEX
  8
0
  5
89CD
 10
100.965
 20
239.048
 30
0.000000
  70
    32
  0
VERTEX
  8
0
  5
89CE
 10
100.986
 20
239.028
 30
0.000000
  70
    32
  0
VERTEX
  8
0
  5
89CF
 10
101.007
 20
239.008
 30
0.000000
  70
    32
  0
VERTEX
  8
0
  5
89D0
 10
101.029
 20
238.989
 30
0.000000
  70
    32
  0
VERTEX
  8
0
  5
89D1
 10
101.050
 20
238.971
 30
0.000000
  70
    32
  0
VERTEX
  8
0
  5
89D2
 10
101.072
 20
238.954
 30
0.000000
  70
    32
  0
VERTEX
  8
0
  5
89D3
 10
101.095
 20
238.937
 30
0.000000
  70
    32
  0
VERTEX
  8
0
  5
89D4
 10
101.117
 20
238.922
 30
0.000000
  70
    32
  0
VERTEX
  8
0
  5
89D5
 10
101.140
 20
238.907
 30
0.000000
  70
    32
  0
VERTEX
  8
0
  5
89D6
 10
101.163
 20
238.894
 30
0.000000
  70
    32
  0
VERTEX
  8
0
  5
89D7
 10
101.186
 20
238.881
 30
0.000000
  70
    32
  0
VERTEX
  8
0
  5
89D8
 10
101.210
 20
238.869
 30
0.000000
  70
    32
  0
VERTEX
  8
0
  5
89D9
 10
101.233
 20
238.858
 30
0.000000
  70
    32
  0
VERTEX
  8
0
  5
89DA
 10
101.257
 20
238.848
 30
0.000000
  70
    32
  0
VERTEX
  8
0
  5
89DB
 10
101.281
 20
238.839
 30
0.000000
  70
    32
  0
VERTEX
  8
0
  5
89DC
 10
101.305
 20
238.831
 30
0.000000
  70
    32
  0
VERTEX
  8
0
  5
89DD
 10
101.329
 20
238.824
 30
0.000000
  70
    32
  0
VERTEX
  8
0
  5
89DE
 10
101.353
 20
238.817
 30
0.000000
  70
    32
  0
VERTEX
  8
0
  5
89DF
 10
101.378
 20
238.812
 30
0.000000
  70
    32
  0
VERTEX
  8
0
  5
89E0
 10
101.402
 20
238.808
 30
0.000000
  70
    32
  0
VERTEX
  8
0
  5
89E1
 10
101.426
 20
238.804
 30
0.000000
  70
    32
  0
VERTEX
  8
0
  5
89E2
 10
101.451
 20
238.802
 30
0.000000
  70
    32
  0
VERTEX
  8
0
  5
89E3
 10
101.475
 20
238.800
 30
0.000000
  70
    32
  0
VERTEX
  8
0
  5
89E4
 10
101.500
 20
238.800
 30
0.000000
  70
    32
  0
SEQEND
  8
0
  5
89E5
  0
POLYLINE
  5
8449
  8
0
 10
124.5000000000001
 20
252.79999898672102
 30
0.0
 66
     1
 70
     8
  0
VERTEX
  8
0
  5
89E6
 10
124.500
 20
252.800
 30
0.000000
  70
    32
  0
VERTEX
  8
0
  5
89E7
 10
124.525
 20
252.800
 30
0.000000
  70
    32
  0
VERTEX
  8
0
  5
89E8
 10
124.549
 20
252.802
 30
0.000000
  70
    32
  0
VERTEX
  8
0
  5
89E9
 10
124.574
 20
252.804
 30
0.000000
  70
    32
  0
VERTEX
  8
0
  5
89EA
 10
124.598
 20
252.808
 30
0.000000
  70
    32
  0
VERTEX
  8
0
  5
89EB
 10
124.622
 20
252.812
 30
0.000000
  70
    32
  0
VERTEX
  8
0
  5
89EC
 10
124.647
 20
252.817
 30
0.000000
  70
    32
  0
VERTEX
  8
0
  5
89ED
 10
124.671
 20
252.824
 30
0.000000
  70
    32
  0
VERTEX
  8
0
  5
89EE
 10
124.695
 20
252.831
 30
0.000000
  70
    32
  0
VERTEX
  8
0
  5
89EF
 10
124.719
 20
252.839
 30
0.000000
  70
    32
  0
VERTEX
  8
0
  5
89F0
 10
124.743
 20
252.848
 30
0.000000
  70
    32
  0
VERTEX
  8
0
  5
89F1
 10
124.767
 20
252.858
 30
0.000000
  70
    32
  0
VERTEX
  8
0
  5
89F2
 10
124.790
 20
252.869
 30
0.000000
  70
    32
  0
VERTEX
  8
0
  5
89F3
 10
124.814
 20
252.881
 30
0.000000
  70
    32
  0
VERTEX
  8
0
  5
89F4
 10
124.837
 20
252.894
 30
0.000000
  70
    32
  0
VERTEX
  8
0
  5
89F5
 10
124.860
 20
252.907
 30
0.000000
  70
    32
  0
VERTEX
  8
0
  5
89F6
 10
124.883
 20
252.922
 30
0.000000
  70
    32
  0
VERTEX
  8
0
  5
89F7
 10
124.905
 20
252.937
 30
0.000000
  70
    32
  0
VERTEX
  8
0
  5
89F8
 10
124.928
 20
252.954
 30
0.000000
  70
    32
  0
VERTEX
  8
0
  5
89F9
 10
124.950
 20
252.971
 30
0.000000
  70
    32
  0
VERTEX
  8
0
  5
89FA
 10
124.971
 20
252.989
 30
0.000000
  70
    32
  0
VERTEX
  8
0
  5
89FB
 10
124.993
 20
253.008
 30
0.000000
  70
    32
  0
VERTEX
  8
0
  5
89FC
 10
125.014
 20
253.028
 30
0.000000
  70
    32
  0
VERTEX
  8
0
  5
89FD
 10
125.035
 20
253.048
 30
0.000000
  70
    32
  0
VERTEX
  8
0
  5
89FE
 10
125.056
 20
253.070
 30
0.000000
  70
    32
  0
VERTEX
  8
0
  5
89FF
 10
125.076
 20
253.092
 30
0.000000
  70
    32
  0
VERTEX
  8
0
  5
8A00
 10
125.096
 20
253.115
 30
0.000000
  70
    32
  0
VERTEX
  8
0
  5
8A01
 10
125.115
 20
253.139
 30
0.000000
  70
    32
  0
VERTEX
  8
0
  5
8A02
 10
125.134
 20
253.163
 30
0.000000
  70
    32
  0
VERTEX
  8
0
  5
8A03
 10
125.153
 20
253.188
 30
0.000000
  70
    32
  0
VERTEX
  8
0
  5
8A04
 10
125.172
 20
253.214
 30
0.000000
  70
    32
  0
VERTEX
  8
0
  5
8A05
 10
125.190
 20
253.241
 30
0.000000
  70
    32
  0
VERTEX
  8
0
  5
8A06
 10
125.207
 20
253.269
 30
0.000000
  70
    32
  0
VERTEX
  8
0
  5
8A07
 10
125.224
 20
253.297
 30
0.000000
  70
    32
  0
VERTEX
  8
0
  5
8A08
 10
125.241
 20
253.326
 30
0.000000
  70
    32
  0
VERTEX
  8
0
  5
8A09
 10
125.257
 20
253.355
 30
0.000000
  70
    32
  0
VERTEX
  8
0
  5
8A0A
 10
125.273
 20
253.385
 30
0.000000
  70
    32
  0
VERTEX
  8
0
  5
8A0B
 10
125.288
 20
253.416
 30
0.000000
  70
    32
  0
VERTEX
  8
0
  5
8A0C
 10
125.303
 20
253.447
 30
0.000000
  70
    32
  0
VERTEX
  8
0
  5
8A0D
 10
125.318
 20
253.479
 30
0.000000
  70
    32
  0
VERTEX
  8
0
  5
8A0E
 10
125.331
 20
253.511
 30
0.000000
  70
    32
  0
VERTEX
  8
0
  5
8A0F
 10
125.345
 20
253.544
 30
0.000000
  70
    32
  0
VERTEX
  8
0
  5
8A10
 10
125.358
 20
253.577
 30
0.000000
  70
    32
  0
VERTEX
  8
0
  5
8A11
 10
125.370
 20
253.611
 30
0.000000
  70
    32
  0
VERTEX
  8
0
  5
8A12
 10
125.382
 20
253.646
 30
0.000000
  70
    32
  0
VERTEX
  8
0
  5
8A13
 10
125.393
 20
253.681
 30
0.000000
  70
    32
  0
VERTEX
  8
0
  5
8A14
 10
125.404
 20
253.716
 30
0.000000
  70
    32
  0
VERTEX
  8
0
  5
8A15
 10
125.414
 20
253.752
 30
0.000000
  70
    32
  0
VERTEX
  8
0
  5
8A16
 10
125.424
 20
253.788
 30
0.000000
  70
    32
  0
VERTEX
  8
0
  5
8A17
 10
125.433
 20
253.824
 30
0.000000
  70
    32
  0
VERTEX
  8
0
  5
8A18
 10
125.442
 20
253.861
 30
0.000000
  70
    32
  0
VERTEX
  8
0
  5
8A19
 10
125.450
 20
253.898
 30
0.000000
  70
    32
  0
VERTEX
  8
0
  5
8A1A
 10
125.457
 20
253.936
 30
0.000000
  70
    32
  0
VERTEX
  8
0
  5
8A1B
 10
125.464
 20
253.973
 30
0.000000
  70
    32
  0
VERTEX
  8
0
  5
8A1C
 10
125.470
 20
254.011
 30
0.000000
  70
    32
  0
VERTEX
  8
0
  5
8A1D
 10
125.476
 20
254.049
 30
0.000000
  70
    32
  0
VERTEX
  8
0
  5
8A1E
 10
125.481
 20
254.088
 30
0.000000
  70
    32
  0
VERTEX
  8
0
  5
8A1F
 10
125.485
 20
254.126
 30
0.000000
  70
    32
  0
VERTEX
  8
0
  5
8A20
 10
125.489
 20
254.165
 30
0.000000
  70
    32
  0
VERTEX
  8
0
  5
8A21
 10
125.492
 20
254.204
 30
0.000000
  70
    32
  0
VERTEX
  8
0
  5
8A22
 10
125.495
 20
254.243
 30
0.000000
  70
    32
  0
VERTEX
  8
0
  5
8A23
 10
125.497
 20
254.282
 30
0.000000
  70
    32
  0
VERTEX
  8
0
  5
8A24
 10
125.499
 20
254.321
 30
0.000000
  70
    32
  0
VERTEX
  8
0
  5
8A25
 10
125.500
 20
254.361
 30
0.000000
  70
    32
  0
VERTEX
  8
0
  5
8A26
 10
125.500
 20
254.400
 30
0.000000
  70
    32
  0
VERTEX
  8
0
  5
8A27
 10
125.500
 20
254.439
 30
0.000000
  70
    32
  0
VERTEX
  8
0
  5
8A28
 10
125.499
 20
254.479
 30
0.000000
  70
    32
  0
VERTEX
  8
0
  5
8A29
 10
125.497
 20
254.518
 30
0.000000
  70
    32
  0
VERTEX
  8
0
  5
8A2A
 10
125.495
 20
254.557
 30
0.000000
  70
    32
  0
VERTEX
  8
0
  5
8A2B
 10
125.492
 20
254.596
 30
0.000000
  70
    32
  0
VERTEX
  8
0
  5
8A2C
 10
125.489
 20
254.635
 30
0.000000
  70
    32
  0
VERTEX
  8
0
  5
8A2D
 10
125.485
 20
254.674
 30
0.000000
  70
    32
  0
VERTEX
  8
0
  5
8A2E
 10
125.481
 20
254.712
 30
0.000000
  70
    32
  0
VERTEX
  8
0
  5
8A2F
 10
125.476
 20
254.751
 30
0.000000
  70
    32
  0
VERTEX
  8
0
  5
8A30
 10
125.470
 20
254.789
 30
0.000000
  70
    32
  0
VERTEX
  8
0
  5
8A31
 10
125.464
 20
254.827
 30
0.000000
  70
    32
  0
VERTEX
  8
0
  5
8A32
 10
125.457
 20
254.864
 30
0.000000
  70
    32
  0
VERTEX
  8
0
  5
8A33
 10
125.450
 20
254.902
 30
0.000000
  70
    32
  0
VERTEX
  8
0
  5
8A34
 10
125.442
 20
254.939
 30
0.000000
  70
    32
  0
VERTEX
  8
0
  5
8A35
 10
125.433
 20
254.976
 30
0.000000
  70
    32
  0
VERTEX
  8
0
  5
8A36
 10
125.424
 20
255.012
 30
0.000000
  70
    32
  0
VERTEX
  8
0
  5
8A37
 10
125.414
 20
255.048
 30
0.000000
  70
    32
  0
VERTEX
  8
0
  5
8A38
 10
125.404
 20
255.084
 30
0.000000
  70
    32
  0
VERTEX
  8
0
  5
8A39
 10
125.393
 20
255.119
 30
0.000000
  70
    32
  0
VERTEX
  8
0
  5
8A3A
 10
125.382
 20
255.154
 30
0.000000
  70
    32
  0
VERTEX
  8
0
  5
8A3B
 10
125.370
 20
255.189
 30
0.000000
  70
    32
  0
VERTEX
  8
0
  5
8A3C
 10
125.358
 20
255.223
 30
0.000000
  70
    32
  0
VERTEX
  8
0
  5
8A3D
 10
125.345
 20
255.256
 30
0.000000
  70
    32
  0
VERTEX
  8
0
  5
8A3E
 10
125.331
 20
255.289
 30
0.000000
  70
    32
  0
VERTEX
  8
0
  5
8A3F
 10
125.318
 20
255.321
 30
0.000000
  70
    32
  0
VERTEX
  8
0
  5
8A40
 10
125.303
 20
255.353
 30
0.000000
  70
    32
  0
VERTEX
  8
0
  5
8A41
 10
125.288
 20
255.384
 30
0.000000
  70
    32
  0
VERTEX
  8
0
  5
8A42
 10
125.273
 20
255.415
 30
0.000000
  70
    32
  0
VERTEX
  8
0
  5
8A43
 10
125.257
 20
255.445
 30
0.000000
  70
    32
  0
VERTEX
  8
0
  5
8A44
 10
125.241
 20
255.474
 30
0.000000
  70
    32
  0
VERTEX
  8
0
  5
8A45
 10
125.224
 20
255.503
 30
0.000000
  70
    32
  0
VERTEX
  8
0
  5
8A46
 10
125.207
 20
255.531
 30
0.000000
  70
    32
  0
VERTEX
  8
0
  5
8A47
 10
125.190
 20
255.559
 30
0.000000
  70
    32
  0
VERTEX
  8
0
  5
8A48
 10
125.172
 20
255.586
 30
0.000000
  70
    32
  0
VERTEX
  8
0
  5
8A49
 10
125.153
 20
255.612
 30
0.000000
  70
    32
  0
VERTEX
  8
0
  5
8A4A
 10
125.134
 20
255.637
 30
0.000000
  70
    32
  0
VERTEX
  8
0
  5
8A4B
 10
125.115
 20
255.661
 30
0.000000
  70
    32
  0
VERTEX
  8
0
  5
8A4C
 10
125.096
 20
255.685
 30
0.000000
  70
    32
  0
VERTEX
  8
0
  5
8A4D
 10
125.076
 20
255.708
 30
0.000000
  70
    32
  0
VERTEX
  8
0
  5
8A4E
 10
125.056
 20
255.730
 30
0.000000
  70
    32
  0
VERTEX
  8
0
  5
8A4F
 10
125.035
 20
255.752
 30
0.000000
  70
    32
  0
VERTEX
  8
0
  5
8A50
 10
125.014
 20
255.772
 30
0.000000
  70
    32
  0
VERTEX
  8
0
  5
8A51
 10
124.993
 20
255.792
 30
0.000000
  70
    32
  0
VERTEX
  8
0
  5
8A52
 10
124.971
 20
255.811
 30
0.000000
  70
    32
  0
VERTEX
  8
0
  5
8A53
 10
124.950
 20
255.829
 30
0.000000
  70
    32
  0
VERTEX
  8
0
  5
8A54
 10
124.928
 20
255.846
 30
0.000000
  70
    32
  0
VERTEX
  8
0
  5
8A55
 10
124.905
 20
255.863
 30
0.000000
  70
    32
  0
VERTEX
  8
0
  5
8A56
 10
124.883
 20
255.878
 30
0.000000
  70
    32
  0
VERTEX
  8
0
  5
8A57
 10
124.860
 20
255.893
 30
0.000000
  70
    32
  0
VERTEX
  8
0
  5
8A58
 10
124.837
 20
255.906
 30
0.000000
  70
    32
  0
VERTEX
  8
0
  5
8A59
 10
124.814
 20
255.919
 30
0.000000
  70
    32
  0
VERTEX
  8
0
  5
8A5A
 10
124.790
 20
255.931
 30
0.000000
  70
    32
  0
VERTEX
  8
0
  5
8A5B
 10
124.767
 20
255.942
 30
0.000000
  70
    32
  0
VERTEX
  8
0
  5
8A5C
 10
124.743
 20
255.952
 30
0.000000
  70
    32
  0
VERTEX
  8
0
  5
8A5D
 10
124.719
 20
255.961
 30
0.000000
  70
    32
  0
VERTEX
  8
0
  5
8A5E
 10
124.695
 20
255.969
 30
0.000000
  70
    32
  0
VERTEX
  8
0
  5
8A5F
 10
124.671
 20
255.976
 30
0.000000
  70
    32
  0
VERTEX
  8
0
  5
8A60
 10
124.647
 20
255.983
 30
0.000000
  70
    32
  0
VERTEX
  8
0
  5
8A61
 10
124.622
 20
255.988
 30
0.000000
  70
    32
  0
VERTEX
  8
0
  5
8A62
 10
124.598
 20
255.992
 30
0.000000
  70
    32
  0
VERTEX
  8
0
  5
8A63
 10
124.574
 20
255.996
 30
0.000000
  70
    32
  0
VERTEX
  8
0
  5
8A64
 10
124.549
 20
255.998
 30
0.000000
  70
    32
  0
VERTEX
  8
0
  5
8A65
 10
124.525
 20
256.000
 30
0.000000
  70
    32
  0
VERTEX
  8
0
  5
8A66
 10
124.500
 20
256.000
 30
0.000000
  70
    32
  0
SEQEND
  8
0
  5
8A67
  0
POLYLINE
  5
844A
  8
0
 10
101.5
 20
255.99999898672095
 30
0.0
 66
     1
 70
     8
  0
VERTEX
  8
0
  5
8A68
 10
101.500
 20
256.000
 30
0.000000
  70
    32
  0
VERTEX
  8
0
  5
8A69
 10
101.475
 20
256.000
 30
0.000000
  70
    32
  0
VERTEX
  8
0
  5
8A6A
 10
101.451
 20
255.998
 30
0.000000
  70
    32
  0
VERTEX
  8
0
  5
8A6B
 10
101.426
 20
255.996
 30
0.000000
  70
    32
  0
VERTEX
  8
0
  5
8A6C
 10
101.402
 20
255.992
 30
0.000000
  70
    32
  0
VERTEX
  8
0
  5
8A6D
 10
101.378
 20
255.988
 30
0.000000
  70
    32
  0
VERTEX
  8
0
  5
8A6E
 10
101.353
 20
255.983
 30
0.000000
  70
    32
  0
VERTEX
  8
0
  5
8A6F
 10
101.329
 20
255.976
 30
0.000000
  70
    32
  0
VERTEX
  8
0
  5
8A70
 10
101.305
 20
255.969
 30
0.000000
  70
    32
  0
VERTEX
  8
0
  5
8A71
 10
101.281
 20
255.961
 30
0.000000
  70
    32
  0
VERTEX
  8
0
  5
8A72
 10
101.257
 20
255.952
 30
0.000000
  70
    32
  0
VERTEX
  8
0
  5
8A73
 10
101.233
 20
255.942
 30
0.000000
  70
    32
  0
VERTEX
  8
0
  5
8A74
 10
101.210
 20
255.931
 30
0.000000
  70
    32
  0
VERTEX
  8
0
  5
8A75
 10
101.186
 20
255.919
 30
0.000000
  70
    32
  0
VERTEX
  8
0
  5
8A76
 10
101.163
 20
255.906
 30
0.000000
  70
    32
  0
VERTEX
  8
0
  5
8A77
 10
101.140
 20
255.893
 30
0.000000
  70
    32
  0
VERTEX
  8
0
  5
8A78
 10
101.117
 20
255.878
 30
0.000000
  70
    32
  0
VERTEX
  8
0
  5
8A79
 10
101.095
 20
255.863
 30
0.000000
  70
    32
  0
VERTEX
  8
0
  5
8A7A
 10
101.072
 20
255.846
 30
0.000000
  70
    32
  0
VERTEX
  8
0
  5
8A7B
 10
101.050
 20
255.829
 30
0.000000
  70
    32
  0
VERTEX
  8
0
  5
8A7C
 10
101.029
 20
255.811
 30
0.000000
  70
    32
  0
VERTEX
  8
0
  5
8A7D
 10
101.007
 20
255.792
 30
0.000000
  70
    32
  0
VERTEX
  8
0
  5
8A7E
 10
100.986
 20
255.772
 30
0.000000
  70
    32
  0
VERTEX
  8
0
  5
8A7F
 10
100.965
 20
255.752
 30
0.000000
  70
    32
  0
VERTEX
  8
0
  5
8A80
 10
100.944
 20
255.730
 30
0.000000
  70
    32
  0
VERTEX
  8
0
  5
8A81
 10
100.924
 20
255.708
 30
0.000000
  70
    32
  0
VERTEX
  8
0
  5
8A82
 10
100.904
 20
255.685
 30
0.000000
  70
    32
  0
VERTEX
  8
0
  5
8A83
 10
100.885
 20
255.661
 30
0.000000
  70
    32
  0
VERTEX
  8
0
  5
8A84
 10
100.866
 20
255.637
 30
0.000000
  70
    32
  0
VERTEX
  8
0
  5
8A85
 10
100.847
 20
255.612
 30
0.000000
  70
    32
  0
VERTEX
  8
0
  5
8A86
 10
100.828
 20
255.586
 30
0.000000
  70
    32
  0
VERTEX
  8
0
  5
8A87
 10
100.810
 20
255.559
 30
0.000000
  70
    32
  0
VERTEX
  8
0
  5
8A88
 10
100.793
 20
255.531
 30
0.000000
  70
    32
  0
VERTEX
  8
0
  5
8A89
 10
100.776
 20
255.503
 30
0.000000
  70
    32
  0
VERTEX
  8
0
  5
8A8A
 10
100.759
 20
255.474
 30
0.000000
  70
    32
  0
VERTEX
  8
0
  5
8A8B
 10
100.743
 20
255.445
 30
0.000000
  70
    32
  0
VERTEX
  8
0
  5
8A8C
 10
100.727
 20
255.415
 30
0.000000
  70
    32
  0
VERTEX
  8
0
  5
8A8D
 10
100.712
 20
255.384
 30
0.000000
  70
    32
  0
VERTEX
  8
0
  5
8A8E
 10
100.697
 20
255.353
 30
0.000000
  70
    32
  0
VERTEX
  8
0
  5
8A8F
 10
100.682
 20
255.321
 30
0.000000
  70
    32
  0
VERTEX
  8
0
  5
8A90
 10
100.669
 20
255.289
 30
0.000000
  70
    32
  0
VERTEX
  8
0
  5
8A91
 10
100.655
 20
255.256
 30
0.000000
  70
    32
  0
VERTEX
  8
0
  5
8A92
 10
100.642
 20
255.223
 30
0.000000
  70
    32
  0
VERTEX
  8
0
  5
8A93
 10
100.630
 20
255.189
 30
0.000000
  70
    32
  0
VERTEX
  8
0
  5
8A94
 10
100.618
 20
255.154
 30
0.000000
  70
    32
  0
VERTEX
  8
0
  5
8A95
 10
100.607
 20
255.119
 30
0.000000
  70
    32
  0
VERTEX
  8
0
  5
8A96
 10
100.596
 20
255.084
 30
0.000000
  70
    32
  0
VERTEX
  8
0
  5
8A97
 10
100.586
 20
255.048
 30
0.000000
  70
    32
  0
VERTEX
  8
0
  5
8A98
 10
100.576
 20
255.012
 30
0.000000
  70
    32
  0
VERTEX
  8
0
  5
8A99
 10
100.567
 20
254.976
 30
0.000000
  70
    32
  0
VERTEX
  8
0
  5
8A9A
 10
100.558
 20
254.939
 30
0.000000
  70
    32
  0
VERTEX
  8
0
  5
8A9B
 10
100.550
 20
254.902
 30
0.000000
  70
    32
  0
VERTEX
  8
0
  5
8A9C
 10
100.543
 20
254.864
 30
0.000000
  70
    32
  0
VERTEX
  8
0
  5
8A9D
 10
100.536
 20
254.827
 30
0.000000
  70
    32
  0
VERTEX
  8
0
  5
8A9E
 10
100.530
 20
254.789
 30
0.000000
  70
    32
  0
VERTEX
  8
0
  5
8A9F
 10
100.524
 20
254.751
 30
0.000000
  70
    32
  0
VERTEX
  8
0
  5
8AA0
 10
100.519
 20
254.712
 30
0.000000
  70
    32
  0
VERTEX
  8
0
  5
8AA1
 10
100.515
 20
254.674
 30
0.000000
  70
    32
  0
VERTEX
  8
0
  5
8AA2
 10
100.511
 20
254.635
 30
0.000000
  70
    32
  0
VERTEX
  8
0
  5
8AA3
 10
100.508
 20
254.596
 30
0.000000
  70
    32
  0
VERTEX
  8
0
  5
8AA4
 10
100.505
 20
254.557
 30
0.000000
  70
    32
  0
VERTEX
  8
0
  5
8AA5
 10
100.503
 20
254.518
 30
0.000000
  70
    32
  0
VERTEX
  8
0
  5
8AA6
 10
100.501
 20
254.479
 30
0.000000
  70
    32
  0
VERTEX
  8
0
  5
8AA7
 10
100.500
 20
254.439
 30
0.000000
  70
    32
  0
VERTEX
  8
0
  5
8AA8
 10
100.500
 20
254.400
 30
0.000000
  70
    32
  0
VERTEX
  8
0
  5
8AA9
 10
100.500
 20
254.361
 30
0.000000
  70
    32
  0
VERTEX
  8
0
  5
8AAA
 10
100.501
 20
254.321
 30
0.000000
  70
    32
  0
VERTEX
  8
0
  5
8AAB
 10
100.503
 20
254.282
 30
0.000000
  70
    32
  0
VERTEX
  8
0
  5
8AAC
 10
100.505
 20
254.243
 30
0.000000
  70
    32
  0
VERTEX
  8
0
  5
8AAD
 10
100.508
 20
254.204
 30
0.000000
  70
    32
  0
VERTEX
  8
0
  5
8AAE
 10
100.511
 20
254.165
 30
0.000000
  70
    32
  0
VERTEX
  8
0
  5
8AAF
 10
100.515
 20
254.126
 30
0.000000
  70
    32
  0
VERTEX
  8
0
  5
8AB0
 10
100.519
 20
254.088
 30
0.000000
  70
    32
  0
VERTEX
  8
0
  5
8AB1
 10
100.524
 20
254.049
 30
0.000000
  70
    32
  0
VERTEX
  8
0
  5
8AB2
 10
100.530
 20
254.011
 30
0.000000
  70
    32
  0
VERTEX
  8
0
  5
8AB3
 10
100.536
 20
253.973
 30
0.000000
  70
    32
  0
VERTEX
  8
0
  5
8AB4
 10
100.543
 20
253.936
 30
0.000000
  70
    32
  0
VERTEX
  8
0
  5
8AB5
 10
100.550
 20
253.898
 30
0.000000
  70
    32
  0
VERTEX
  8
0
  5
8AB6
 10
100.558
 20
253.861
 30
0.000000
  70
    32
  0
VERTEX
  8
0
  5
8AB7
 10
100.567
 20
253.824
 30
0.000000
  70
    32
  0
VERTEX
  8
0
  5
8AB8
 10
100.576
 20
253.788
 30
0.000000
  70
    32
  0
VERTEX
  8
0
  5
8AB9
 10
100.586
 20
253.752
 30
0.000000
  70
    32
  0
VERTEX
  8
0
  5
8ABA
 10
100.596
 20
253.716
 30
0.000000
  70
    32
  0
VERTEX
  8
0
  5
8ABB
 10
100.607
 20
253.681
 30
0.000000
  70
    32
  0
VERTEX
  8
0
  5
8ABC
 10
100.618
 20
253.646
 30
0.000000
  70
    32
  0
VERTEX
  8
0
  5
8ABD
 10
100.630
 20
253.611
 30
0.000000
  70
    32
  0
VERTEX
  8
0
  5
8ABE
 10
100.642
 20
253.577
 30
0.000000
  70
    32
  0
VERTEX
  8
0
  5
8ABF
 10
100.655
 20
253.544
 30
0.000000
  70
    32
  0
VERTEX
  8
0
  5
8AC0
 10
100.669
 20
253.511
 30
0.000000
  70
    32
  0
VERTEX
  8
0
  5
8AC1
 10
100.682
 20
253.479
 30
0.000000
  70
    32
  0
VERTEX
  8
0
  5
8AC2
 10
100.697
 20
253.447
 30
0.000000
  70
    32
  0
VERTEX
  8
0
  5
8AC3
 10
100.712
 20
253.416
 30
0.000000
  70
    32
  0
VERTEX
  8
0
  5
8AC4
 10
100.727
 20
253.385
 30
0.000000
  70
    32
  0
VERTEX
  8
0
  5
8AC5
 10
100.743
 20
253.355
 30
0.000000
  70
    32
  0
VERTEX
  8
0
  5
8AC6
 10
100.759
 20
253.326
 30
0.000000
  70
    32
  0
VERTEX
  8
0
  5
8AC7
 10
100.776
 20
253.297
 30
0.000000
  70
    32
  0
VERTEX
  8
0
  5
8AC8
 10
100.793
 20
253.269
 30
0.000000
  70
    32
  0
VERTEX
  8
0
  5
8AC9
 10
100.810
 20
253.241
 30
0.000000
  70
    32
  0
VERTEX
  8
0
  5
8ACA
 10
100.828
 20
253.214
 30
0.000000
  70
    32
  0
VERTEX
  8
0
  5
8ACB
 10
100.847
 20
253.188
 30
0.000000
  70
    32
  0
VERTEX
  8
0
  5
8ACC
 10
100.866
 20
253.163
 30
0.000000
  70
    32
  0
VERTEX
  8
0
  5
8ACD
 10
100.885
 20
253.139
 30
0.000000
  70
    32
  0
VERTEX
  8
0
  5
8ACE
 10
100.904
 20
253.115
 30
0.000000
  70
    32
  0
VERTEX
  8
0
  5
8ACF
 10
100.924
 20
253.092
 30
0.000000
  70
    32
  0
VERTEX
  8
0
  5
8AD0
 10
100.944
 20
253.070
 30
0.000000
  70
    32
  0
VERTEX
  8
0
  5
8AD1
 10
100.965
 20
253.048
 30
0.000000
  70
    32
  0
VERTEX
  8
0
  5
8AD2
 10
100.986
 20
253.028
 30
0.000000
  70
    32
  0
VERTEX
  8
0
  5
8AD3
 10
101.007
 20
253.008
 30
0.000000
  70
    32
  0
VERTEX
  8
0
  5
8AD4
 10
101.029
 20
252.989
 30
0.000000
  70
    32
  0
VERTEX
  8
0
  5
8AD5
 10
101.050
 20
252.971
 30
0.000000
  70
    32
  0
VERTEX
  8
0
  5
8AD6
 10
101.072
 20
252.954
 30
0.000000
  70
    32
  0
VERTEX
  8
0
  5
8AD7
 10
101.095
 20
252.937
 30
0.000000
  70
    32
  0
VERTEX
  8
0
  5
8AD8
 10
101.117
 20
252.922
 30
0.000000
  70
    32
  0
VERTEX
  8
0
  5
8AD9
 10
101.140
 20
252.907
 30
0.000000
  70
    32
  0
VERTEX
  8
0
  5
8ADA
 10
101.163
 20
252.894
 30
0.000000
  70
    32
  0
VERTEX
  8
0
  5
8ADB
 10
101.186
 20
252.881
 30
0.000000
  70
    32
  0
VERTEX
  8
0
  5
8ADC
 10
101.210
 20
252.869
 30
0.000000
  70
    32
  0
VERTEX
  8
0
  5
8ADD
 10
101.233
 20
252.858
 30
0.000000
  70
    32
  0
VERTEX
  8
0
  5
8ADE
 10
101.257
 20
252.848
 30
0.000000
  70
    32
  0
VERTEX
  8
0
  5
8ADF
 10
101.281
 20
252.839
 30
0.000000
  70
    32
  0
VERTEX
  8
0
  5
8AE0
 10
101.305
 20
252.831
 30
0.000000
  70
    32
  0
VERTEX
  8
0
  5
8AE1
 10
101.329
 20
252.824
 30
0.000000
  70
    32
  0
VERTEX
  8
0
  5
8AE2
 10
101.353
 20
252.817
 30
0.000000
  70
    32
  0
VERTEX
  8
0
  5
8AE3
 10
101.378
 20
252.812
 30
0.000000
  70
    32
  0
VERTEX
  8
0
  5
8AE4
 10
101.402
 20
252.808
 30
0.000000
  70
    32
  0
VERTEX
  8
0
  5
8AE5
 10
101.426
 20
252.804
 30
0.000000
  70
    32
  0
VERTEX
  8
0
  5
8AE6
 10
101.451
 20
252.802
 30
0.000000
  70
    32
  0
VERTEX
  8
0
  5
8AE7
 10
101.475
 20
252.800
 30
0.000000
  70
    32
  0
VERTEX
  8
0
  5
8AE8
 10
101.500
 20
252.800
 30
0.000000
  70
    32
  0
SEQEND
  8
0
  5
8AE9
  0
LINE
  5
844B
  8
0
 10
100.4999998137355
 20
219.79999965429309
 30
0.0
 11
100.8000002354383
 21
219.4999983012676
 31
0.0
  0
LINE
  5
844C
  8
0
 10
125.1999997645616
 20
219.4999983012676
 30
0.0
 11
125.5000001862645
 21
219.79999965429309
 31
0.0
  0
LINE
  5
844D
  8
0
 10
100.4999998137355
 20
220.99999761581421
 30
0.0
 11
100.4999998137355
 21
219.79999965429309
 31
0.0
  0
LINE
  5
844E
  8
0
 10
125.5000001862645
 20
219.79999965429309
 30
0.0
 11
125.5000001862645
 21
220.99999761581421
 31
0.0
  0
LINE
  5
844F
  8
0
 10
125.5000001862645
 20
256.99999979138369
 30
0.0
 11
125.1999997645616
 21
257.29999928176397
 31
0.0
  0
LINE
  5
8450
  8
0
 10
100.8000002354383
 20
257.29999928176397
 30
0.0
 11
100.4999998137355
 21
256.99999979138369
 31
0.0
  0
LINE
  5
8451
  8
0
 10
100.4999998137355
 20
237.79999887943271
 30
0.0
 11
100.8000002354383
 21
237.49999752640721
 31
0.0
  0
LINE
  5
8452
  8
0
 10
125.1999997645616
 20
237.49999752640721
 30
0.0
 11
125.5000001862645
 21
237.79999887943271
 31
0.0
  0
LINE
  5
8453
  8
0
 10
125.5000001862645
 20
228.99999892711639
 30
0.0
 11
125.1999997645616
 21
229.3000002801418
 31
0.0
  0
LINE
  5
8454
  8
0
 10
100.8000002354383
 20
229.3000002801418
 30
0.0
 11
100.4999998137355
 21
228.99999892711639
 31
0.0
  0
LINE
  5
8455
  8
0
 10
100.4999998137355
 20
242.99999749660489
 30
0.0
 11
100.4999998137355
 21
241.9999991953373
 31
0.0
  0
LINE
  5
8456
  8
0
 10
125.5000001862645
 20
241.9999991953373
 30
0.0
 11
125.5000001862645
 21
242.99999749660489
 31
0.0
  0
LINE
  5
8457
  8
0
 10
100.4999998137355
 20
251.79999931156641
 30
0.0
 11
100.8000002354383
 21
251.49999982118609
 31
0.0
  0
LINE
  5
8458
  8
0
 10
125.1999997645616
 20
251.49999982118609
 30
0.0
 11
125.5000001862645
 21
251.79999931156641
 31
0.0
  0
LINE
  5
8459
  8
0
 10
100.4999998137355
 20
256.99999979138369
 30
0.0
 11
100.4999998137355
 21
255.999999627471
 31
0.0
  0
LINE
  5
845A
  8
0
 10
125.5000001862645
 20
255.999999627471
 30
0.0
 11
125.5000001862645
 21
256.99999979138369
 31
0.0
  0
LINE
  5
845B
  8
0
 10
125.5000001862645
 20
242.99999749660489
 30
0.0
 11
125.1999997645616
 21
243.29999884963041
 31
0.0
  0
LINE
  5
845C
  8
0
 10
100.8000002354383
 20
243.29999884963041
 30
0.0
 11
100.4999998137355
 21
242.99999749660489
 31
0.0
  0
LINE
  5
845D
  8
0
 10
100.4999998137355
 20
252.7999994754791
 30
0.0
 11
100.4999998137355
 21
251.79999931156641
 31
0.0
  0
LINE
  5
845E
  8
0
 10
125.5000001862645
 20
251.79999931156641
 30
0.0
 11
125.5000001862645
 21
252.7999994754791
 31
0.0
  0
LINE
  5
845F
  8
0
 10
100.4999998137355
 20
224.79999861121181
 30
0.0
 11
100.4999998137355
 21
222.3499981164932
 31
0.0
  0
LINE
  5
8460
  8
0
 10
125.5000001862645
 20
222.3499981164932
 30
0.0
 11
125.5000001862645
 21
224.79999861121181
 31
0.0
  0
LINE
  5
8461
  8
0
 10
100.4999998137355
 20
228.99999892711639
 30
0.0
 11
100.4999998137355
 21
228.0000006258488
 31
0.0
  0
LINE
  5
8462
  8
0
 10
125.5000001862645
 20
228.0000006258488
 30
0.0
 11
125.5000001862645
 21
228.99999892711639
 31
0.0
  0
LINE
  5
8463
  8
0
 10
100.4999998137355
 20
238.7999971807003
 30
0.0
 11
100.4999998137355
 21
237.79999887943271
 31
0.0
  0
LINE
  5
8464
  8
0
 10
125.5000001862645
 20
237.79999887943271
 30
0.0
 11
125.5000001862645
 21
238.7999971807003
 31
0.0
  0
LINE
  5
8465
  8
0
 10
125.1999997645616
 20
257.29999928176397
 30
0.0
 11
125.1999997645616
 21
269.49999904632568
 31
0.0
  0
LINE
  5
8466
  8
0
 10
100.8000002354383
 20
269.49999904632568
 30
0.0
 11
100.8000002354383
 21
257.29999928176397
 31
0.0
  0
LINE
  5
8467
  8
0
 10
125.1999997645616
 20
229.3000002801418
 30
0.0
 11
125.1999997645616
 21
237.49999752640721
 31
0.0
  0
LINE
  5
8468
  8
0
 10
100.8000002354383
 20
237.49999752640721
 30
0.0
 11
100.8000002354383
 21
229.3000002801418
 31
0.0
  0
LINE
  5
8469
  8
0
 10
100.8000002354383
 20
218.6999996602535
 30
0.0
 11
100.9999998956919
 21
218.5
 31
0.0
  0
LINE
  5
846A
  8
0
 10
125.0000001043081
 20
218.5
 30
0.0
 11
125.1999997645616
 21
218.6999996602535
 31
0.0
  0
LINE
  5
846B
  8
0
 10
125.1999997645616
 20
218.6999996602535
 30
0.0
 11
125.1999997645616
 21
219.4999983012676
 31
0.0
  0
LINE
  5
846C
  8
0
 10
100.8000002354383
 20
219.4999983012676
 30
0.0
 11
100.8000002354383
 21
218.6999996602535
 31
0.0
  0
LINE
  5
846D
  8
0
 10
125.1999997645616
 20
243.29999884963041
 30
0.0
 11
125.1999997645616
 21
251.49999982118609
 31
0.0
  0
LINE
  5
846E
  8
0
 10
100.8000002354383
 20
251.49999982118609
 30
0.0
 11
100.8000002354383
 21
243.29999884963041
 31
0.0
  0
LINE
  5
846F
  8
0
 10
101.0499998107552
 20
222.3499981164932
 30
0.0
 11
101.0499998107552
 21
220.99999761581421
 31
0.0
  0
LINE
  5
8470
  8
0
 10
124.9500001892447
 20
220.99999761581421
 30
0.0
 11
124.9500001892447
 21
222.3499981164932
 31
0.0
  0
LINE
  5
8471
  8
0
 10
125.1999997645616
 20
219.4999983012676
 30
0.0
 11
100.8000002354383
 21
219.4999983012676
 31
0.0
  0
LINE
  5
8472
  8
0
 10
100.4999998137355
 20
220.99999761581421
 30
0.0
 11
125.5000001862645
 21
220.99999761581421
 31
0.0
  0
LINE
  5
8473
  8
0
 10
125.1999997645616
 20
257.29999928176397
 30
0.0
 11
100.8000002354383
 21
257.29999928176397
 31
0.0
  0
LINE
  5
8474
  8
0
 10
125.1999997645616
 20
237.49999752640721
 30
0.0
 11
100.8000002354383
 21
237.49999752640721
 31
0.0
  0
LINE
  5
8475
  8
0
 10
125.1999997645616
 20
229.3000002801418
 30
0.0
 11
100.8000002354383
 21
229.3000002801418
 31
0.0
  0
LINE
  5
8476
  8
0
 10
100.4999998137353
 20
241.9999991953373
 30
0.0
 11
125.5000001862645
 21
241.9999991953373
 31
0.0
  0
LINE
  5
8477
  8
0
 10
125.1999997645616
 20
251.49999982118609
 30
0.0
 11
100.8000002354383
 21
251.49999982118609
 31
0.0
  0
LINE
  5
8478
  8
0
 10
100.4999998137355
 20
255.999999627471
 30
0.0
 11
125.5000001862645
 21
255.999999627471
 31
0.0
  0
LINE
  5
8479
  8
0
 10
125.1999997645616
 20
243.29999884963041
 30
0.0
 11
100.8000002354383
 21
243.29999884963041
 31
0.0
  0
LINE
  5
847A
  8
0
 10
100.4999998137355
 20
252.7999994754791
 30
0.0
 11
125.5000001862645
 21
252.79999947547921
 31
0.0
  0
LINE
  5
847B
  8
0
 10
100.4999998137355
 20
224.79999861121181
 30
0.0
 11
125.5000001862645
 21
224.79999861121181
 31
0.0
  0
LINE
  5
847C
  8
0
 10
100.4999998137355
 20
222.3499981164932
 30
0.0
 11
125.5000001862645
 21
222.3499981164932
 31
0.0
  0
LINE
  5
847D
  8
0
 10
100.4999998137353
 20
228.0000006258488
 30
0.0
 11
125.5000001862645
 21
228.0000006258488
 31
0.0
  0
LINE
  5
847E
  8
0
 10
100.4999998137353
 20
238.7999971807003
 30
0.0
 11
125.5000001862645
 21
238.7999971807003
 31
0.0
  0
LINE
  5
847F
  8
0
 10
125.0000001043081
 20
218.5
 30
0.0
 11
100.9999998956917
 21
218.5
 31
0.0
  0
POLYLINE
  5
8480
  8
0
 10
324.49999999999989
 20
224.79999898672096
 30
0.000000000000001
 66
     1
 70
     8
  0
VERTEX
  8
0
  5
8AEA
 10
324.500
 20
224.800
 30
1.00000e-015
  70
    32
  0
VERTEX
  8
0
  5
8AEB
 10
324.525
 20
224.800
 30
9.97245e-016
  70
    32
  0
VERTEX
  8
0
  5
8AEC
 10
324.549
 20
224.802
 30
9.93889e-016
  70
    32
  0
VERTEX
  8
0
  5
8AED
 10
324.574
 20
224.804
 30
9.89934e-016
  70
    32
  0
VERTEX
  8
0
  5
8AEE
 10
324.598
 20
224.808
 30
9.85383e-016
  70
    32
  0
VERTEX
  8
0
  5
8AEF
 10
324.622
 20
224.812
 30
9.80238e-016
  70
    32
  0
VERTEX
  8
0
  5
8AF0
 10
324.647
 20
224.817
 30
9.74503e-016
  70
    32
  0
VERTEX
  8
0
  5
8AF1
 10
324.671
 20
224.824
 30
9.68181e-016
  70
    32
  0
VERTEX
  8
0
  5
8AF2
 10
324.695
 20
224.831
 30
9.61276e-016
  70
    32
  0
VERTEX
  8
0
  5
8AF3
 10
324.719
 20
224.839
 30
9.53792e-016
  70
    32
  0
VERTEX
  8
0
  5
8AF4
 10
324.743
 20
224.848
 30
9.45733e-016
  70
    32
  0
VERTEX
  8
0
  5
8AF5
 10
324.767
 20
224.858
 30
9.37105e-016
  70
    32
  0
VERTEX
  8
0
  5
8AF6
 10
324.790
 20
224.869
 30
9.27912e-016
  70
    32
  0
VERTEX
  8
0
  5
8AF7
 10
324.814
 20
224.881
 30
9.18160e-016
  70
    32
  0
VERTEX
  8
0
  5
8AF8
 10
324.837
 20
224.894
 30
9.07855e-016
  70
    32
  0
VERTEX
  8
0
  5
8AF9
 10
324.860
 20
224.907
 30
8.97003e-016
  70
    32
  0
VERTEX
  8
0
  5
8AFA
 10
324.883
 20
224.922
 30
8.85611e-016
  70
    32
  0
VERTEX
  8
0
  5
8AFB
 10
324.905
 20
224.937
 30
8.73686e-016
  70
    32
  0
VERTEX
  8
0
  5
8AFC
 10
324.928
 20
224.954
 30
8.61234e-016
  70
    32
  0
VERTEX
  8
0
  5
8AFD
 10
324.950
 20
224.971
 30
8.48263e-016
  70
    32
  0
VERTEX
  8
0
  5
8AFE
 10
324.971
 20
224.989
 30
8.34782e-016
  70
    32
  0
VERTEX
  8
0
  5
8AFF
 10
324.993
 20
225.008
 30
8.20797e-016
  70
    32
  0
VERTEX
  8
0
  5
8B00
 10
325.014
 20
225.028
 30
8.06318e-016
  70
    32
  0
VERTEX
  8
0
  5
8B01
 10
325.035
 20
225.048
 30
7.91354e-016
  70
    32
  0
VERTEX
  8
0
  5
8B02
 10
325.056
 20
225.070
 30
7.75913e-016
  70
    32
  0
VERTEX
  8
0
  5
8B03
 10
325.076
 20
225.092
 30
7.60004e-016
  70
    32
  0
VERTEX
  8
0
  5
8B04
 10
325.096
 20
225.115
 30
7.43638e-016
  70
    32
  0
VERTEX
  8
0
  5
8B05
 10
325.115
 20
225.139
 30
7.26823e-016
  70
    32
  0
VERTEX
  8
0
  5
8B06
 10
325.134
 20
225.163
 30
7.09571e-016
  70
    32
  0
VERTEX
  8
0
  5
8B07
 10
325.153
 20
225.188
 30
6.91892e-016
  70
    32
  0
VERTEX
  8
0
  5
8B08
 10
325.172
 20
225.214
 30
6.73795e-016
  70
    32
  0
VERTEX
  8
0
  5
8B09
 10
325.190
 20
225.241
 30
6.55293e-016
  70
    32
  0
VERTEX
  8
0
  5
8B0A
 10
325.207
 20
225.269
 30
6.36396e-016
  70
    32
  0
VERTEX
  8
0
  5
8B0B
 10
325.224
 20
225.297
 30
6.17116e-016
  70
    32
  0
VERTEX
  8
0
  5
8B0C
 10
325.241
 20
225.326
 30
5.97464e-016
  70
    32
  0
VERTEX
  8
0
  5
8B0D
 10
325.257
 20
225.355
 30
5.77452e-016
  70
    32
  0
VERTEX
  8
0
  5
8B0E
 10
325.273
 20
225.385
 30
5.57092e-016
  70
    32
  0
VERTEX
  8
0
  5
8B0F
 10
325.288
 20
225.416
 30
5.36397e-016
  70
    32
  0
VERTEX
  8
0
  5
8B10
 10
325.303
 20
225.447
 30
5.15379e-016
  70
    32
  0
VERTEX
  8
0
  5
8B11
 10
325.318
 20
225.479
 30
4.94050e-016
  70
    32
  0
VERTEX
  8
0
  5
8B12
 10
325.331
 20
225.511
 30
4.72423e-016
  70
    32
  0
VERTEX
  8
0
  5
8B13
 10
325.345
 20
225.544
 30
4.50512e-016
  70
    32
  0
VERTEX
  8
0
  5
8B14
 10
325.358
 20
225.577
 30
4.28330e-016
  70
    32
  0
VERTEX
  8
0
  5
8B15
 10
325.370
 20
225.611
 30
4.05889e-016
  70
    32
  0
VERTEX
  8
0
  5
8B16
 10
325.382
 20
225.646
 30
3.83205e-016
  70
    32
  0
VERTEX
  8
0
  5
8B17
 10
325.393
 20
225.681
 30
3.60289e-016
  70
    32
  0
VERTEX
  8
0
  5
8B18
 10
325.404
 20
225.716
 30
3.37156e-016
  70
    32
  0
VERTEX
  8
0
  5
8B19
 10
325.414
 20
225.752
 30
3.13820e-016
  70
    32
  0
VERTEX
  8
0
  5
8B1A
 10
325.424
 20
225.788
 30
2.90295e-016
  70
    32
  0
VERTEX
  8
0
  5
8B1B
 10
325.433
 20
225.824
 30
2.66596e-016
  70
    32
  0
VERTEX
  8
0
  5
8B1C
 10
325.442
 20
225.861
 30
2.42735e-016
  70
    32
  0
VERTEX
  8
0
  5
8B1D
 10
325.450
 20
225.898
 30
2.18729e-016
  70
    32
  0
VERTEX
  8
0
  5
8B1E
 10
325.457
 20
225.936
 30
1.94591e-016
  70
    32
  0
VERTEX
  8
0
  5
8B1F
 10
325.464
 20
225.973
 30
1.70335e-016
  70
    32
  0
VERTEX
  8
0
  5
8B20
 10
325.470
 20
226.011
 30
1.45977e-016
  70
    32
  0
VERTEX
  8
0
  5
8B21
 10
325.476
 20
226.049
 30
1.21531e-016
  70
    32
  0
VERTEX
  8
0
  5
8B22
 10
325.481
 20
226.088
 30
9.70118e-017
  70
    32
  0
VERTEX
  8
0
  5
8B23
 10
325.485
 20
226.126
 30
7.24341e-017
  70
    32
  0
VERTEX
  8
0
  5
8B24
 10
325.489
 20
226.165
 30
4.78128e-017
  70
    32
  0
VERTEX
  8
0
  5
8B25
 10
325.492
 20
226.204
 30
2.31627e-017
  70
    32
  0
VERTEX
  8
0
  5
8B26
 10
325.495
 20
226.243
 30
-1.50133e-018
  70
    32
  0
VERTEX
  8
0
  5
8B27
 10
325.497
 20
226.282
 30
-2.61645e-017
  70
    32
  0
VERTEX
  8
0
  5
8B28
 10
325.499
 20
226.321
 30
-5.08119e-017
  70
    32
  0
VERTEX
  8
0
  5
8B29
 10
325.500
 20
226.361
 30
-7.54287e-017
  70
    32
  0
VERTEX
  8
0
  5
8B2A
 10
325.500
 20
226.400
 30
-1.00000e-016
  70
    32
  0
VERTEX
  8
0
  5
8B2B
 10
325.500
 20
226.439
 30
-1.24511e-016
  70
    32
  0
VERTEX
  8
0
  5
8B2C
 10
325.499
 20
226.479
 30
-1.48947e-016
  70
    32
  0
VERTEX
  8
0
  5
8B2D
 10
325.497
 20
226.518
 30
-1.73294e-016
  70
    32
  0
VERTEX
  8
0
  5
8B2E
 10
325.495
 20
226.557
 30
-1.97536e-016
  70
    32
  0
VERTEX
  8
0
  5
8B2F
 10
325.492
 20
226.596
 30
-2.21659e-016
  70
    32
  0
VERTEX
  8
0
  5
8B30
 10
325.489
 20
226.635
 30
-2.45648e-016
  70
    32
  0
VERTEX
  8
0
  5
8B31
 10
325.485
 20
226.674
 30
-2.69490e-016
  70
    32
  0
VERTEX
  8
0
  5
8B32
 10
325.481
 20
226.712
 30
-2.93169e-016
  70
    32
  0
VERTEX
  8
0
  5
8B33
 10
325.476
 20
226.751
 30
-3.16671e-016
  70
    32
  0
VERTEX
  8
0
  5
8B34
 10
325.470
 20
226.789
 30
-3.39983e-016
  70
    32
  0
VERTEX
  8
0
  5
8B35
 10
325.464
 20
226.827
 30
-3.63090e-016
  70
    32
  0
VERTEX
  8
0
  5
8B36
 10
325.457
 20
226.864
 30
-3.85979e-016
  70
    32
  0
VERTEX
  8
0
  5
8B37
 10
325.450
 20
226.902
 30
-4.08635e-016
  70
    32
  0
VERTEX
  8
0
  5
8B38
 10
325.442
 20
226.939
 30
-4.31044e-016
  70
    32
  0
VERTEX
  8
0
  5
8B39
 10
325.433
 20
226.976
 30
-4.53194e-016
  70
    32
  0
VERTEX
  8
0
  5
8B3A
 10
325.424
 20
227.012
 30
-4.75071e-016
  70
    32
  0
VERTEX
  8
0
  5
8B3B
 10
325.414
 20
227.048
 30
-4.96662e-016
  70
    32
  0
VERTEX
  8
0
  5
8B3C
 10
325.404
 20
227.084
 30
-5.17954e-016
  70
    32
  0
VERTEX
  8
0
  5
8B3D
 10
325.393
 20
227.119
 30
-5.38934e-016
  70
    32
  0
VERTEX
  8
0
  5
8B3E
 10
325.382
 20
227.154
 30
-5.59589e-016
  70
    32
  0
VERTEX
  8
0
  5
8B3F
 10
325.370
 20
227.189
 30
-5.79907e-016
  70
    32
  0
VERTEX
  8
0
  5
8B40
 10
325.358
 20
227.223
 30
-5.99876e-016
  70
    32
  0
VERTEX
  8
0
  5
8B41
 10
325.345
 20
227.256
 30
-6.19483e-016
  70
    32
  0
VERTEX
  8
0
  5
8B42
 10
325.331
 20
227.289
 30
-6.38717e-016
  70
    32
  0
VERTEX
  8
0
  5
8B43
 10
325.318
 20
227.321
 30
-6.57567e-016
  70
    32
  0
VERTEX
  8
0
  5
8B44
 10
325.303
 20
227.353
 30
-6.76020e-016
  70
    32
  0
VERTEX
  8
0
  5
8B45
 10
325.288
 20
227.384
 30
-6.94066e-016
  70
    32
  0
VERTEX
  8
0
  5
8B46
 10
325.273
 20
227.415
 30
-7.11694e-016
  70
    32
  0
VERTEX
  8
0
  5
8B47
 10
325.257
 20
227.445
 30
-7.28894e-016
  70
    32
  0
VERTEX
  8
0
  5
8B48
 10
325.241
 20
227.474
 30
-7.45654e-016
  70
    32
  0
VERTEX
  8
0
  5
8B49
 10
325.224
 20
227.503
 30
-7.61965e-016
  70
    32
  0
VERTEX
  8
0
  5
8B4A
 10
325.207
 20
227.531
 30
-7.77817e-016
  70
    32
  0
VERTEX
  8
0
  5
8B4B
 10
325.190
 20
227.559
 30
-7.93201e-016
  70
    32
  0
VERTEX
  8
0
  5
8B4C
 10
325.172
 20
227.586
 30
-8.08107e-016
  70
    32
  0
VERTEX
  8
0
  5
8B4D
 10
325.153
 20
227.612
 30
-8.22526e-016
  70
    32
  0
VERTEX
  8
0
  5
8B4E
 10
325.134
 20
227.637
 30
-8.36450e-016
  70
    32
  0
VERTEX
  8
0
  5
8B4F
 10
325.115
 20
227.661
 30
-8.49870e-016
  70
    32
  0
VERTEX
  8
0
  5
8B50
 10
325.096
 20
227.685
 30
-8.62777e-016
  70
    32
  0
VERTEX
  8
0
  5
8B51
 10
325.076
 20
227.708
 30
-8.75166e-016
  70
    32
  0
VERTEX
  8
0
  5
8B52
 10
325.056
 20
227.730
 30
-8.87027e-016
  70
    32
  0
VERTEX
  8
0
  5
8B53
 10
325.035
 20
227.752
 30
-8.98353e-016
  70
    32
  0
VERTEX
  8
0
  5
8B54
 10
325.014
 20
227.772
 30
-9.09139e-016
  70
    32
  0
VERTEX
  8
0
  5
8B55
 10
324.993
 20
227.792
 30
-9.19377e-016
  70
    32
  0
VERTEX
  8
0
  5
8B56
 10
324.971
 20
227.811
 30
-9.29061e-016
  70
    32
  0
VERTEX
  8
0
  5
8B57
 10
324.950
 20
227.829
 30
-9.38185e-016
  70
    32
  0
VERTEX
  8
0
  5
8B58
 10
324.928
 20
227.846
 30
-9.46745e-016
  70
    32
  0
VERTEX
  8
0
  5
8B59
 10
324.905
 20
227.863
 30
-9.54734e-016
  70
    32
  0
VERTEX
  8
0
  5
8B5A
 10
324.883
 20
227.878
 30
-9.62148e-016
  70
    32
  0
VERTEX
  8
0
  5
8B5B
 10
324.860
 20
227.893
 30
-9.68982e-016
  70
    32
  0
VERTEX
  8
0
  5
8B5C
 10
324.837
 20
227.906
 30
-9.75233e-016
  70
    32
  0
VERTEX
  8
0
  5
8B5D
 10
324.814
 20
227.919
 30
-9.80896e-016
  70
    32
  0
VERTEX
  8
0
  5
8B5E
 10
324.790
 20
227.931
 30
-9.85969e-016
  70
    32
  0
VERTEX
  8
0
  5
8B5F
 10
324.767
 20
227.942
 30
-9.90447e-016
  70
    32
  0
VERTEX
  8
0
  5
8B60
 10
324.743
 20
227.952
 30
-9.94329e-016
  70
    32
  0
VERTEX
  8
0
  5
8B61
 10
324.719
 20
227.961
 30
-9.97612e-016
  70
    32
  0
VERTEX
  8
0
  5
8B62
 10
324.695
 20
227.969
 30
-1.00029e-015
  70
    32
  0
VERTEX
  8
0
  5
8B63
 10
324.671
 20
227.976
 30
-1.00237e-015
  70
    32
  0
VERTEX
  8
0
  5
8B64
 10
324.647
 20
227.983
 30
-1.00385e-015
  70
    32
  0
VERTEX
  8
0
  5
8B65
 10
324.622
 20
227.988
 30
-1.00472e-015
  70
    32
  0
VERTEX
  8
0
  5
8B66
 10
324.598
 20
227.992
 30
-1.00499e-015
  70
    32
  0
VERTEX
  8
0
  5
8B67
 10
324.574
 20
227.996
 30
-1.00465e-015
  70
    32
  0
VERTEX
  8
0
  5
8B68
 10
324.549
 20
227.998
 30
-1.00370e-015
  70
    32
  0
VERTEX
  8
0
  5
8B69
 10
324.525
 20
228.000
 30
-1.00215e-015
  70
    32
  0
VERTEX
  8
0
  5
8B6A
 10
324.500
 20
228.000
 30
-1.00000e-015
  70
    32
  0
SEQEND
  8
0
  5
8B6B
  0
POLYLINE
  5
8481
  8
0
 10
301.5
 20
227.99999898672112
 30
-0.000000000000001
 66
     1
 70
     8
  0
VERTEX
  8
0
  5
8B6C
 10
301.500
 20
228.000
 30
-1.00000e-015
  70
    32
  0
VERTEX
  8
0
  5
8B6D
 10
301.475
 20
228.000
 30
-9.99699e-016
  70
    32
  0
VERTEX
  8
0
  5
8B6E
 10
301.451
 20
227.998
 30
-9.98795e-016
  70
    32
  0
VERTEX
  8
0
  5
8B6F
 10
301.426
 20
227.996
 30
-9.97290e-016
  70
    32
  0
VERTEX
  8
0
  5
8B70
 10
301.402
 20
227.992
 30
-9.95185e-016
  70
    32
  0
VERTEX
  8
0
  5
8B71
 10
301.378
 20
227.988
 30
-9.92480e-016
  70
    32
  0
VERTEX
  8
0
  5
8B72
 10
301.353
 20
227.983
 30
-9.89177e-016
  70
    32
  0
VERTEX
  8
0
  5
8B73
 10
301.329
 20
227.976
 30
-9.85278e-016
  70
    32
  0
VERTEX
  8
0
  5
8B74
 10
301.305
 20
227.969
 30
-9.80785e-016
  70
    32
  0
VERTEX
  8
0
  5
8B75
 10
301.281
 20
227.961
 30
-9.75702e-016
  70
    32
  0
VERTEX
  8
0
  5
8B76
 10
301.257
 20
227.952
 30
-9.70031e-016
  70
    32
  0
VERTEX
  8
0
  5
8B77
 10
301.233
 20
227.942
 30
-9.63776e-016
  70
    32
  0
VERTEX
  8
0
  5
8B78
 10
301.210
 20
227.931
 30
-9.56940e-016
  70
    32
  0
VERTEX
  8
0
  5
8B79
 10
301.186
 20
227.919
 30
-9.49528e-016
  70
    32
  0
VERTEX
  8
0
  5
8B7A
 10
301.163
 20
227.906
 30
-9.41544e-016
  70
    32
  0
VERTEX
  8
0
  5
8B7B
 10
301.140
 20
227.893
 30
-9.32993e-016
  70
    32
  0
VERTEX
  8
0
  5
8B7C
 10
301.117
 20
227.878
 30
-9.23880e-016
  70
    32
  0
VERTEX
  8
0
  5
8B7D
 10
301.095
 20
227.863
 30
-9.14210e-016
  70
    32
  0
VERTEX
  8
0
  5
8B7E
 10
301.072
 20
227.846
 30
-9.03989e-016
  70
    32
  0
VERTEX
  8
0
  5
8B7F
 10
301.050
 20
227.829
 30
-8.93224e-016
  70
    32
  0
VERTEX
  8
0
  5
8B80
 10
301.029
 20
227.811
 30
-8.81921e-016
  70
    32
  0
VERTEX
  8
0
  5
8B81
 10
301.007
 20
227.792
 30
-8.70087e-016
  70
    32
  0
VERTEX
  8
0
  5
8B82
 10
300.986
 20
227.772
 30
-8.57729e-016
  70
    32
  0
VERTEX
  8
0
  5
8B83
 10
300.965
 20
227.752
 30
-8.44854e-016
  70
    32
  0
VERTEX
  8
0
  5
8B84
 10
300.944
 20
227.730
 30
-8.31470e-016
  70
    32
  0
VERTEX
  8
0
  5
8B85
 10
300.924
 20
227.708
 30
-8.17585e-016
  70
    32
  0
VERTEX
  8
0
  5
8B86
 10
300.904
 20
227.685
 30
-8.03208e-016
  70
    32
  0
VERTEX
  8
0
  5
8B87
 10
300.885
 20
227.661
 30
-7.88346e-016
  70
    32
  0
VERTEX
  8
0
  5
8B88
 10
300.866
 20
227.637
 30
-7.73010e-016
  70
    32
  0
VERTEX
  8
0
  5
8B89
 10
300.847
 20
227.612
 30
-7.57209e-016
  70
    32
  0
VERTEX
  8
0
  5
8B8A
 10
300.828
 20
227.586
 30
-7.40951e-016
  70
    32
  0
VERTEX
  8
0
  5
8B8B
 10
300.810
 20
227.559
 30
-7.24247e-016
  70
    32
  0
VERTEX
  8
0
  5
8B8C
 10
300.793
 20
227.531
 30
-7.07107e-016
  70
    32
  0
VERTEX
  8
0
  5
8B8D
 10
300.776
 20
227.503
 30
-6.89541e-016
  70
    32
  0
VERTEX
  8
0
  5
8B8E
 10
300.759
 20
227.474
 30
-6.71559e-016
  70
    32
  0
VERTEX
  8
0
  5
8B8F
 10
300.743
 20
227.445
 30
-6.53173e-016
  70
    32
  0
VERTEX
  8
0
  5
8B90
 10
300.727
 20
227.415
 30
-6.34393e-016
  70
    32
  0
VERTEX
  8
0
  5
8B91
 10
300.712
 20
227.384
 30
-6.15232e-016
  70
    32
  0
VERTEX
  8
0
  5
8B92
 10
300.697
 20
227.353
 30
-5.95699e-016
  70
    32
  0
VERTEX
  8
0
  5
8B93
 10
300.682
 20
227.321
 30
-5.75808e-016
  70
    32
  0
VERTEX
  8
0
  5
8B94
 10
300.669
 20
227.289
 30
-5.55570e-016
  70
    32
  0
VERTEX
  8
0
  5
8B95
 10
300.655
 20
227.256
 30
-5.34998e-016
  70
    32
  0
VERTEX
  8
0
  5
8B96
 10
300.642
 20
227.223
 30
-5.14103e-016
  70
    32
  0
VERTEX
  8
0
  5
8B97
 10
300.630
 20
227.189
 30
-4.92898e-016
  70
    32
  0
VERTEX
  8
0
  5
8B98
 10
300.618
 20
227.154
 30
-4.71397e-016
  70
    32
  0
VERTEX
  8
0
  5
8B99
 10
300.607
 20
227.119
 30
-4.49611e-016
  70
    32
  0
VERTEX
  8
0
  5
8B9A
 10
300.596
 20
227.084
 30
-4.27555e-016
  70
    32
  0
VERTEX
  8
0
  5
8B9B
 10
300.586
 20
227.048
 30
-4.05241e-016
  70
    32
  0
VERTEX
  8
0
  5
8B9C
 10
300.576
 20
227.012
 30
-3.82683e-016
  70
    32
  0
VERTEX
  8
0
  5
8B9D
 10
300.567
 20
226.976
 30
-3.59895e-016
  70
    32
  0
VERTEX
  8
0
  5
8B9E
 10
300.558
 20
226.939
 30
-3.36890e-016
  70
    32
  0
VERTEX
  8
0
  5
8B9F
 10
300.550
 20
226.902
 30
-3.13682e-016
  70
    32
  0
VERTEX
  8
0
  5
8BA0
 10
300.543
 20
226.864
 30
-2.90285e-016
  70
    32
  0
VERTEX
  8
0
  5
8BA1
 10
300.536
 20
226.827
 30
-2.66713e-016
  70
    32
  0
VERTEX
  8
0
  5
8BA2
 10
300.530
 20
226.789
 30
-2.42980e-016
  70
    32
  0
VERTEX
  8
0
  5
8BA3
 10
300.524
 20
226.751
 30
-2.19101e-016
  70
    32
  0
VERTEX
  8
0
  5
8BA4
 10
300.519
 20
226.712
 30
-1.95090e-016
  70
    32
  0
VERTEX
  8
0
  5
8BA5
 10
300.515
 20
226.674
 30
-1.70962e-016
  70
    32
  0
VERTEX
  8
0
  5
8BA6
 10
300.511
 20
226.635
 30
-1.46730e-016
  70
    32
  0
VERTEX
  8
0
  5
8BA7
 10
300.508
 20
226.596
 30
-1.22411e-016
  70
    32
  0
VERTEX
  8
0
  5
8BA8
 10
300.505
 20
226.557
 30
-9.80171e-017
  70
    32
  0
VERTEX
  8
0
  5
8BA9
 10
300.503
 20
226.518
 30
-7.35646e-017
  70
    32
  0
VERTEX
  8
0
  5
8BAA
 10
300.501
 20
226.479
 30
-4.90677e-017
  70
    32
  0
VERTEX
  8
0
  5
8BAB
 10
300.500
 20
226.439
 30
-2.45412e-017
  70
    32
  0
VERTEX
  8
0
  5
8BAC
 10
300.500
 20
226.400
 30
-1.07188e-030
  70
    32
  0
VERTEX
  8
0
  5
8BAD
 10
300.500
 20
226.361
 30
2.45412e-017
  70
    32
  0
VERTEX
  8
0
  5
8BAE
 10
300.501
 20
226.321
 30
4.90677e-017
  70
    32
  0
VERTEX
  8
0
  5
8BAF
 10
300.503
 20
226.282
 30
7.35646e-017
  70
    32
  0
VERTEX
  8
0
  5
8BB0
 10
300.505
 20
226.243
 30
9.80171e-017
  70
    32
  0
VERTEX
  8
0
  5
8BB1
 10
300.508
 20
226.204
 30
1.22411e-016
  70
    32
  0
VERTEX
  8
0
  5
8BB2
 10
300.511
 20
226.165
 30
1.46730e-016
  70
    32
  0
VERTEX
  8
0
  5
8BB3
 10
300.515
 20
226.126
 30
1.70962e-016
  70
    32
  0
VERTEX
  8
0
  5
8BB4
 10
300.519
 20
226.088
 30
1.95090e-016
  70
    32
  0
VERTEX
  8
0
  5
8BB5
 10
300.524
 20
226.049
 30
2.19101e-016
  70
    32
  0
VERTEX
  8
0
  5
8BB6
 10
300.530
 20
226.011
 30
2.42980e-016
  70
    32
  0
VERTEX
  8
0
  5
8BB7
 10
300.536
 20
225.973
 30
2.66713e-016
  70
    32
  0
VERTEX
  8
0
  5
8BB8
 10
300.543
 20
225.936
 30
2.90285e-016
  70
    32
  0
VERTEX
  8
0
  5
8BB9
 10
300.550
 20
225.898
 30
3.13682e-016
  70
    32
  0
VERTEX
  8
0
  5
8BBA
 10
300.558
 20
225.861
 30
3.36890e-016
  70
    32
  0
VERTEX
  8
0
  5
8BBB
 10
300.567
 20
225.824
 30
3.59895e-016
  70
    32
  0
VERTEX
  8
0
  5
8BBC
 10
300.576
 20
225.788
 30
3.82683e-016
  70
    32
  0
VERTEX
  8
0
  5
8BBD
 10
300.586
 20
225.752
 30
4.05241e-016
  70
    32
  0
VERTEX
  8
0
  5
8BBE
 10
300.596
 20
225.716
 30
4.27555e-016
  70
    32
  0
VERTEX
  8
0
  5
8BBF
 10
300.607
 20
225.681
 30
4.49611e-016
  70
    32
  0
VERTEX
  8
0
  5
8BC0
 10
300.618
 20
225.646
 30
4.71397e-016
  70
    32
  0
VERTEX
  8
0
  5
8BC1
 10
300.630
 20
225.611
 30
4.92898e-016
  70
    32
  0
VERTEX
  8
0
  5
8BC2
 10
300.642
 20
225.577
 30
5.14103e-016
  70
    32
  0
VERTEX
  8
0
  5
8BC3
 10
300.655
 20
225.544
 30
5.34998e-016
  70
    32
  0
VERTEX
  8
0
  5
8BC4
 10
300.669
 20
225.511
 30
5.55570e-016
  70
    32
  0
VERTEX
  8
0
  5
8BC5
 10
300.682
 20
225.479
 30
5.75808e-016
  70
    32
  0
VERTEX
  8
0
  5
8BC6
 10
300.697
 20
225.447
 30
5.95699e-016
  70
    32
  0
VERTEX
  8
0
  5
8BC7
 10
300.712
 20
225.416
 30
6.15232e-016
  70
    32
  0
VERTEX
  8
0
  5
8BC8
 10
300.727
 20
225.385
 30
6.34393e-016
  70
    32
  0
VERTEX
  8
0
  5
8BC9
 10
300.743
 20
225.355
 30
6.53173e-016
  70
    32
  0
VERTEX
  8
0
  5
8BCA
 10
300.759
 20
225.326
 30
6.71559e-016
  70
    32
  0
VERTEX
  8
0
  5
8BCB
 10
300.776
 20
225.297
 30
6.89541e-016
  70
    32
  0
VERTEX
  8
0
  5
8BCC
 10
300.793
 20
225.269
 30
7.07107e-016
  70
    32
  0
VERTEX
  8
0
  5
8BCD
 10
300.810
 20
225.241
 30
7.24247e-016
  70
    32
  0
VERTEX
  8
0
  5
8BCE
 10
300.828
 20
225.214
 30
7.40951e-016
  70
    32
  0
VERTEX
  8
0
  5
8BCF
 10
300.847
 20
225.188
 30
7.57209e-016
  70
    32
  0
VERTEX
  8
0
  5
8BD0
 10
300.866
 20
225.163
 30
7.73010e-016
  70
    32
  0
VERTEX
  8
0
  5
8BD1
 10
300.885
 20
225.139
 30
7.88346e-016
  70
    32
  0
VERTEX
  8
0
  5
8BD2
 10
300.904
 20
225.115
 30
8.03208e-016
  70
    32
  0
VERTEX
  8
0
  5
8BD3
 10
300.924
 20
225.092
 30
8.17585e-016
  70
    32
  0
VERTEX
  8
0
  5
8BD4
 10
300.944
 20
225.070
 30
8.31470e-016
  70
    32
  0
VERTEX
  8
0
  5
8BD5
 10
300.965
 20
225.048
 30
8.44854e-016
  70
    32
  0
VERTEX
  8
0
  5
8BD6
 10
300.986
 20
225.028
 30
8.57729e-016
  70
    32
  0
VERTEX
  8
0
  5
8BD7
 10
301.007
 20
225.008
 30
8.70087e-016
  70
    32
  0
VERTEX
  8
0
  5
8BD8
 10
301.029
 20
224.989
 30
8.81921e-016
  70
    32
  0
VERTEX
  8
0
  5
8BD9
 10
301.050
 20
224.971
 30
8.93224e-016
  70
    32
  0
VERTEX
  8
0
  5
8BDA
 10
301.072
 20
224.954
 30
9.03989e-016
  70
    32
  0
VERTEX
  8
0
  5
8BDB
 10
301.095
 20
224.937
 30
9.14210e-016
  70
    32
  0
VERTEX
  8
0
  5
8BDC
 10
301.117
 20
224.922
 30
9.23880e-016
  70
    32
  0
VERTEX
  8
0
  5
8BDD
 10
301.140
 20
224.907
 30
9.32993e-016
  70
    32
  0
VERTEX
  8
0
  5
8BDE
 10
301.163
 20
224.894
 30
9.41544e-016
  70
    32
  0
VERTEX
  8
0
  5
8BDF
 10
301.186
 20
224.881
 30
9.49528e-016
  70
    32
  0
VERTEX
  8
0
  5
8BE0
 10
301.210
 20
224.869
 30
9.56940e-016
  70
    32
  0
VERTEX
  8
0
  5
8BE1
 10
301.233
 20
224.858
 30
9.63776e-016
  70
    32
  0
VERTEX
  8
0
  5
8BE2
 10
301.257
 20
224.848
 30
9.70031e-016
  70
    32
  0
VERTEX
  8
0
  5
8BE3
 10
301.281
 20
224.839
 30
9.75702e-016
  70
    32
  0
VERTEX
  8
0
  5
8BE4
 10
301.305
 20
224.831
 30
9.80785e-016
  70
    32
  0
VERTEX
  8
0
  5
8BE5
 10
301.329
 20
224.824
 30
9.85278e-016
  70
    32
  0
VERTEX
  8
0
  5
8BE6
 10
301.353
 20
224.817
 30
9.89177e-016
  70
    32
  0
VERTEX
  8
0
  5
8BE7
 10
301.378
 20
224.812
 30
9.92480e-016
  70
    32
  0
VERTEX
  8
0
  5
8BE8
 10
301.402
 20
224.808
 30
9.95185e-016
  70
    32
  0
VERTEX
  8
0
  5
8BE9
 10
301.426
 20
224.804
 30
9.97290e-016
  70
    32
  0
VERTEX
  8
0
  5
8BEA
 10
301.451
 20
224.802
 30
9.98795e-016
  70
    32
  0
VERTEX
  8
0
  5
8BEB
 10
301.475
 20
224.800
 30
9.99699e-016
  70
    32
  0
VERTEX
  8
0
  5
8BEC
 10
301.500
 20
224.800
 30
1.00000e-015
  70
    32
  0
SEQEND
  8
0
  5
8BED
  0
POLYLINE
  5
8482
  8
0
 10
324.49999999999989
 20
238.79999898672099
 30
0.000000000000001
 66
     1
 70
     8
  0
VERTEX
  8
0
  5
8BEE
 10
324.500
 20
238.800
 30
1.00000e-015
  70
    32
  0
VERTEX
  8
0
  5
8BEF
 10
324.525
 20
238.800
 30
9.97245e-016
  70
    32
  0
VERTEX
  8
0
  5
8BF0
 10
324.549
 20
238.802
 30
9.93889e-016
  70
    32
  0
VERTEX
  8
0
  5
8BF1
 10
324.574
 20
238.804
 30
9.89934e-016
  70
    32
  0
VERTEX
  8
0
  5
8BF2
 10
324.598
 20
238.808
 30
9.85383e-016
  70
    32
  0
VERTEX
  8
0
  5
8BF3
 10
324.622
 20
238.812
 30
9.80238e-016
  70
    32
  0
VERTEX
  8
0
  5
8BF4
 10
324.647
 20
238.817
 30
9.74503e-016
  70
    32
  0
VERTEX
  8
0
  5
8BF5
 10
324.671
 20
238.824
 30
9.68181e-016
  70
    32
  0
VERTEX
  8
0
  5
8BF6
 10
324.695
 20
238.831
 30
9.61276e-016
  70
    32
  0
VERTEX
  8
0
  5
8BF7
 10
324.719
 20
238.839
 30
9.53792e-016
  70
    32
  0
VERTEX
  8
0
  5
8BF8
 10
324.743
 20
238.848
 30
9.45733e-016
  70
    32
  0
VERTEX
  8
0
  5
8BF9
 10
324.767
 20
238.858
 30
9.37105e-016
  70
    32
  0
VERTEX
  8
0
  5
8BFA
 10
324.790
 20
238.869
 30
9.27912e-016
  70
    32
  0
VERTEX
  8
0
  5
8BFB
 10
324.814
 20
238.881
 30
9.18160e-016
  70
    32
  0
VERTEX
  8
0
  5
8BFC
 10
324.837
 20
238.894
 30
9.07855e-016
  70
    32
  0
VERTEX
  8
0
  5
8BFD
 10
324.860
 20
238.907
 30
8.97003e-016
  70
    32
  0
VERTEX
  8
0
  5
8BFE
 10
324.883
 20
238.922
 30
8.85611e-016
  70
    32
  0
VERTEX
  8
0
  5
8BFF
 10
324.905
 20
238.937
 30
8.73686e-016
  70
    32
  0
VERTEX
  8
0
  5
8C00
 10
324.928
 20
238.954
 30
8.61234e-016
  70
    32
  0
VERTEX
  8
0
  5
8C01
 10
324.950
 20
238.971
 30
8.48263e-016
  70
    32
  0
VERTEX
  8
0
  5
8C02
 10
324.971
 20
238.989
 30
8.34782e-016
  70
    32
  0
VERTEX
  8
0
  5
8C03
 10
324.993
 20
239.008
 30
8.20797e-016
  70
    32
  0
VERTEX
  8
0
  5
8C04
 10
325.014
 20
239.028
 30
8.06318e-016
  70
    32
  0
VERTEX
  8
0
  5
8C05
 10
325.035
 20
239.048
 30
7.91354e-016
  70
    32
  0
VERTEX
  8
0
  5
8C06
 10
325.056
 20
239.070
 30
7.75913e-016
  70
    32
  0
VERTEX
  8
0
  5
8C07
 10
325.076
 20
239.092
 30
7.60004e-016
  70
    32
  0
VERTEX
  8
0
  5
8C08
 10
325.096
 20
239.115
 30
7.43638e-016
  70
    32
  0
VERTEX
  8
0
  5
8C09
 10
325.115
 20
239.139
 30
7.26823e-016
  70
    32
  0
VERTEX
  8
0
  5
8C0A
 10
325.134
 20
239.163
 30
7.09571e-016
  70
    32
  0
VERTEX
  8
0
  5
8C0B
 10
325.153
 20
239.188
 30
6.91892e-016
  70
    32
  0
VERTEX
  8
0
  5
8C0C
 10
325.172
 20
239.214
 30
6.73795e-016
  70
    32
  0
VERTEX
  8
0
  5
8C0D
 10
325.190
 20
239.241
 30
6.55293e-016
  70
    32
  0
VERTEX
  8
0
  5
8C0E
 10
325.207
 20
239.269
 30
6.36396e-016
  70
    32
  0
VERTEX
  8
0
  5
8C0F
 10
325.224
 20
239.297
 30
6.17116e-016
  70
    32
  0
VERTEX
  8
0
  5
8C10
 10
325.241
 20
239.326
 30
5.97464e-016
  70
    32
  0
VERTEX
  8
0
  5
8C11
 10
325.257
 20
239.355
 30
5.77452e-016
  70
    32
  0
VERTEX
  8
0
  5
8C12
 10
325.273
 20
239.385
 30
5.57092e-016
  70
    32
  0
VERTEX
  8
0
  5
8C13
 10
325.288
 20
239.416
 30
5.36397e-016
  70
    32
  0
VERTEX
  8
0
  5
8C14
 10
325.303
 20
239.447
 30
5.15379e-016
  70
    32
  0
VERTEX
  8
0
  5
8C15
 10
325.318
 20
239.479
 30
4.94050e-016
  70
    32
  0
VERTEX
  8
0
  5
8C16
 10
325.331
 20
239.511
 30
4.72423e-016
  70
    32
  0
VERTEX
  8
0
  5
8C17
 10
325.345
 20
239.544
 30
4.50512e-016
  70
    32
  0
VERTEX
  8
0
  5
8C18
 10
325.358
 20
239.577
 30
4.28330e-016
  70
    32
  0
VERTEX
  8
0
  5
8C19
 10
325.370
 20
239.611
 30
4.05889e-016
  70
    32
  0
VERTEX
  8
0
  5
8C1A
 10
325.382
 20
239.646
 30
3.83205e-016
  70
    32
  0
VERTEX
  8
0
  5
8C1B
 10
325.393
 20
239.681
 30
3.60289e-016
  70
    32
  0
VERTEX
  8
0
  5
8C1C
 10
325.404
 20
239.716
 30
3.37156e-016
  70
    32
  0
VERTEX
  8
0
  5
8C1D
 10
325.414
 20
239.752
 30
3.13820e-016
  70
    32
  0
VERTEX
  8
0
  5
8C1E
 10
325.424
 20
239.788
 30
2.90295e-016
  70
    32
  0
VERTEX
  8
0
  5
8C1F
 10
325.433
 20
239.824
 30
2.66596e-016
  70
    32
  0
VERTEX
  8
0
  5
8C20
 10
325.442
 20
239.861
 30
2.42735e-016
  70
    32
  0
VERTEX
  8
0
  5
8C21
 10
325.450
 20
239.898
 30
2.18729e-016
  70
    32
  0
VERTEX
  8
0
  5
8C22
 10
325.457
 20
239.936
 30
1.94591e-016
  70
    32
  0
VERTEX
  8
0
  5
8C23
 10
325.464
 20
239.973
 30
1.70335e-016
  70
    32
  0
VERTEX
  8
0
  5
8C24
 10
325.470
 20
240.011
 30
1.45977e-016
  70
    32
  0
VERTEX
  8
0
  5
8C25
 10
325.476
 20
240.049
 30
1.21531e-016
  70
    32
  0
VERTEX
  8
0
  5
8C26
 10
325.481
 20
240.088
 30
9.70118e-017
  70
    32
  0
VERTEX
  8
0
  5
8C27
 10
325.485
 20
240.126
 30
7.24341e-017
  70
    32
  0
VERTEX
  8
0
  5
8C28
 10
325.489
 20
240.165
 30
4.78128e-017
  70
    32
  0
VERTEX
  8
0
  5
8C29
 10
325.492
 20
240.204
 30
2.31627e-017
  70
    32
  0
VERTEX
  8
0
  5
8C2A
 10
325.495
 20
240.243
 30
-1.50133e-018
  70
    32
  0
VERTEX
  8
0
  5
8C2B
 10
325.497
 20
240.282
 30
-2.61645e-017
  70
    32
  0
VERTEX
  8
0
  5
8C2C
 10
325.499
 20
240.321
 30
-5.08119e-017
  70
    32
  0
VERTEX
  8
0
  5
8C2D
 10
325.500
 20
240.361
 30
-7.54287e-017
  70
    32
  0
VERTEX
  8
0
  5
8C2E
 10
325.500
 20
240.400
 30
-1.00000e-016
  70
    32
  0
VERTEX
  8
0
  5
8C2F
 10
325.500
 20
240.439
 30
-1.24511e-016
  70
    32
  0
VERTEX
  8
0
  5
8C30
 10
325.499
 20
240.479
 30
-1.48947e-016
  70
    32
  0
VERTEX
  8
0
  5
8C31
 10
325.497
 20
240.518
 30
-1.73294e-016
  70
    32
  0
VERTEX
  8
0
  5
8C32
 10
325.495
 20
240.557
 30
-1.97536e-016
  70
    32
  0
VERTEX
  8
0
  5
8C33
 10
325.492
 20
240.596
 30
-2.21659e-016
  70
    32
  0
VERTEX
  8
0
  5
8C34
 10
325.489
 20
240.635
 30
-2.45648e-016
  70
    32
  0
VERTEX
  8
0
  5
8C35
 10
325.485
 20
240.674
 30
-2.69490e-016
  70
    32
  0
VERTEX
  8
0
  5
8C36
 10
325.481
 20
240.712
 30
-2.93169e-016
  70
    32
  0
VERTEX
  8
0
  5
8C37
 10
325.476
 20
240.751
 30
-3.16671e-016
  70
    32
  0
VERTEX
  8
0
  5
8C38
 10
325.470
 20
240.789
 30
-3.39983e-016
  70
    32
  0
VERTEX
  8
0
  5
8C39
 10
325.464
 20
240.827
 30
-3.63090e-016
  70
    32
  0
VERTEX
  8
0
  5
8C3A
 10
325.457
 20
240.864
 30
-3.85979e-016
  70
    32
  0
VERTEX
  8
0
  5
8C3B
 10
325.450
 20
240.902
 30
-4.08635e-016
  70
    32
  0
VERTEX
  8
0
  5
8C3C
 10
325.442
 20
240.939
 30
-4.31044e-016
  70
    32
  0
VERTEX
  8
0
  5
8C3D
 10
325.433
 20
240.976
 30
-4.53194e-016
  70
    32
  0
VERTEX
  8
0
  5
8C3E
 10
325.424
 20
241.012
 30
-4.75071e-016
  70
    32
  0
VERTEX
  8
0
  5
8C3F
 10
325.414
 20
241.048
 30
-4.96662e-016
  70
    32
  0
VERTEX
  8
0
  5
8C40
 10
325.404
 20
241.084
 30
-5.17954e-016
  70
    32
  0
VERTEX
  8
0
  5
8C41
 10
325.393
 20
241.119
 30
-5.38934e-016
  70
    32
  0
VERTEX
  8
0
  5
8C42
 10
325.382
 20
241.154
 30
-5.59589e-016
  70
    32
  0
VERTEX
  8
0
  5
8C43
 10
325.370
 20
241.189
 30
-5.79907e-016
  70
    32
  0
VERTEX
  8
0
  5
8C44
 10
325.358
 20
241.223
 30
-5.99876e-016
  70
    32
  0
VERTEX
  8
0
  5
8C45
 10
325.345
 20
241.256
 30
-6.19483e-016
  70
    32
  0
VERTEX
  8
0
  5
8C46
 10
325.331
 20
241.289
 30
-6.38717e-016
  70
    32
  0
VERTEX
  8
0
  5
8C47
 10
325.318
 20
241.321
 30
-6.57567e-016
  70
    32
  0
VERTEX
  8
0
  5
8C48
 10
325.303
 20
241.353
 30
-6.76020e-016
  70
    32
  0
VERTEX
  8
0
  5
8C49
 10
325.288
 20
241.384
 30
-6.94066e-016
  70
    32
  0
VERTEX
  8
0
  5
8C4A
 10
325.273
 20
241.415
 30
-7.11694e-016
  70
    32
  0
VERTEX
  8
0
  5
8C4B
 10
325.257
 20
241.445
 30
-7.28894e-016
  70
    32
  0
VERTEX
  8
0
  5
8C4C
 10
325.241
 20
241.474
 30
-7.45654e-016
  70
    32
  0
VERTEX
  8
0
  5
8C4D
 10
325.224
 20
241.503
 30
-7.61965e-016
  70
    32
  0
VERTEX
  8
0
  5
8C4E
 10
325.207
 20
241.531
 30
-7.77817e-016
  70
    32
  0
VERTEX
  8
0
  5
8C4F
 10
325.190
 20
241.559
 30
-7.93201e-016
  70
    32
  0
VERTEX
  8
0
  5
8C50
 10
325.172
 20
241.586
 30
-8.08107e-016
  70
    32
  0
VERTEX
  8
0
  5
8C51
 10
325.153
 20
241.612
 30
-8.22526e-016
  70
    32
  0
VERTEX
  8
0
  5
8C52
 10
325.134
 20
241.637
 30
-8.36450e-016
  70
    32
  0
VERTEX
  8
0
  5
8C53
 10
325.115
 20
241.661
 30
-8.49870e-016
  70
    32
  0
VERTEX
  8
0
  5
8C54
 10
325.096
 20
241.685
 30
-8.62777e-016
  70
    32
  0
VERTEX
  8
0
  5
8C55
 10
325.076
 20
241.708
 30
-8.75166e-016
  70
    32
  0
VERTEX
  8
0
  5
8C56
 10
325.056
 20
241.730
 30
-8.87027e-016
  70
    32
  0
VERTEX
  8
0
  5
8C57
 10
325.035
 20
241.752
 30
-8.98353e-016
  70
    32
  0
VERTEX
  8
0
  5
8C58
 10
325.014
 20
241.772
 30
-9.09139e-016
  70
    32
  0
VERTEX
  8
0
  5
8C59
 10
324.993
 20
241.792
 30
-9.19377e-016
  70
    32
  0
VERTEX
  8
0
  5
8C5A
 10
324.971
 20
241.811
 30
-9.29061e-016
  70
    32
  0
VERTEX
  8
0
  5
8C5B
 10
324.950
 20
241.829
 30
-9.38185e-016
  70
    32
  0
VERTEX
  8
0
  5
8C5C
 10
324.928
 20
241.846
 30
-9.46745e-016
  70
    32
  0
VERTEX
  8
0
  5
8C5D
 10
324.905
 20
241.863
 30
-9.54734e-016
  70
    32
  0
VERTEX
  8
0
  5
8C5E
 10
324.883
 20
241.878
 30
-9.62148e-016
  70
    32
  0
VERTEX
  8
0
  5
8C5F
 10
324.860
 20
241.893
 30
-9.68982e-016
  70
    32
  0
VERTEX
  8
0
  5
8C60
 10
324.837
 20
241.906
 30
-9.75233e-016
  70
    32
  0
VERTEX
  8
0
  5
8C61
 10
324.814
 20
241.919
 30
-9.80896e-016
  70
    32
  0
VERTEX
  8
0
  5
8C62
 10
324.790
 20
241.931
 30
-9.85969e-016
  70
    32
  0
VERTEX
  8
0
  5
8C63
 10
324.767
 20
241.942
 30
-9.90447e-016
  70
    32
  0
VERTEX
  8
0
  5
8C64
 10
324.743
 20
241.952
 30
-9.94329e-016
  70
    32
  0
VERTEX
  8
0
  5
8C65
 10
324.719
 20
241.961
 30
-9.97612e-016
  70
    32
  0
VERTEX
  8
0
  5
8C66
 10
324.695
 20
241.969
 30
-1.00029e-015
  70
    32
  0
VERTEX
  8
0
  5
8C67
 10
324.671
 20
241.976
 30
-1.00237e-015
  70
    32
  0
VERTEX
  8
0
  5
8C68
 10
324.647
 20
241.983
 30
-1.00385e-015
  70
    32
  0
VERTEX
  8
0
  5
8C69
 10
324.622
 20
241.988
 30
-1.00472e-015
  70
    32
  0
VERTEX
  8
0
  5
8C6A
 10
324.598
 20
241.992
 30
-1.00499e-015
  70
    32
  0
VERTEX
  8
0
  5
8C6B
 10
324.574
 20
241.996
 30
-1.00465e-015
  70
    32
  0
VERTEX
  8
0
  5
8C6C
 10
324.549
 20
241.998
 30
-1.00370e-015
  70
    32
  0
VERTEX
  8
0
  5
8C6D
 10
324.525
 20
242.000
 30
-1.00215e-015
  70
    32
  0
VERTEX
  8
0
  5
8C6E
 10
324.500
 20
242.000
 30
-1.00000e-015
  70
    32
  0
SEQEND
  8
0
  5
8C6F
  0
POLYLINE
  5
8483
  8
0
 10
301.5
 20
241.9999989867211
 30
-0.000000000000001
 66
     1
 70
     8
  0
VERTEX
  8
0
  5
8C70
 10
301.500
 20
242.000
 30
-1.00000e-015
  70
    32
  0
VERTEX
  8
0
  5
8C71
 10
301.475
 20
242.000
 30
-9.99699e-016
  70
    32
  0
VERTEX
  8
0
  5
8C72
 10
301.451
 20
241.998
 30
-9.98795e-016
  70
    32
  0
VERTEX
  8
0
  5
8C73
 10
301.426
 20
241.996
 30
-9.97290e-016
  70
    32
  0
VERTEX
  8
0
  5
8C74
 10
301.402
 20
241.992
 30
-9.95185e-016
  70
    32
  0
VERTEX
  8
0
  5
8C75
 10
301.378
 20
241.988
 30
-9.92480e-016
  70
    32
  0
VERTEX
  8
0
  5
8C76
 10
301.353
 20
241.983
 30
-9.89177e-016
  70
    32
  0
VERTEX
  8
0
  5
8C77
 10
301.329
 20
241.976
 30
-9.85278e-016
  70
    32
  0
VERTEX
  8
0
  5
8C78
 10
301.305
 20
241.969
 30
-9.80785e-016
  70
    32
  0
VERTEX
  8
0
  5
8C79
 10
301.281
 20
241.961
 30
-9.75702e-016
  70
    32
  0
VERTEX
  8
0
  5
8C7A
 10
301.257
 20
241.952
 30
-9.70031e-016
  70
    32
  0
VERTEX
  8
0
  5
8C7B
 10
301.233
 20
241.942
 30
-9.63776e-016
  70
    32
  0
VERTEX
  8
0
  5
8C7C
 10
301.210
 20
241.931
 30
-9.56940e-016
  70
    32
  0
VERTEX
  8
0
  5
8C7D
 10
301.186
 20
241.919
 30
-9.49528e-016
  70
    32
  0
VERTEX
  8
0
  5
8C7E
 10
301.163
 20
241.906
 30
-9.41544e-016
  70
    32
  0
VERTEX
  8
0
  5
8C7F
 10
301.140
 20
241.893
 30
-9.32993e-016
  70
    32
  0
VERTEX
  8
0
  5
8C80
 10
301.117
 20
241.878
 30
-9.23880e-016
  70
    32
  0
VERTEX
  8
0
  5
8C81
 10
301.095
 20
241.863
 30
-9.14210e-016
  70
    32
  0
VERTEX
  8
0
  5
8C82
 10
301.072
 20
241.846
 30
-9.03989e-016
  70
    32
  0
VERTEX
  8
0
  5
8C83
 10
301.050
 20
241.829
 30
-8.93224e-016
  70
    32
  0
VERTEX
  8
0
  5
8C84
 10
301.029
 20
241.811
 30
-8.81921e-016
  70
    32
  0
VERTEX
  8
0
  5
8C85
 10
301.007
 20
241.792
 30
-8.70087e-016
  70
    32
  0
VERTEX
  8
0
  5
8C86
 10
300.986
 20
241.772
 30
-8.57729e-016
  70
    32
  0
VERTEX
  8
0
  5
8C87
 10
300.965
 20
241.752
 30
-8.44854e-016
  70
    32
  0
VERTEX
  8
0
  5
8C88
 10
300.944
 20
241.730
 30
-8.31470e-016
  70
    32
  0
VERTEX
  8
0
  5
8C89
 10
300.924
 20
241.708
 30
-8.17585e-016
  70
    32
  0
VERTEX
  8
0
  5
8C8A
 10
300.904
 20
241.685
 30
-8.03208e-016
  70
    32
  0
VERTEX
  8
0
  5
8C8B
 10
300.885
 20
241.661
 30
-7.88346e-016
  70
    32
  0
VERTEX
  8
0
  5
8C8C
 10
300.866
 20
241.637
 30
-7.73010e-016
  70
    32
  0
VERTEX
  8
0
  5
8C8D
 10
300.847
 20
241.612
 30
-7.57209e-016
  70
    32
  0
VERTEX
  8
0
  5
8C8E
 10
300.828
 20
241.586
 30
-7.40951e-016
  70
    32
  0
VERTEX
  8
0
  5
8C8F
 10
300.810
 20
241.559
 30
-7.24247e-016
  70
    32
  0
VERTEX
  8
0
  5
8C90
 10
300.793
 20
241.531
 30
-7.07107e-016
  70
    32
  0
VERTEX
  8
0
  5
8C91
 10
300.776
 20
241.503
 30
-6.89541e-016
  70
    32
  0
VERTEX
  8
0
  5
8C92
 10
300.759
 20
241.474
 30
-6.71559e-016
  70
    32
  0
VERTEX
  8
0
  5
8C93
 10
300.743
 20
241.445
 30
-6.53173e-016
  70
    32
  0
VERTEX
  8
0
  5
8C94
 10
300.727
 20
241.415
 30
-6.34393e-016
  70
    32
  0
VERTEX
  8
0
  5
8C95
 10
300.712
 20
241.384
 30
-6.15232e-016
  70
    32
  0
VERTEX
  8
0
  5
8C96
 10
300.697
 20
241.353
 30
-5.95699e-016
  70
    32
  0
VERTEX
  8
0
  5
8C97
 10
300.682
 20
241.321
 30
-5.75808e-016
  70
    32
  0
VERTEX
  8
0
  5
8C98
 10
300.669
 20
241.289
 30
-5.55570e-016
  70
    32
  0
VERTEX
  8
0
  5
8C99
 10
300.655
 20
241.256
 30
-5.34998e-016
  70
    32
  0
VERTEX
  8
0
  5
8C9A
 10
300.642
 20
241.223
 30
-5.14103e-016
  70
    32
  0
VERTEX
  8
0
  5
8C9B
 10
300.630
 20
241.189
 30
-4.92898e-016
  70
    32
  0
VERTEX
  8
0
  5
8C9C
 10
300.618
 20
241.154
 30
-4.71397e-016
  70
    32
  0
VERTEX
  8
0
  5
8C9D
 10
300.607
 20
241.119
 30
-4.49611e-016
  70
    32
  0
VERTEX
  8
0
  5
8C9E
 10
300.596
 20
241.084
 30
-4.27555e-016
  70
    32
  0
VERTEX
  8
0
  5
8C9F
 10
300.586
 20
241.048
 30
-4.05241e-016
  70
    32
  0
VERTEX
  8
0
  5
8CA0
 10
300.576
 20
241.012
 30
-3.82683e-016
  70
    32
  0
VERTEX
  8
0
  5
8CA1
 10
300.567
 20
240.976
 30
-3.59895e-016
  70
    32
  0
VERTEX
  8
0
  5
8CA2
 10
300.558
 20
240.939
 30
-3.36890e-016
  70
    32
  0
VERTEX
  8
0
  5
8CA3
 10
300.550
 20
240.902
 30
-3.13682e-016
  70
    32
  0
VERTEX
  8
0
  5
8CA4
 10
300.543
 20
240.864
 30
-2.90285e-016
  70
    32
  0
VERTEX
  8
0
  5
8CA5
 10
300.536
 20
240.827
 30
-2.66713e-016
  70
    32
  0
VERTEX
  8
0
  5
8CA6
 10
300.530
 20
240.789
 30
-2.42980e-016
  70
    32
  0
VERTEX
  8
0
  5
8CA7
 10
300.524
 20
240.751
 30
-2.19101e-016
  70
    32
  0
VERTEX
  8
0
  5
8CA8
 10
300.519
 20
240.712
 30
-1.95090e-016
  70
    32
  0
VERTEX
  8
0
  5
8CA9
 10
300.515
 20
240.674
 30
-1.70962e-016
  70
    32
  0
VERTEX
  8
0
  5
8CAA
 10
300.511
 20
240.635
 30
-1.46730e-016
  70
    32
  0
VERTEX
  8
0
  5
8CAB
 10
300.508
 20
240.596
 30
-1.22411e-016
  70
    32
  0
VERTEX
  8
0
  5
8CAC
 10
300.505
 20
240.557
 30
-9.80171e-017
  70
    32
  0
VERTEX
  8
0
  5
8CAD
 10
300.503
 20
240.518
 30
-7.35646e-017
  70
    32
  0
VERTEX
  8
0
  5
8CAE
 10
300.501
 20
240.479
 30
-4.90677e-017
  70
    32
  0
VERTEX
  8
0
  5
8CAF
 10
300.500
 20
240.439
 30
-2.45412e-017
  70
    32
  0
VERTEX
  8
0
  5
8CB0
 10
300.500
 20
240.400
 30
-1.07188e-030
  70
    32
  0
VERTEX
  8
0
  5
8CB1
 10
300.500
 20
240.361
 30
2.45412e-017
  70
    32
  0
VERTEX
  8
0
  5
8CB2
 10
300.501
 20
240.321
 30
4.90677e-017
  70
    32
  0
VERTEX
  8
0
  5
8CB3
 10
300.503
 20
240.282
 30
7.35646e-017
  70
    32
  0
VERTEX
  8
0
  5
8CB4
 10
300.505
 20
240.243
 30
9.80171e-017
  70
    32
  0
VERTEX
  8
0
  5
8CB5
 10
300.508
 20
240.204
 30
1.22411e-016
  70
    32
  0
VERTEX
  8
0
  5
8CB6
 10
300.511
 20
240.165
 30
1.46730e-016
  70
    32
  0
VERTEX
  8
0
  5
8CB7
 10
300.515
 20
240.126
 30
1.70962e-016
  70
    32
  0
VERTEX
  8
0
  5
8CB8
 10
300.519
 20
240.088
 30
1.95090e-016
  70
    32
  0
VERTEX
  8
0
  5
8CB9
 10
300.524
 20
240.049
 30
2.19101e-016
  70
    32
  0
VERTEX
  8
0
  5
8CBA
 10
300.530
 20
240.011
 30
2.42980e-016
  70
    32
  0
VERTEX
  8
0
  5
8CBB
 10
300.536
 20
239.973
 30
2.66713e-016
  70
    32
  0
VERTEX
  8
0
  5
8CBC
 10
300.543
 20
239.936
 30
2.90285e-016
  70
    32
  0
VERTEX
  8
0
  5
8CBD
 10
300.550
 20
239.898
 30
3.13682e-016
  70
    32
  0
VERTEX
  8
0
  5
8CBE
 10
300.558
 20
239.861
 30
3.36890e-016
  70
    32
  0
VERTEX
  8
0
  5
8CBF
 10
300.567
 20
239.824
 30
3.59895e-016
  70
    32
  0
VERTEX
  8
0
  5
8CC0
 10
300.576
 20
239.788
 30
3.82683e-016
  70
    32
  0
VERTEX
  8
0
  5
8CC1
 10
300.586
 20
239.752
 30
4.05241e-016
  70
    32
  0
VERTEX
  8
0
  5
8CC2
 10
300.596
 20
239.716
 30
4.27555e-016
  70
    32
  0
VERTEX
  8
0
  5
8CC3
 10
300.607
 20
239.681
 30
4.49611e-016
  70
    32
  0
VERTEX
  8
0
  5
8CC4
 10
300.618
 20
239.646
 30
4.71397e-016
  70
    32
  0
VERTEX
  8
0
  5
8CC5
 10
300.630
 20
239.611
 30
4.92898e-016
  70
    32
  0
VERTEX
  8
0
  5
8CC6
 10
300.642
 20
239.577
 30
5.14103e-016
  70
    32
  0
VERTEX
  8
0
  5
8CC7
 10
300.655
 20
239.544
 30
5.34998e-016
  70
    32
  0
VERTEX
  8
0
  5
8CC8
 10
300.669
 20
239.511
 30
5.55570e-016
  70
    32
  0
VERTEX
  8
0
  5
8CC9
 10
300.682
 20
239.479
 30
5.75808e-016
  70
    32
  0
VERTEX
  8
0
  5
8CCA
 10
300.697
 20
239.447
 30
5.95699e-016
  70
    32
  0
VERTEX
  8
0
  5
8CCB
 10
300.712
 20
239.416
 30
6.15232e-016
  70
    32
  0
VERTEX
  8
0
  5
8CCC
 10
300.727
 20
239.385
 30
6.34393e-016
  70
    32
  0
VERTEX
  8
0
  5
8CCD
 10
300.743
 20
239.355
 30
6.53173e-016
  70
    32
  0
VERTEX
  8
0
  5
8CCE
 10
300.759
 20
239.326
 30
6.71559e-016
  70
    32
  0
VERTEX
  8
0
  5
8CCF
 10
300.776
 20
239.297
 30
6.89541e-016
  70
    32
  0
VERTEX
  8
0
  5
8CD0
 10
300.793
 20
239.269
 30
7.07107e-016
  70
    32
  0
VERTEX
  8
0
  5
8CD1
 10
300.810
 20
239.241
 30
7.24247e-016
  70
    32
  0
VERTEX
  8
0
  5
8CD2
 10
300.828
 20
239.214
 30
7.40951e-016
  70
    32
  0
VERTEX
  8
0
  5
8CD3
 10
300.847
 20
239.188
 30
7.57209e-016
  70
    32
  0
VERTEX
  8
0
  5
8CD4
 10
300.866
 20
239.163
 30
7.73010e-016
  70
    32
  0
VERTEX
  8
0
  5
8CD5
 10
300.885
 20
239.139
 30
7.88346e-016
  70
    32
  0
VERTEX
  8
0
  5
8CD6
 10
300.904
 20
239.115
 30
8.03208e-016
  70
    32
  0
VERTEX
  8
0
  5
8CD7
 10
300.924
 20
239.092
 30
8.17585e-016
  70
    32
  0
VERTEX
  8
0
  5
8CD8
 10
300.944
 20
239.070
 30
8.31470e-016
  70
    32
  0
VERTEX
  8
0
  5
8CD9
 10
300.965
 20
239.048
 30
8.44854e-016
  70
    32
  0
VERTEX
  8
0
  5
8CDA
 10
300.986
 20
239.028
 30
8.57729e-016
  70
    32
  0
VERTEX
  8
0
  5
8CDB
 10
301.007
 20
239.008
 30
8.70087e-016
  70
    32
  0
VERTEX
  8
0
  5
8CDC
 10
301.029
 20
238.989
 30
8.81921e-016
  70
    32
  0
VERTEX
  8
0
  5
8CDD
 10
301.050
 20
238.971
 30
8.93224e-016
  70
    32
  0
VERTEX
  8
0
  5
8CDE
 10
301.072
 20
238.954
 30
9.03989e-016
  70
    32
  0
VERTEX
  8
0
  5
8CDF
 10
301.095
 20
238.937
 30
9.14210e-016
  70
    32
  0
VERTEX
  8
0
  5
8CE0
 10
301.117
 20
238.922
 30
9.23880e-016
  70
    32
  0
VERTEX
  8
0
  5
8CE1
 10
301.140
 20
238.907
 30
9.32993e-016
  70
    32
  0
VERTEX
  8
0
  5
8CE2
 10
301.163
 20
238.894
 30
9.41544e-016
  70
    32
  0
VERTEX
  8
0
  5
8CE3
 10
301.186
 20
238.881
 30
9.49528e-016
  70
    32
  0
VERTEX
  8
0
  5
8CE4
 10
301.210
 20
238.869
 30
9.56940e-016
  70
    32
  0
VERTEX
  8
0
  5
8CE5
 10
301.233
 20
238.858
 30
9.63776e-016
  70
    32
  0
VERTEX
  8
0
  5
8CE6
 10
301.257
 20
238.848
 30
9.70031e-016
  70
    32
  0
VERTEX
  8
0
  5
8CE7
 10
301.281
 20
238.839
 30
9.75702e-016
  70
    32
  0
VERTEX
  8
0
  5
8CE8
 10
301.305
 20
238.831
 30
9.80785e-016
  70
    32
  0
VERTEX
  8
0
  5
8CE9
 10
301.329
 20
238.824
 30
9.85278e-016
  70
    32
  0
VERTEX
  8
0
  5
8CEA
 10
301.353
 20
238.817
 30
9.89177e-016
  70
    32
  0
VERTEX
  8
0
  5
8CEB
 10
301.378
 20
238.812
 30
9.92480e-016
  70
    32
  0
VERTEX
  8
0
  5
8CEC
 10
301.402
 20
238.808
 30
9.95185e-016
  70
    32
  0
VERTEX
  8
0
  5
8CED
 10
301.426
 20
238.804
 30
9.97290e-016
  70
    32
  0
VERTEX
  8
0
  5
8CEE
 10
301.451
 20
238.802
 30
9.98795e-016
  70
    32
  0
VERTEX
  8
0
  5
8CEF
 10
301.475
 20
238.800
 30
9.99699e-016
  70
    32
  0
VERTEX
  8
0
  5
8CF0
 10
301.500
 20
238.800
 30
1.00000e-015
  70
    32
  0
SEQEND
  8
0
  5
8CF1
  0
POLYLINE
  5
8484
  8
0
 10
324.5
 20
252.79999898672102
 30
0.000000000000001
 66
     1
 70
     8
  0
VERTEX
  8
0
  5
8CF2
 10
324.500
 20
252.800
 30
1.00000e-015
  70
    32
  0
VERTEX
  8
0
  5
8CF3
 10
324.525
 20
252.800
 30
9.97245e-016
  70
    32
  0
VERTEX
  8
0
  5
8CF4
 10
324.549
 20
252.802
 30
9.93889e-016
  70
    32
  0
VERTEX
  8
0
  5
8CF5
 10
324.574
 20
252.804
 30
9.89934e-016
  70
    32
  0
VERTEX
  8
0
  5
8CF6
 10
324.598
 20
252.808
 30
9.85383e-016
  70
    32
  0
VERTEX
  8
0
  5
8CF7
 10
324.622
 20
252.812
 30
9.80238e-016
  70
    32
  0
VERTEX
  8
0
  5
8CF8
 10
324.647
 20
252.817
 30
9.74503e-016
  70
    32
  0
VERTEX
  8
0
  5
8CF9
 10
324.671
 20
252.824
 30
9.68181e-016
  70
    32
  0
VERTEX
  8
0
  5
8CFA
 10
324.695
 20
252.831
 30
9.61276e-016
  70
    32
  0
VERTEX
  8
0
  5
8CFB
 10
324.719
 20
252.839
 30
9.53792e-016
  70
    32
  0
VERTEX
  8
0
  5
8CFC
 10
324.743
 20
252.848
 30
9.45733e-016
  70
    32
  0
VERTEX
  8
0
  5
8CFD
 10
324.767
 20
252.858
 30
9.37105e-016
  70
    32
  0
VERTEX
  8
0
  5
8CFE
 10
324.790
 20
252.869
 30
9.27912e-016
  70
    32
  0
VERTEX
  8
0
  5
8CFF
 10
324.814
 20
252.881
 30
9.18160e-016
  70
    32
  0
VERTEX
  8
0
  5
8D00
 10
324.837
 20
252.894
 30
9.07855e-016
  70
    32
  0
VERTEX
  8
0
  5
8D01
 10
324.860
 20
252.907
 30
8.97003e-016
  70
    32
  0
VERTEX
  8
0
  5
8D02
 10
324.883
 20
252.922
 30
8.85611e-016
  70
    32
  0
VERTEX
  8
0
  5
8D03
 10
324.905
 20
252.937
 30
8.73686e-016
  70
    32
  0
VERTEX
  8
0
  5
8D04
 10
324.928
 20
252.954
 30
8.61234e-016
  70
    32
  0
VERTEX
  8
0
  5
8D05
 10
324.950
 20
252.971
 30
8.48263e-016
  70
    32
  0
VERTEX
  8
0
  5
8D06
 10
324.971
 20
252.989
 30
8.34782e-016
  70
    32
  0
VERTEX
  8
0
  5
8D07
 10
324.993
 20
253.008
 30
8.20797e-016
  70
    32
  0
VERTEX
  8
0
  5
8D08
 10
325.014
 20
253.028
 30
8.06318e-016
  70
    32
  0
VERTEX
  8
0
  5
8D09
 10
325.035
 20
253.048
 30
7.91354e-016
  70
    32
  0
VERTEX
  8
0
  5
8D0A
 10
325.056
 20
253.070
 30
7.75913e-016
  70
    32
  0
VERTEX
  8
0
  5
8D0B
 10
325.076
 20
253.092
 30
7.60004e-016
  70
    32
  0
VERTEX
  8
0
  5
8D0C
 10
325.096
 20
253.115
 30
7.43638e-016
  70
    32
  0
VERTEX
  8
0
  5
8D0D
 10
325.115
 20
253.139
 30
7.26823e-016
  70
    32
  0
VERTEX
  8
0
  5
8D0E
 10
325.134
 20
253.163
 30
7.09571e-016
  70
    32
  0
VERTEX
  8
0
  5
8D0F
 10
325.153
 20
253.188
 30
6.91892e-016
  70
    32
  0
VERTEX
  8
0
  5
8D10
 10
325.172
 20
253.214
 30
6.73795e-016
  70
    32
  0
VERTEX
  8
0
  5
8D11
 10
325.190
 20
253.241
 30
6.55293e-016
  70
    32
  0
VERTEX
  8
0
  5
8D12
 10
325.207
 20
253.269
 30
6.36396e-016
  70
    32
  0
VERTEX
  8
0
  5
8D13
 10
325.224
 20
253.297
 30
6.17116e-016
  70
    32
  0
VERTEX
  8
0
  5
8D14
 10
325.241
 20
253.326
 30
5.97464e-016
  70
    32
  0
VERTEX
  8
0
  5
8D15
 10
325.257
 20
253.355
 30
5.77452e-016
  70
    32
  0
VERTEX
  8
0
  5
8D16
 10
325.273
 20
253.385
 30
5.57092e-016
  70
    32
  0
VERTEX
  8
0
  5
8D17
 10
325.288
 20
253.416
 30
5.36397e-016
  70
    32
  0
VERTEX
  8
0
  5
8D18
 10
325.303
 20
253.447
 30
5.15379e-016
  70
    32
  0
VERTEX
  8
0
  5
8D19
 10
325.318
 20
253.479
 30
4.94050e-016
  70
    32
  0
VERTEX
  8
0
  5
8D1A
 10
325.331
 20
253.511
 30
4.72423e-016
  70
    32
  0
VERTEX
  8
0
  5
8D1B
 10
325.345
 20
253.544
 30
4.50512e-016
  70
    32
  0
VERTEX
  8
0
  5
8D1C
 10
325.358
 20
253.577
 30
4.28330e-016
  70
    32
  0
VERTEX
  8
0
  5
8D1D
 10
325.370
 20
253.611
 30
4.05889e-016
  70
    32
  0
VERTEX
  8
0
  5
8D1E
 10
325.382
 20
253.646
 30
3.83205e-016
  70
    32
  0
VERTEX
  8
0
  5
8D1F
 10
325.393
 20
253.681
 30
3.60289e-016
  70
    32
  0
VERTEX
  8
0
  5
8D20
 10
325.404
 20
253.716
 30
3.37156e-016
  70
    32
  0
VERTEX
  8
0
  5
8D21
 10
325.414
 20
253.752
 30
3.13820e-016
  70
    32
  0
VERTEX
  8
0
  5
8D22
 10
325.424
 20
253.788
 30
2.90295e-016
  70
    32
  0
VERTEX
  8
0
  5
8D23
 10
325.433
 20
253.824
 30
2.66596e-016
  70
    32
  0
VERTEX
  8
0
  5
8D24
 10
325.442
 20
253.861
 30
2.42735e-016
  70
    32
  0
VERTEX
  8
0
  5
8D25
 10
325.450
 20
253.898
 30
2.18729e-016
  70
    32
  0
VERTEX
  8
0
  5
8D26
 10
325.457
 20
253.936
 30
1.94591e-016
  70
    32
  0
VERTEX
  8
0
  5
8D27
 10
325.464
 20
253.973
 30
1.70335e-016
  70
    32
  0
VERTEX
  8
0
  5
8D28
 10
325.470
 20
254.011
 30
1.45977e-016
  70
    32
  0
VERTEX
  8
0
  5
8D29
 10
325.476
 20
254.049
 30
1.21531e-016
  70
    32
  0
VERTEX
  8
0
  5
8D2A
 10
325.481
 20
254.088
 30
9.70118e-017
  70
    32
  0
VERTEX
  8
0
  5
8D2B
 10
325.485
 20
254.126
 30
7.24341e-017
  70
    32
  0
VERTEX
  8
0
  5
8D2C
 10
325.489
 20
254.165
 30
4.78128e-017
  70
    32
  0
VERTEX
  8
0
  5
8D2D
 10
325.492
 20
254.204
 30
2.31627e-017
  70
    32
  0
VERTEX
  8
0
  5
8D2E
 10
325.495
 20
254.243
 30
-1.50133e-018
  70
    32
  0
VERTEX
  8
0
  5
8D2F
 10
325.497
 20
254.282
 30
-2.61645e-017
  70
    32
  0
VERTEX
  8
0
  5
8D30
 10
325.499
 20
254.321
 30
-5.08119e-017
  70
    32
  0
VERTEX
  8
0
  5
8D31
 10
325.500
 20
254.361
 30
-7.54287e-017
  70
    32
  0
VERTEX
  8
0
  5
8D32
 10
325.500
 20
254.400
 30
-1.00000e-016
  70
    32
  0
VERTEX
  8
0
  5
8D33
 10
325.500
 20
254.439
 30
-1.24511e-016
  70
    32
  0
VERTEX
  8
0
  5
8D34
 10
325.499
 20
254.479
 30
-1.48947e-016
  70
    32
  0
VERTEX
  8
0
  5
8D35
 10
325.497
 20
254.518
 30
-1.73294e-016
  70
    32
  0
VERTEX
  8
0
  5
8D36
 10
325.495
 20
254.557
 30
-1.97536e-016
  70
    32
  0
VERTEX
  8
0
  5
8D37
 10
325.492
 20
254.596
 30
-2.21659e-016
  70
    32
  0
VERTEX
  8
0
  5
8D38
 10
325.489
 20
254.635
 30
-2.45648e-016
  70
    32
  0
VERTEX
  8
0
  5
8D39
 10
325.485
 20
254.674
 30
-2.69490e-016
  70
    32
  0
VERTEX
  8
0
  5
8D3A
 10
325.481
 20
254.712
 30
-2.93169e-016
  70
    32
  0
VERTEX
  8
0
  5
8D3B
 10
325.476
 20
254.751
 30
-3.16671e-016
  70
    32
  0
VERTEX
  8
0
  5
8D3C
 10
325.470
 20
254.789
 30
-3.39983e-016
  70
    32
  0
VERTEX
  8
0
  5
8D3D
 10
325.464
 20
254.827
 30
-3.63090e-016
  70
    32
  0
VERTEX
  8
0
  5
8D3E
 10
325.457
 20
254.864
 30
-3.85979e-016
  70
    32
  0
VERTEX
  8
0
  5
8D3F
 10
325.450
 20
254.902
 30
-4.08635e-016
  70
    32
  0
VERTEX
  8
0
  5
8D40
 10
325.442
 20
254.939
 30
-4.31044e-016
  70
    32
  0
VERTEX
  8
0
  5
8D41
 10
325.433
 20
254.976
 30
-4.53194e-016
  70
    32
  0
VERTEX
  8
0
  5
8D42
 10
325.424
 20
255.012
 30
-4.75071e-016
  70
    32
  0
VERTEX
  8
0
  5
8D43
 10
325.414
 20
255.048
 30
-4.96662e-016
  70
    32
  0
VERTEX
  8
0
  5
8D44
 10
325.404
 20
255.084
 30
-5.17954e-016
  70
    32
  0
VERTEX
  8
0
  5
8D45
 10
325.393
 20
255.119
 30
-5.38934e-016
  70
    32
  0
VERTEX
  8
0
  5
8D46
 10
325.382
 20
255.154
 30
-5.59589e-016
  70
    32
  0
VERTEX
  8
0
  5
8D47
 10
325.370
 20
255.189
 30
-5.79907e-016
  70
    32
  0
VERTEX
  8
0
  5
8D48
 10
325.358
 20
255.223
 30
-5.99876e-016
  70
    32
  0
VERTEX
  8
0
  5
8D49
 10
325.345
 20
255.256
 30
-6.19483e-016
  70
    32
  0
VERTEX
  8
0
  5
8D4A
 10
325.331
 20
255.289
 30
-6.38717e-016
  70
    32
  0
VERTEX
  8
0
  5
8D4B
 10
325.318
 20
255.321
 30
-6.57567e-016
  70
    32
  0
VERTEX
  8
0
  5
8D4C
 10
325.303
 20
255.353
 30
-6.76020e-016
  70
    32
  0
VERTEX
  8
0
  5
8D4D
 10
325.288
 20
255.384
 30
-6.94066e-016
  70
    32
  0
VERTEX
  8
0
  5
8D4E
 10
325.273
 20
255.415
 30
-7.11694e-016
  70
    32
  0
VERTEX
  8
0
  5
8D4F
 10
325.257
 20
255.445
 30
-7.28894e-016
  70
    32
  0
VERTEX
  8
0
  5
8D50
 10
325.241
 20
255.474
 30
-7.45654e-016
  70
    32
  0
VERTEX
  8
0
  5
8D51
 10
325.224
 20
255.503
 30
-7.61965e-016
  70
    32
  0
VERTEX
  8
0
  5
8D52
 10
325.207
 20
255.531
 30
-7.77817e-016
  70
    32
  0
VERTEX
  8
0
  5
8D53
 10
325.190
 20
255.559
 30
-7.93201e-016
  70
    32
  0
VERTEX
  8
0
  5
8D54
 10
325.172
 20
255.586
 30
-8.08107e-016
  70
    32
  0
VERTEX
  8
0
  5
8D55
 10
325.153
 20
255.612
 30
-8.22526e-016
  70
    32
  0
VERTEX
  8
0
  5
8D56
 10
325.134
 20
255.637
 30
-8.36450e-016
  70
    32
  0
VERTEX
  8
0
  5
8D57
 10
325.115
 20
255.661
 30
-8.49870e-016
  70
    32
  0
VERTEX
  8
0
  5
8D58
 10
325.096
 20
255.685
 30
-8.62777e-016
  70
    32
  0
VERTEX
  8
0
  5
8D59
 10
325.076
 20
255.708
 30
-8.75166e-016
  70
    32
  0
VERTEX
  8
0
  5
8D5A
 10
325.056
 20
255.730
 30
-8.87027e-016
  70
    32
  0
VERTEX
  8
0
  5
8D5B
 10
325.035
 20
255.752
 30
-8.98353e-016
  70
    32
  0
VERTEX
  8
0
  5
8D5C
 10
325.014
 20
255.772
 30
-9.09139e-016
  70
    32
  0
VERTEX
  8
0
  5
8D5D
 10
324.993
 20
255.792
 30
-9.19377e-016
  70
    32
  0
VERTEX
  8
0
  5
8D5E
 10
324.971
 20
255.811
 30
-9.29061e-016
  70
    32
  0
VERTEX
  8
0
  5
8D5F
 10
324.950
 20
255.829
 30
-9.38185e-016
  70
    32
  0
VERTEX
  8
0
  5
8D60
 10
324.928
 20
255.846
 30
-9.46745e-016
  70
    32
  0
VERTEX
  8
0
  5
8D61
 10
324.905
 20
255.863
 30
-9.54734e-016
  70
    32
  0
VERTEX
  8
0
  5
8D62
 10
324.883
 20
255.878
 30
-9.62148e-016
  70
    32
  0
VERTEX
  8
0
  5
8D63
 10
324.860
 20
255.893
 30
-9.68982e-016
  70
    32
  0
VERTEX
  8
0
  5
8D64
 10
324.837
 20
255.906
 30
-9.75233e-016
  70
    32
  0
VERTEX
  8
0
  5
8D65
 10
324.814
 20
255.919
 30
-9.80896e-016
  70
    32
  0
VERTEX
  8
0
  5
8D66
 10
324.790
 20
255.931
 30
-9.85969e-016
  70
    32
  0
VERTEX
  8
0
  5
8D67
 10
324.767
 20
255.942
 30
-9.90447e-016
  70
    32
  0
VERTEX
  8
0
  5
8D68
 10
324.743
 20
255.952
 30
-9.94329e-016
  70
    32
  0
VERTEX
  8
0
  5
8D69
 10
324.719
 20
255.961
 30
-9.97612e-016
  70
    32
  0
VERTEX
  8
0
  5
8D6A
 10
324.695
 20
255.969
 30
-1.00029e-015
  70
    32
  0
VERTEX
  8
0
  5
8D6B
 10
324.671
 20
255.976
 30
-1.00237e-015
  70
    32
  0
VERTEX
  8
0
  5
8D6C
 10
324.647
 20
255.983
 30
-1.00385e-015
  70
    32
  0
VERTEX
  8
0
  5
8D6D
 10
324.622
 20
255.988
 30
-1.00472e-015
  70
    32
  0
VERTEX
  8
0
  5
8D6E
 10
324.598
 20
255.992
 30
-1.00499e-015
  70
    32
  0
VERTEX
  8
0
  5
8D6F
 10
324.574
 20
255.996
 30
-1.00465e-015
  70
    32
  0
VERTEX
  8
0
  5
8D70
 10
324.549
 20
255.998
 30
-1.00370e-015
  70
    32
  0
VERTEX
  8
0
  5
8D71
 10
324.525
 20
256.000
 30
-1.00215e-015
  70
    32
  0
VERTEX
  8
0
  5
8D72
 10
324.500
 20
256.000
 30
-1.00000e-015
  70
    32
  0
SEQEND
  8
0
  5
8D73
  0
POLYLINE
  5
8485
  8
0
 10
301.5
 20
255.99999898672095
 30
-0.000000000000001
 66
     1
 70
     8
  0
VERTEX
  8
0
  5
8D74
 10
301.500
 20
256.000
 30
-1.00000e-015
  70
    32
  0
VERTEX
  8
0
  5
8D75
 10
301.475
 20
256.000
 30
-9.99699e-016
  70
    32
  0
VERTEX
  8
0
  5
8D76
 10
301.451
 20
255.998
 30
-9.98795e-016
  70
    32
  0
VERTEX
  8
0
  5
8D77
 10
301.426
 20
255.996
 30
-9.97290e-016
  70
    32
  0
VERTEX
  8
0
  5
8D78
 10
301.402
 20
255.992
 30
-9.95185e-016
  70
    32
  0
VERTEX
  8
0
  5
8D79
 10
301.378
 20
255.988
 30
-9.92480e-016
  70
    32
  0
VERTEX
  8
0
  5
8D7A
 10
301.353
 20
255.983
 30
-9.89177e-016
  70
    32
  0
VERTEX
  8
0
  5
8D7B
 10
301.329
 20
255.976
 30
-9.85278e-016
  70
    32
  0
VERTEX
  8
0
  5
8D7C
 10
301.305
 20
255.969
 30
-9.80785e-016
  70
    32
  0
VERTEX
  8
0
  5
8D7D
 10
301.281
 20
255.961
 30
-9.75702e-016
  70
    32
  0
VERTEX
  8
0
  5
8D7E
 10
301.257
 20
255.952
 30
-9.70031e-016
  70
    32
  0
VERTEX
  8
0
  5
8D7F
 10
301.233
 20
255.942
 30
-9.63776e-016
  70
    32
  0
VERTEX
  8
0
  5
8D80
 10
301.210
 20
255.931
 30
-9.56940e-016
  70
    32
  0
VERTEX
  8
0
  5
8D81
 10
301.186
 20
255.919
 30
-9.49528e-016
  70
    32
  0
VERTEX
  8
0
  5
8D82
 10
301.163
 20
255.906
 30
-9.41544e-016
  70
    32
  0
VERTEX
  8
0
  5
8D83
 10
301.140
 20
255.893
 30
-9.32993e-016
  70
    32
  0
VERTEX
  8
0
  5
8D84
 10
301.117
 20
255.878
 30
-9.23880e-016
  70
    32
  0
VERTEX
  8
0
  5
8D85
 10
301.095
 20
255.863
 30
-9.14210e-016
  70
    32
  0
VERTEX
  8
0
  5
8D86
 10
301.072
 20
255.846
 30
-9.03989e-016
  70
    32
  0
VERTEX
  8
0
  5
8D87
 10
301.050
 20
255.829
 30
-8.93224e-016
  70
    32
  0
VERTEX
  8
0
  5
8D88
 10
301.029
 20
255.811
 30
-8.81921e-016
  70
    32
  0
VERTEX
  8
0
  5
8D89
 10
301.007
 20
255.792
 30
-8.70087e-016
  70
    32
  0
VERTEX
  8
0
  5
8D8A
 10
300.986
 20
255.772
 30
-8.57729e-016
  70
    32
  0
VERTEX
  8
0
  5
8D8B
 10
300.965
 20
255.752
 30
-8.44854e-016
  70
    32
  0
VERTEX
  8
0
  5
8D8C
 10
300.944
 20
255.730
 30
-8.31470e-016
  70
    32
  0
VERTEX
  8
0
  5
8D8D
 10
300.924
 20
255.708
 30
-8.17585e-016
  70
    32
  0
VERTEX
  8
0
  5
8D8E
 10
300.904
 20
255.685
 30
-8.03208e-016
  70
    32
  0
VERTEX
  8
0
  5
8D8F
 10
300.885
 20
255.661
 30
-7.88346e-016
  70
    32
  0
VERTEX
  8
0
  5
8D90
 10
300.866
 20
255.637
 30
-7.73010e-016
  70
    32
  0
VERTEX
  8
0
  5
8D91
 10
300.847
 20
255.612
 30
-7.57209e-016
  70
    32
  0
VERTEX
  8
0
  5
8D92
 10
300.828
 20
255.586
 30
-7.40951e-016
  70
    32
  0
VERTEX
  8
0
  5
8D93
 10
300.810
 20
255.559
 30
-7.24247e-016
  70
    32
  0
VERTEX
  8
0
  5
8D94
 10
300.793
 20
255.531
 30
-7.07107e-016
  70
    32
  0
VERTEX
  8
0
  5
8D95
 10
300.776
 20
255.503
 30
-6.89541e-016
  70
    32
  0
VERTEX
  8
0
  5
8D96
 10
300.759
 20
255.474
 30
-6.71559e-016
  70
    32
  0
VERTEX
  8
0
  5
8D97
 10
300.743
 20
255.445
 30
-6.53173e-016
  70
    32
  0
VERTEX
  8
0
  5
8D98
 10
300.727
 20
255.415
 30
-6.34393e-016
  70
    32
  0
VERTEX
  8
0
  5
8D99
 10
300.712
 20
255.384
 30
-6.15232e-016
  70
    32
  0
VERTEX
  8
0
  5
8D9A
 10
300.697
 20
255.353
 30
-5.95699e-016
  70
    32
  0
VERTEX
  8
0
  5
8D9B
 10
300.682
 20
255.321
 30
-5.75808e-016
  70
    32
  0
VERTEX
  8
0
  5
8D9C
 10
300.669
 20
255.289
 30
-5.55570e-016
  70
    32
  0
VERTEX
  8
0
  5
8D9D
 10
300.655
 20
255.256
 30
-5.34998e-016
  70
    32
  0
VERTEX
  8
0
  5
8D9E
 10
300.642
 20
255.223
 30
-5.14103e-016
  70
    32
  0
VERTEX
  8
0
  5
8D9F
 10
300.630
 20
255.189
 30
-4.92898e-016
  70
    32
  0
VERTEX
  8
0
  5
8DA0
 10
300.618
 20
255.154
 30
-4.71397e-016
  70
    32
  0
VERTEX
  8
0
  5
8DA1
 10
300.607
 20
255.119
 30
-4.49611e-016
  70
    32
  0
VERTEX
  8
0
  5
8DA2
 10
300.596
 20
255.084
 30
-4.27555e-016
  70
    32
  0
VERTEX
  8
0
  5
8DA3
 10
300.586
 20
255.048
 30
-4.05241e-016
  70
    32
  0
VERTEX
  8
0
  5
8DA4
 10
300.576
 20
255.012
 30
-3.82683e-016
  70
    32
  0
VERTEX
  8
0
  5
8DA5
 10
300.567
 20
254.976
 30
-3.59895e-016
  70
    32
  0
VERTEX
  8
0
  5
8DA6
 10
300.558
 20
254.939
 30
-3.36890e-016
  70
    32
  0
VERTEX
  8
0
  5
8DA7
 10
300.550
 20
254.902
 30
-3.13682e-016
  70
    32
  0
VERTEX
  8
0
  5
8DA8
 10
300.543
 20
254.864
 30
-2.90285e-016
  70
    32
  0
VERTEX
  8
0
  5
8DA9
 10
300.536
 20
254.827
 30
-2.66713e-016
  70
    32
  0
VERTEX
  8
0
  5
8DAA
 10
300.530
 20
254.789
 30
-2.42980e-016
  70
    32
  0
VERTEX
  8
0
  5
8DAB
 10
300.524
 20
254.751
 30
-2.19101e-016
  70
    32
  0
VERTEX
  8
0
  5
8DAC
 10
300.519
 20
254.712
 30
-1.95090e-016
  70
    32
  0
VERTEX
  8
0
  5
8DAD
 10
300.515
 20
254.674
 30
-1.70962e-016
  70
    32
  0
VERTEX
  8
0
  5
8DAE
 10
300.511
 20
254.635
 30
-1.46730e-016
  70
    32
  0
VERTEX
  8
0
  5
8DAF
 10
300.508
 20
254.596
 30
-1.22411e-016
  70
    32
  0
VERTEX
  8
0
  5
8DB0
 10
300.505
 20
254.557
 30
-9.80171e-017
  70
    32
  0
VERTEX
  8
0
  5
8DB1
 10
300.503
 20
254.518
 30
-7.35646e-017
  70
    32
  0
VERTEX
  8
0
  5
8DB2
 10
300.501
 20
254.479
 30
-4.90677e-017
  70
    32
  0
VERTEX
  8
0
  5
8DB3
 10
300.500
 20
254.439
 30
-2.45412e-017
  70
    32
  0
VERTEX
  8
0
  5
8DB4
 10
300.500
 20
254.400
 30
-1.07188e-030
  70
    32
  0
VERTEX
  8
0
  5
8DB5
 10
300.500
 20
254.361
 30
2.45412e-017
  70
    32
  0
VERTEX
  8
0
  5
8DB6
 10
300.501
 20
254.321
 30
4.90677e-017
  70
    32
  0
VERTEX
  8
0
  5
8DB7
 10
300.503
 20
254.282
 30
7.35646e-017
  70
    32
  0
VERTEX
  8
0
  5
8DB8
 10
300.505
 20
254.243
 30
9.80171e-017
  70
    32
  0
VERTEX
  8
0
  5
8DB9
 10
300.508
 20
254.204
 30
1.22411e-016
  70
    32
  0
VERTEX
  8
0
  5
8DBA
 10
300.511
 20
254.165
 30
1.46730e-016
  70
    32
  0
VERTEX
  8
0
  5
8DBB
 10
300.515
 20
254.126
 30
1.70962e-016
  70
    32
  0
VERTEX
  8
0
  5
8DBC
 10
300.519
 20
254.088
 30
1.95090e-016
  70
    32
  0
VERTEX
  8
0
  5
8DBD
 10
300.524
 20
254.049
 30
2.19101e-016
  70
    32
  0
VERTEX
  8
0
  5
8DBE
 10
300.530
 20
254.011
 30
2.42980e-016
  70
    32
  0
VERTEX
  8
0
  5
8DBF
 10
300.536
 20
253.973
 30
2.66713e-016
  70
    32
  0
VERTEX
  8
0
  5
8DC0
 10
300.543
 20
253.936
 30
2.90285e-016
  70
    32
  0
VERTEX
  8
0
  5
8DC1
 10
300.550
 20
253.898
 30
3.13682e-016
  70
    32
  0
VERTEX
  8
0
  5
8DC2
 10
300.558
 20
253.861
 30
3.36890e-016
  70
    32
  0
VERTEX
  8
0
  5
8DC3
 10
300.567
 20
253.824
 30
3.59895e-016
  70
    32
  0
VERTEX
  8
0
  5
8DC4
 10
300.576
 20
253.788
 30
3.82683e-016
  70
    32
  0
VERTEX
  8
0
  5
8DC5
 10
300.586
 20
253.752
 30
4.05241e-016
  70
    32
  0
VERTEX
  8
0
  5
8DC6
 10
300.596
 20
253.716
 30
4.27555e-016
  70
    32
  0
VERTEX
  8
0
  5
8DC7
 10
300.607
 20
253.681
 30
4.49611e-016
  70
    32
  0
VERTEX
  8
0
  5
8DC8
 10
300.618
 20
253.646
 30
4.71397e-016
  70
    32
  0
VERTEX
  8
0
  5
8DC9
 10
300.630
 20
253.611
 30
4.92898e-016
  70
    32
  0
VERTEX
  8
0
  5
8DCA
 10
300.642
 20
253.577
 30
5.14103e-016
  70
    32
  0
VERTEX
  8
0
  5
8DCB
 10
300.655
 20
253.544
 30
5.34998e-016
  70
    32
  0
VERTEX
  8
0
  5
8DCC
 10
300.669
 20
253.511
 30
5.55570e-016
  70
    32
  0
VERTEX
  8
0
  5
8DCD
 10
300.682
 20
253.479
 30
5.75808e-016
  70
    32
  0
VERTEX
  8
0
  5
8DCE
 10
300.697
 20
253.447
 30
5.95699e-016
  70
    32
  0
VERTEX
  8
0
  5
8DCF
 10
300.712
 20
253.416
 30
6.15232e-016
  70
    32
  0
VERTEX
  8
0
  5
8DD0
 10
300.727
 20
253.385
 30
6.34393e-016
  70
    32
  0
VERTEX
  8
0
  5
8DD1
 10
300.743
 20
253.355
 30
6.53173e-016
  70
    32
  0
VERTEX
  8
0
  5
8DD2
 10
300.759
 20
253.326
 30
6.71559e-016
  70
    32
  0
VERTEX
  8
0
  5
8DD3
 10
300.776
 20
253.297
 30
6.89541e-016
  70
    32
  0
VERTEX
  8
0
  5
8DD4
 10
300.793
 20
253.269
 30
7.07107e-016
  70
    32
  0
VERTEX
  8
0
  5
8DD5
 10
300.810
 20
253.241
 30
7.24247e-016
  70
    32
  0
VERTEX
  8
0
  5
8DD6
 10
300.828
 20
253.214
 30
7.40951e-016
  70
    32
  0
VERTEX
  8
0
  5
8DD7
 10
300.847
 20
253.188
 30
7.57209e-016
  70
    32
  0
VERTEX
  8
0
  5
8DD8
 10
300.866
 20
253.163
 30
7.73010e-016
  70
    32
  0
VERTEX
  8
0
  5
8DD9
 10
300.885
 20
253.139
 30
7.88346e-016
  70
    32
  0
VERTEX
  8
0
  5
8DDA
 10
300.904
 20
253.115
 30
8.03208e-016
  70
    32
  0
VERTEX
  8
0
  5
8DDB
 10
300.924
 20
253.092
 30
8.17585e-016
  70
    32
  0
VERTEX
  8
0
  5
8DDC
 10
300.944
 20
253.070
 30
8.31470e-016
  70
    32
  0
VERTEX
  8
0
  5
8DDD
 10
300.965
 20
253.048
 30
8.44854e-016
  70
    32
  0
VERTEX
  8
0
  5
8DDE
 10
300.986
 20
253.028
 30
8.57729e-016
  70
    32
  0
VERTEX
  8
0
  5
8DDF
 10
301.007
 20
253.008
 30
8.70087e-016
  70
    32
  0
VERTEX
  8
0
  5
8DE0
 10
301.029
 20
252.989
 30
8.81921e-016
  70
    32
  0
VERTEX
  8
0
  5
8DE1
 10
301.050
 20
252.971
 30
8.93224e-016
  70
    32
  0
VERTEX
  8
0
  5
8DE2
 10
301.072
 20
252.954
 30
9.03989e-016
  70
    32
  0
VERTEX
  8
0
  5
8DE3
 10
301.095
 20
252.937
 30
9.14210e-016
  70
    32
  0
VERTEX
  8
0
  5
8DE4
 10
301.117
 20
252.922
 30
9.23880e-016
  70
    32
  0
VERTEX
  8
0
  5
8DE5
 10
301.140
 20
252.907
 30
9.32993e-016
  70
    32
  0
VERTEX
  8
0
  5
8DE6
 10
301.163
 20
252.894
 30
9.41544e-016
  70
    32
  0
VERTEX
  8
0
  5
8DE7
 10
301.186
 20
252.881
 30
9.49528e-016
  70
    32
  0
VERTEX
  8
0
  5
8DE8
 10
301.210
 20
252.869
 30
9.56940e-016
  70
    32
  0
VERTEX
  8
0
  5
8DE9
 10
301.233
 20
252.858
 30
9.63776e-016
  70
    32
  0
VERTEX
  8
0
  5
8DEA
 10
301.257
 20
252.848
 30
9.70031e-016
  70
    32
  0
VERTEX
  8
0
  5
8DEB
 10
301.281
 20
252.839
 30
9.75702e-016
  70
    32
  0
VERTEX
  8
0
  5
8DEC
 10
301.305
 20
252.831
 30
9.80785e-016
  70
    32
  0
VERTEX
  8
0
  5
8DED
 10
301.329
 20
252.824
 30
9.85278e-016
  70
    32
  0
VERTEX
  8
0
  5
8DEE
 10
301.353
 20
252.817
 30
9.89177e-016
  70
    32
  0
VERTEX
  8
0
  5
8DEF
 10
301.378
 20
252.812
 30
9.92480e-016
  70
    32
  0
VERTEX
  8
0
  5
8DF0
 10
301.402
 20
252.808
 30
9.95185e-016
  70
    32
  0
VERTEX
  8
0
  5
8DF1
 10
301.426
 20
252.804
 30
9.97290e-016
  70
    32
  0
VERTEX
  8
0
  5
8DF2
 10
301.451
 20
252.802
 30
9.98795e-016
  70
    32
  0
VERTEX
  8
0
  5
8DF3
 10
301.475
 20
252.800
 30
9.99699e-016
  70
    32
  0
VERTEX
  8
0
  5
8DF4
 10
301.500
 20
252.800
 30
1.00000e-015
  70
    32
  0
SEQEND
  8
0
  5
8DF5
  0
LINE
  5
8486
  8
0
 10
300.49999981373549
 20
238.7999971807003
 30
0.0
 11
300.49999981373549
 21
237.79999887943271
 31
0.0
  0
LINE
  5
8487
  8
0
 10
325.50000018626451
 20
237.79999887943271
 30
0.0
 11
325.50000018626451
 21
238.7999971807003
 31
0.0
  0
LINE
  5
8488
  8
0
 10
300.49999981373549
 20
219.79999965429309
 30
0.0
 11
300.80000023543829
 21
219.4999983012676
 31
0.0
  0
LINE
  5
8489
  8
0
 10
325.1999997645616
 20
219.4999983012676
 30
0.0
 11
325.50000018626451
 21
219.79999965429309
 31
0.0
  0
LINE
  5
848A
  8
0
 10
325.50000018626451
 20
256.99999979138369
 30
0.0
 11
325.1999997645616
 21
257.29999928176397
 31
0.0
  0
LINE
  5
848B
  8
0
 10
300.80000023543829
 20
257.29999928176397
 30
0.0
 11
300.49999981373549
 21
256.99999979138369
 31
0.0
  0
LINE
  5
848C
  8
0
 10
325.50000018626451
 20
242.99999749660489
 30
0.0
 11
325.1999997645616
 21
243.29999884963041
 31
0.0
  0
LINE
  5
848D
  8
0
 10
300.80000023543829
 20
243.29999884963041
 30
0.0
 11
300.49999981373549
 21
242.99999749660489
 31
0.0
  0
LINE
  5
848E
  8
0
 10
300.49999981373549
 20
237.79999887943271
 30
0.0
 11
300.80000023543829
 21
237.49999752640721
 31
0.0
  0
LINE
  5
848F
  8
0
 10
325.1999997645616
 20
237.49999752640721
 30
0.0
 11
325.50000018626451
 21
237.79999887943271
 31
0.0
  0
LINE
  5
8490
  8
0
 10
300.49999981373549
 20
256.99999979138369
 30
0.0
 11
300.49999981373549
 21
255.999999627471
 31
0.0
  0
LINE
  5
8491
  8
0
 10
325.50000018626451
 20
255.999999627471
 30
0.0
 11
325.50000018626451
 21
256.99999979138369
 31
0.0
  0
LINE
  5
8492
  8
0
 10
325.50000018626451
 20
228.99999892711639
 30
0.0
 11
325.1999997645616
 21
229.3000002801418
 31
0.0
  0
LINE
  5
8493
  8
0
 10
300.80000023543829
 20
229.3000002801418
 30
0.0
 11
300.49999981373549
 21
228.99999892711639
 31
0.0
  0
LINE
  5
8494
  8
0
 10
300.49999981373549
 20
220.99999761581421
 30
0.0
 11
300.49999981373549
 21
219.79999965429309
 31
0.0
  0
LINE
  5
8495
  8
0
 10
325.50000018626451
 20
219.79999965429309
 30
0.0
 11
325.50000018626451
 21
220.99999761581421
 31
0.0
  0
LINE
  5
8496
  8
0
 10
300.49999981373549
 20
252.7999994754791
 30
0.0
 11
300.49999981373549
 21
251.79999931156641
 31
0.0
  0
LINE
  5
8497
  8
0
 10
325.50000018626451
 20
251.79999931156641
 30
0.0
 11
325.50000018626451
 21
252.7999994754791
 31
0.0
  0
LINE
  5
8498
  8
0
 10
300.49999981373549
 20
228.99999892711639
 30
0.0
 11
300.49999981373549
 21
228.0000006258488
 31
0.0
  0
LINE
  5
8499
  8
0
 10
325.50000018626451
 20
228.0000006258488
 30
0.0
 11
325.50000018626451
 21
228.99999892711639
 31
0.0
  0
LINE
  5
849A
  8
0
 10
300.49999981373549
 20
242.99999749660489
 30
0.0
 11
300.49999981373549
 21
241.9999991953373
 31
0.0
  0
LINE
  5
849B
  8
0
 10
325.50000018626451
 20
241.9999991953373
 30
0.0
 11
325.50000018626451
 21
242.99999749660489
 31
0.0
  0
LINE
  5
849C
  8
0
 10
300.49999981373549
 20
251.79999931156641
 30
0.0
 11
300.80000023543829
 21
251.49999982118609
 31
0.0
  0
LINE
  5
849D
  8
0
 10
325.1999997645616
 20
251.49999982118609
 30
0.0
 11
325.50000018626451
 21
251.79999931156641
 31
0.0
  0
LINE
  5
849E
  8
0
 10
300.49999981373549
 20
224.79999861121181
 30
0.0
 11
300.49999981373549
 21
222.3499981164932
 31
0.0
  0
LINE
  5
849F
  8
0
 10
325.50000018626451
 20
222.3499981164932
 30
0.0
 11
325.50000018626451
 21
224.79999861121181
 31
0.0
  0
LINE
  5
84A0
  8
0
 10
325.1999997645616
 20
257.29999928176397
 30
0.0
 11
325.1999997645616
 21
269.49999904632568
 31
0.0
  0
LINE
  5
84A1
  8
0
 10
300.80000023543829
 20
269.49999904632568
 30
0.0
 11
300.80000023543829
 21
257.29999928176397
 31
0.0
  0
LINE
  5
84A2
  8
0
 10
325.1999997645616
 20
232.99999958276749
 30
0.0
 11
325.1999997645616
 21
237.49999752640721
 31
0.0
  0
LINE
  5
84A3
  8
0
 10
325.1999997645616
 20
229.3000002801418
 30
0.0
 11
325.1999997645616
 21
229.99999528975869
 31
0.0
  0
LINE
  5
84A4
  8
0
 10
300.80000023543829
 20
237.49999752640721
 30
0.0
 11
300.80000023543829
 21
229.3000002801418
 31
0.0
  0
LINE
  5
84A5
  8
0
 10
325.1999997645616
 20
218.6999996602535
 30
0.0
 11
325.1999997645616
 21
219.4999983012676
 31
0.0
  0
LINE
  5
84A6
  8
0
 10
300.80000023543829
 20
219.4999983012676
 30
0.0
 11
300.80000023543829
 21
218.6999996602535
 31
0.0
  0
LINE
  5
84A7
  8
0
 10
325.1999997645616
 20
250.9999988079071
 30
0.0
 11
325.1999997645616
 21
251.49999982118609
 31
0.0
  0
LINE
  5
84A8
  8
0
 10
325.1999997645616
 20
243.29999884963041
 30
0.0
 11
325.1999997645616
 21
248.0000003780122
 31
0.0
  0
LINE
  5
84A9
  8
0
 10
300.80000023543829
 20
251.49999982118609
 30
0.0
 11
300.80000023543829
 21
243.29999884963041
 31
0.0
  0
LINE
  5
84AA
  8
0
 10
300.80000023543829
 20
218.6999996602535
 30
0.0
 11
300.99999989569187
 21
218.5
 31
0.0
  0
LINE
  5
84AB
  8
0
 10
325.00000010430813
 20
218.5
 30
0.0
 11
325.1999997645616
 21
218.6999996602535
 31
0.0
  0
LINE
  5
84AC
  8
0
 10
301.0499998107552
 20
222.3499981164932
 30
0.0
 11
301.0499998107552
 21
220.99999761581421
 31
0.0
  0
LINE
  5
84AD
  8
0
 10
324.95000018924469
 20
220.99999761581421
 30
0.0
 11
324.95000018924469
 21
222.3499981164932
 31
0.0
  0
LINE
  5
84AE
  8
0
 10
300.49999981373549
 20
238.7999971807003
 30
0.0
 11
325.50000018626451
 21
238.7999971807003
 31
0.0
  0
LINE
  5
84AF
  8
0
 10
325.1999997645616
 20
219.4999983012676
 30
0.0
 11
300.80000023543829
 21
219.4999983012676
 31
0.0
  0
LINE
  5
84B0
  8
0
 10
325.1999997645616
 20
257.29999928176397
 30
0.0
 11
300.80000023543829
 21
257.29999928176397
 31
0.0
  0
LINE
  5
84B1
  8
0
 10
325.1999997645616
 20
243.29999884963041
 30
0.0
 11
300.80000023543829
 21
243.29999884963041
 31
0.0
  0
LINE
  5
84B2
  8
0
 10
325.1999997645616
 20
237.49999752640721
 30
0.0
 11
300.80000023543829
 21
237.49999752640721
 31
0.0
  0
LINE
  5
84B3
  8
0
 10
300.49999981373549
 20
255.999999627471
 30
0.0
 11
325.50000018626451
 21
255.999999627471
 31
0.0
  0
LINE
  5
84B4
  8
0
 10
325.1999997645616
 20
229.3000002801418
 30
0.0
 11
300.80000023543829
 21
229.3000002801418
 31
0.0
  0
LINE
  5
84B5
  8
0
 10
300.49999981373549
 20
220.99999761581421
 30
0.0
 11
325.50000018626451
 21
220.99999761581421
 31
0.0
  0
LINE
  5
84B6
  8
0
 10
300.49999981373549
 20
252.7999994754791
 30
0.0
 11
325.50000018626451
 21
252.7999994754791
 31
0.0
  0
LINE
  5
84B7
  8
0
 10
300.49999981373549
 20
228.0000006258488
 30
0.0
 11
325.50000018626451
 21
228.0000006258488
 31
0.0
  0
LINE
  5
84B8
  8
0
 10
300.49999981373549
 20
241.9999991953373
 30
0.0
 11
325.50000018626451
 21
241.9999991953373
 31
0.0
  0
LINE
  5
84B9
  8
0
 10
325.1999997645616
 20
251.49999982118609
 30
0.0
 11
300.80000023543829
 21
251.49999982118609
 31
0.0
  0
LINE
  5
84BA
  8
0
 10
300.49999981373549
 20
224.79999861121181
 30
0.0
 11
325.50000018626451
 21
224.79999861121181
 31
0.0
  0
LINE
  5
84BB
  8
0
 10
300.49999981373549
 20
222.3499981164932
 30
0.0
 11
325.50000018626451
 21
222.3499981164932
 31
0.0
  0
LINE
  5
84BE
  8
0
 10
325.00000010430813
 20
218.5
 30
0.0
 11
300.99999989569187
 21
218.5
 31
0.0
  0
POLYLINE
  5
84BF
  8
0
 10
524.50000000000023
 20
224.79999898672096
 30
0.0
 66
     1
 70
     8
  0
VERTEX
  8
0
  5
8DF6
 10
524.500
 20
224.800
 30
0.000000
  70
    32
  0
VERTEX
  8
0
  5
8DF7
 10
524.525
 20
224.800
 30
0.000000
  70
    32
  0
VERTEX
  8
0
  5
8DF8
 10
524.549
 20
224.802
 30
0.000000
  70
    32
  0
VERTEX
  8
0
  5
8DF9
 10
524.574
 20
224.804
 30
0.000000
  70
    32
  0
VERTEX
  8
0
  5
8DFA
 10
524.598
 20
224.808
 30
0.000000
  70
    32
  0
VERTEX
  8
0
  5
8DFB
 10
524.622
 20
224.812
 30
0.000000
  70
    32
  0
VERTEX
  8
0
  5
8DFC
 10
524.647
 20
224.817
 30
0.000000
  70
    32
  0
VERTEX
  8
0
  5
8DFD
 10
524.671
 20
224.824
 30
0.000000
  70
    32
  0
VERTEX
  8
0
  5
8DFE
 10
524.695
 20
224.831
 30
0.000000
  70
    32
  0
VERTEX
  8
0
  5
8DFF
 10
524.719
 20
224.839
 30
0.000000
  70
    32
  0
VERTEX
  8
0
  5
8E00
 10
524.743
 20
224.848
 30
0.000000
  70
    32
  0
VERTEX
  8
0
  5
8E01
 10
524.767
 20
224.858
 30
0.000000
  70
    32
  0
VERTEX
  8
0
  5
8E02
 10
524.790
 20
224.869
 30
0.000000
  70
    32
  0
VERTEX
  8
0
  5
8E03
 10
524.814
 20
224.881
 30
0.000000
  70
    32
  0
VERTEX
  8
0
  5
8E04
 10
524.837
 20
224.894
 30
0.000000
  70
    32
  0
VERTEX
  8
0
  5
8E05
 10
524.860
 20
224.907
 30
0.000000
  70
    32
  0
VERTEX
  8
0
  5
8E06
 10
524.883
 20
224.922
 30
0.000000
  70
    32
  0
VERTEX
  8
0
  5
8E07
 10
524.905
 20
224.937
 30
0.000000
  70
    32
  0
VERTEX
  8
0
  5
8E08
 10
524.928
 20
224.954
 30
0.000000
  70
    32
  0
VERTEX
  8
0
  5
8E09
 10
524.950
 20
224.971
 30
0.000000
  70
    32
  0
VERTEX
  8
0
  5
8E0A
 10
524.971
 20
224.989
 30
0.000000
  70
    32
  0
VERTEX
  8
0
  5
8E0B
 10
524.993
 20
225.008
 30
0.000000
  70
    32
  0
VERTEX
  8
0
  5
8E0C
 10
525.014
 20
225.028
 30
0.000000
  70
    32
  0
VERTEX
  8
0
  5
8E0D
 10
525.035
 20
225.048
 30
0.000000
  70
    32
  0
VERTEX
  8
0
  5
8E0E
 10
525.056
 20
225.070
 30
0.000000
  70
    32
  0
VERTEX
  8
0
  5
8E0F
 10
525.076
 20
225.092
 30
0.000000
  70
    32
  0
VERTEX
  8
0
  5
8E10
 10
525.096
 20
225.115
 30
0.000000
  70
    32
  0
VERTEX
  8
0
  5
8E11
 10
525.115
 20
225.139
 30
0.000000
  70
    32
  0
VERTEX
  8
0
  5
8E12
 10
525.134
 20
225.163
 30
0.000000
  70
    32
  0
VERTEX
  8
0
  5
8E13
 10
525.153
 20
225.188
 30
0.000000
  70
    32
  0
VERTEX
  8
0
  5
8E14
 10
525.172
 20
225.214
 30
0.000000
  70
    32
  0
VERTEX
  8
0
  5
8E15
 10
525.190
 20
225.241
 30
0.000000
  70
    32
  0
VERTEX
  8
0
  5
8E16
 10
525.207
 20
225.269
 30
0.000000
  70
    32
  0
VERTEX
  8
0
  5
8E17
 10
525.224
 20
225.297
 30
0.000000
  70
    32
  0
VERTEX
  8
0
  5
8E18
 10
525.241
 20
225.326
 30
0.000000
  70
    32
  0
VERTEX
  8
0
  5
8E19
 10
525.257
 20
225.355
 30
0.000000
  70
    32
  0
VERTEX
  8
0
  5
8E1A
 10
525.273
 20
225.385
 30
0.000000
  70
    32
  0
VERTEX
  8
0
  5
8E1B
 10
525.288
 20
225.416
 30
0.000000
  70
    32
  0
VERTEX
  8
0
  5
8E1C
 10
525.303
 20
225.447
 30
0.000000
  70
    32
  0
VERTEX
  8
0
  5
8E1D
 10
525.318
 20
225.479
 30
0.000000
  70
    32
  0
VERTEX
  8
0
  5
8E1E
 10
525.331
 20
225.511
 30
0.000000
  70
    32
  0
VERTEX
  8
0
  5
8E1F
 10
525.345
 20
225.544
 30
0.000000
  70
    32
  0
VERTEX
  8
0
  5
8E20
 10
525.358
 20
225.577
 30
0.000000
  70
    32
  0
VERTEX
  8
0
  5
8E21
 10
525.370
 20
225.611
 30
0.000000
  70
    32
  0
VERTEX
  8
0
  5
8E22
 10
525.382
 20
225.646
 30
0.000000
  70
    32
  0
VERTEX
  8
0
  5
8E23
 10
525.393
 20
225.681
 30
0.000000
  70
    32
  0
VERTEX
  8
0
  5
8E24
 10
525.404
 20
225.716
 30
0.000000
  70
    32
  0
VERTEX
  8
0
  5
8E25
 10
525.414
 20
225.752
 30
0.000000
  70
    32
  0
VERTEX
  8
0
  5
8E26
 10
525.424
 20
225.788
 30
0.000000
  70
    32
  0
VERTEX
  8
0
  5
8E27
 10
525.433
 20
225.824
 30
0.000000
  70
    32
  0
VERTEX
  8
0
  5
8E28
 10
525.442
 20
225.861
 30
0.000000
  70
    32
  0
VERTEX
  8
0
  5
8E29
 10
525.450
 20
225.898
 30
0.000000
  70
    32
  0
VERTEX
  8
0
  5
8E2A
 10
525.457
 20
225.936
 30
0.000000
  70
    32
  0
VERTEX
  8
0
  5
8E2B
 10
525.464
 20
225.973
 30
0.000000
  70
    32
  0
VERTEX
  8
0
  5
8E2C
 10
525.470
 20
226.011
 30
0.000000
  70
    32
  0
VERTEX
  8
0
  5
8E2D
 10
525.476
 20
226.049
 30
0.000000
  70
    32
  0
VERTEX
  8
0
  5
8E2E
 10
525.481
 20
226.088
 30
0.000000
  70
    32
  0
VERTEX
  8
0
  5
8E2F
 10
525.485
 20
226.126
 30
0.000000
  70
    32
  0
VERTEX
  8
0
  5
8E30
 10
525.489
 20
226.165
 30
0.000000
  70
    32
  0
VERTEX
  8
0
  5
8E31
 10
525.492
 20
226.204
 30
0.000000
  70
    32
  0
VERTEX
  8
0
  5
8E32
 10
525.495
 20
226.243
 30
0.000000
  70
    32
  0
VERTEX
  8
0
  5
8E33
 10
525.497
 20
226.282
 30
0.000000
  70
    32
  0
VERTEX
  8
0
  5
8E34
 10
525.499
 20
226.321
 30
0.000000
  70
    32
  0
VERTEX
  8
0
  5
8E35
 10
525.500
 20
226.361
 30
0.000000
  70
    32
  0
VERTEX
  8
0
  5
8E36
 10
525.500
 20
226.400
 30
0.000000
  70
    32
  0
VERTEX
  8
0
  5
8E37
 10
525.500
 20
226.439
 30
0.000000
  70
    32
  0
VERTEX
  8
0
  5
8E38
 10
525.499
 20
226.479
 30
0.000000
  70
    32
  0
VERTEX
  8
0
  5
8E39
 10
525.497
 20
226.518
 30
0.000000
  70
    32
  0
VERTEX
  8
0
  5
8E3A
 10
525.495
 20
226.557
 30
0.000000
  70
    32
  0
VERTEX
  8
0
  5
8E3B
 10
525.492
 20
226.596
 30
0.000000
  70
    32
  0
VERTEX
  8
0
  5
8E3C
 10
525.489
 20
226.635
 30
0.000000
  70
    32
  0
VERTEX
  8
0
  5
8E3D
 10
525.485
 20
226.674
 30
0.000000
  70
    32
  0
VERTEX
  8
0
  5
8E3E
 10
525.481
 20
226.712
 30
0.000000
  70
    32
  0
VERTEX
  8
0
  5
8E3F
 10
525.476
 20
226.751
 30
0.000000
  70
    32
  0
VERTEX
  8
0
  5
8E40
 10
525.470
 20
226.789
 30
0.000000
  70
    32
  0
VERTEX
  8
0
  5
8E41
 10
525.464
 20
226.827
 30
0.000000
  70
    32
  0
VERTEX
  8
0
  5
8E42
 10
525.457
 20
226.864
 30
0.000000
  70
    32
  0
VERTEX
  8
0
  5
8E43
 10
525.450
 20
226.902
 30
0.000000
  70
    32
  0
VERTEX
  8
0
  5
8E44
 10
525.442
 20
226.939
 30
0.000000
  70
    32
  0
VERTEX
  8
0
  5
8E45
 10
525.433
 20
226.976
 30
0.000000
  70
    32
  0
VERTEX
  8
0
  5
8E46
 10
525.424
 20
227.012
 30
0.000000
  70
    32
  0
VERTEX
  8
0
  5
8E47
 10
525.414
 20
227.048
 30
0.000000
  70
    32
  0
VERTEX
  8
0
  5
8E48
 10
525.404
 20
227.084
 30
0.000000
  70
    32
  0
VERTEX
  8
0
  5
8E49
 10
525.393
 20
227.119
 30
0.000000
  70
    32
  0
VERTEX
  8
0
  5
8E4A
 10
525.382
 20
227.154
 30
0.000000
  70
    32
  0
VERTEX
  8
0
  5
8E4B
 10
525.370
 20
227.189
 30
0.000000
  70
    32
  0
VERTEX
  8
0
  5
8E4C
 10
525.358
 20
227.223
 30
0.000000
  70
    32
  0
VERTEX
  8
0
  5
8E4D
 10
525.345
 20
227.256
 30
0.000000
  70
    32
  0
VERTEX
  8
0
  5
8E4E
 10
525.331
 20
227.289
 30
0.000000
  70
    32
  0
VERTEX
  8
0
  5
8E4F
 10
525.318
 20
227.321
 30
0.000000
  70
    32
  0
VERTEX
  8
0
  5
8E50
 10
525.303
 20
227.353
 30
0.000000
  70
    32
  0
VERTEX
  8
0
  5
8E51
 10
525.288
 20
227.384
 30
0.000000
  70
    32
  0
VERTEX
  8
0
  5
8E52
 10
525.273
 20
227.415
 30
0.000000
  70
    32
  0
VERTEX
  8
0
  5
8E53
 10
525.257
 20
227.445
 30
0.000000
  70
    32
  0
VERTEX
  8
0
  5
8E54
 10
525.241
 20
227.474
 30
0.000000
  70
    32
  0
VERTEX
  8
0
  5
8E55
 10
525.224
 20
227.503
 30
0.000000
  70
    32
  0
VERTEX
  8
0
  5
8E56
 10
525.207
 20
227.531
 30
0.000000
  70
    32
  0
VERTEX
  8
0
  5
8E57
 10
525.190
 20
227.559
 30
0.000000
  70
    32
  0
VERTEX
  8
0
  5
8E58
 10
525.172
 20
227.586
 30
0.000000
  70
    32
  0
VERTEX
  8
0
  5
8E59
 10
525.153
 20
227.612
 30
0.000000
  70
    32
  0
VERTEX
  8
0
  5
8E5A
 10
525.134
 20
227.637
 30
0.000000
  70
    32
  0
VERTEX
  8
0
  5
8E5B
 10
525.115
 20
227.661
 30
0.000000
  70
    32
  0
VERTEX
  8
0
  5
8E5C
 10
525.096
 20
227.685
 30
0.000000
  70
    32
  0
VERTEX
  8
0
  5
8E5D
 10
525.076
 20
227.708
 30
0.000000
  70
    32
  0
VERTEX
  8
0
  5
8E5E
 10
525.056
 20
227.730
 30
0.000000
  70
    32
  0
VERTEX
  8
0
  5
8E5F
 10
525.035
 20
227.752
 30
0.000000
  70
    32
  0
VERTEX
  8
0
  5
8E60
 10
525.014
 20
227.772
 30
0.000000
  70
    32
  0
VERTEX
  8
0
  5
8E61
 10
524.993
 20
227.792
 30
0.000000
  70
    32
  0
VERTEX
  8
0
  5
8E62
 10
524.971
 20
227.811
 30
0.000000
  70
    32
  0
VERTEX
  8
0
  5
8E63
 10
524.950
 20
227.829
 30
0.000000
  70
    32
  0
VERTEX
  8
0
  5
8E64
 10
524.928
 20
227.846
 30
0.000000
  70
    32
  0
VERTEX
  8
0
  5
8E65
 10
524.905
 20
227.863
 30
0.000000
  70
    32
  0
VERTEX
  8
0
  5
8E66
 10
524.883
 20
227.878
 30
0.000000
  70
    32
  0
VERTEX
  8
0
  5
8E67
 10
524.860
 20
227.893
 30
0.000000
  70
    32
  0
VERTEX
  8
0
  5
8E68
 10
524.837
 20
227.906
 30
0.000000
  70
    32
  0
VERTEX
  8
0
  5
8E69
 10
524.814
 20
227.919
 30
0.000000
  70
    32
  0
VERTEX
  8
0
  5
8E6A
 10
524.790
 20
227.931
 30
0.000000
  70
    32
  0
VERTEX
  8
0
  5
8E6B
 10
524.767
 20
227.942
 30
0.000000
  70
    32
  0
VERTEX
  8
0
  5
8E6C
 10
524.743
 20
227.952
 30
0.000000
  70
    32
  0
VERTEX
  8
0
  5
8E6D
 10
524.719
 20
227.961
 30
0.000000
  70
    32
  0
VERTEX
  8
0
  5
8E6E
 10
524.695
 20
227.969
 30
0.000000
  70
    32
  0
VERTEX
  8
0
  5
8E6F
 10
524.671
 20
227.976
 30
0.000000
  70
    32
  0
VERTEX
  8
0
  5
8E70
 10
524.647
 20
227.983
 30
0.000000
  70
    32
  0
VERTEX
  8
0
  5
8E71
 10
524.622
 20
227.988
 30
0.000000
  70
    32
  0
VERTEX
  8
0
  5
8E72
 10
524.598
 20
227.992
 30
0.000000
  70
    32
  0
VERTEX
  8
0
  5
8E73
 10
524.574
 20
227.996
 30
0.000000
  70
    32
  0
VERTEX
  8
0
  5
8E74
 10
524.549
 20
227.998
 30
0.000000
  70
    32
  0
VERTEX
  8
0
  5
8E75
 10
524.525
 20
228.000
 30
0.000000
  70
    32
  0
VERTEX
  8
0
  5
8E76
 10
524.500
 20
228.000
 30
0.000000
  70
    32
  0
SEQEND
  8
0
  5
8E77
  0
POLYLINE
  5
84C0
  8
0
 10
501.50000000000023
 20
227.99999898672112
 30
0.0
 66
     1
 70
     8
  0
VERTEX
  8
0
  5
8E78
 10
501.500
 20
228.000
 30
0.000000
  70
    32
  0
VERTEX
  8
0
  5
8E79
 10
501.475
 20
228.000
 30
0.000000
  70
    32
  0
VERTEX
  8
0
  5
8E7A
 10
501.451
 20
227.998
 30
0.000000
  70
    32
  0
VERTEX
  8
0
  5
8E7B
 10
501.426
 20
227.996
 30
0.000000
  70
    32
  0
VERTEX
  8
0
  5
8E7C
 10
501.402
 20
227.992
 30
0.000000
  70
    32
  0
VERTEX
  8
0
  5
8E7D
 10
501.378
 20
227.988
 30
0.000000
  70
    32
  0
VERTEX
  8
0
  5
8E7E
 10
501.353
 20
227.983
 30
0.000000
  70
    32
  0
VERTEX
  8
0
  5
8E7F
 10
501.329
 20
227.976
 30
0.000000
  70
    32
  0
VERTEX
  8
0
  5
8E80
 10
501.305
 20
227.969
 30
0.000000
  70
    32
  0
VERTEX
  8
0
  5
8E81
 10
501.281
 20
227.961
 30
0.000000
  70
    32
  0
VERTEX
  8
0
  5
8E82
 10
501.257
 20
227.952
 30
0.000000
  70
    32
  0
VERTEX
  8
0
  5
8E83
 10
501.233
 20
227.942
 30
0.000000
  70
    32
  0
VERTEX
  8
0
  5
8E84
 10
501.210
 20
227.931
 30
0.000000
  70
    32
  0
VERTEX
  8
0
  5
8E85
 10
501.186
 20
227.919
 30
0.000000
  70
    32
  0
VERTEX
  8
0
  5
8E86
 10
501.163
 20
227.906
 30
0.000000
  70
    32
  0
VERTEX
  8
0
  5
8E87
 10
501.140
 20
227.893
 30
0.000000
  70
    32
  0
VERTEX
  8
0
  5
8E88
 10
501.117
 20
227.878
 30
0.000000
  70
    32
  0
VERTEX
  8
0
  5
8E89
 10
501.095
 20
227.863
 30
0.000000
  70
    32
  0
VERTEX
  8
0
  5
8E8A
 10
501.072
 20
227.846
 30
0.000000
  70
    32
  0
VERTEX
  8
0
  5
8E8B
 10
501.050
 20
227.829
 30
0.000000
  70
    32
  0
VERTEX
  8
0
  5
8E8C
 10
501.029
 20
227.811
 30
0.000000
  70
    32
  0
VERTEX
  8
0
  5
8E8D
 10
501.007
 20
227.792
 30
0.000000
  70
    32
  0
VERTEX
  8
0
  5
8E8E
 10
500.986
 20
227.772
 30
0.000000
  70
    32
  0
VERTEX
  8
0
  5
8E8F
 10
500.965
 20
227.752
 30
0.000000
  70
    32
  0
VERTEX
  8
0
  5
8E90
 10
500.944
 20
227.730
 30
0.000000
  70
    32
  0
VERTEX
  8
0
  5
8E91
 10
500.924
 20
227.708
 30
0.000000
  70
    32
  0
VERTEX
  8
0
  5
8E92
 10
500.904
 20
227.685
 30
0.000000
  70
    32
  0
VERTEX
  8
0
  5
8E93
 10
500.885
 20
227.661
 30
0.000000
  70
    32
  0
VERTEX
  8
0
  5
8E94
 10
500.866
 20
227.637
 30
0.000000
  70
    32
  0
VERTEX
  8
0
  5
8E95
 10
500.847
 20
227.612
 30
0.000000
  70
    32
  0
VERTEX
  8
0
  5
8E96
 10
500.828
 20
227.586
 30
0.000000
  70
    32
  0
VERTEX
  8
0
  5
8E97
 10
500.810
 20
227.559
 30
0.000000
  70
    32
  0
VERTEX
  8
0
  5
8E98
 10
500.793
 20
227.531
 30
0.000000
  70
    32
  0
VERTEX
  8
0
  5
8E99
 10
500.776
 20
227.503
 30
0.000000
  70
    32
  0
VERTEX
  8
0
  5
8E9A
 10
500.759
 20
227.474
 30
0.000000
  70
    32
  0
VERTEX
  8
0
  5
8E9B
 10
500.743
 20
227.445
 30
0.000000
  70
    32
  0
VERTEX
  8
0
  5
8E9C
 10
500.727
 20
227.415
 30
0.000000
  70
    32
  0
VERTEX
  8
0
  5
8E9D
 10
500.712
 20
227.384
 30
0.000000
  70
    32
  0
VERTEX
  8
0
  5
8E9E
 10
500.697
 20
227.353
 30
0.000000
  70
    32
  0
VERTEX
  8
0
  5
8E9F
 10
500.682
 20
227.321
 30
0.000000
  70
    32
  0
VERTEX
  8
0
  5
8EA0
 10
500.669
 20
227.289
 30
0.000000
  70
    32
  0
VERTEX
  8
0
  5
8EA1
 10
500.655
 20
227.256
 30
0.000000
  70
    32
  0
VERTEX
  8
0
  5
8EA2
 10
500.642
 20
227.223
 30
0.000000
  70
    32
  0
VERTEX
  8
0
  5
8EA3
 10
500.630
 20
227.189
 30
0.000000
  70
    32
  0
VERTEX
  8
0
  5
8EA4
 10
500.618
 20
227.154
 30
0.000000
  70
    32
  0
VERTEX
  8
0
  5
8EA5
 10
500.607
 20
227.119
 30
0.000000
  70
    32
  0
VERTEX
  8
0
  5
8EA6
 10
500.596
 20
227.084
 30
0.000000
  70
    32
  0
VERTEX
  8
0
  5
8EA7
 10
500.586
 20
227.048
 30
0.000000
  70
    32
  0
VERTEX
  8
0
  5
8EA8
 10
500.576
 20
227.012
 30
0.000000
  70
    32
  0
VERTEX
  8
0
  5
8EA9
 10
500.567
 20
226.976
 30
0.000000
  70
    32
  0
VERTEX
  8
0
  5
8EAA
 10
500.558
 20
226.939
 30
0.000000
  70
    32
  0
VERTEX
  8
0
  5
8EAB
 10
500.550
 20
226.902
 30
0.000000
  70
    32
  0
VERTEX
  8
0
  5
8EAC
 10
500.543
 20
226.864
 30
0.000000
  70
    32
  0
VERTEX
  8
0
  5
8EAD
 10
500.536
 20
226.827
 30
0.000000
  70
    32
  0
VERTEX
  8
0
  5
8EAE
 10
500.530
 20
226.789
 30
0.000000
  70
    32
  0
VERTEX
  8
0
  5
8EAF
 10
500.524
 20
226.751
 30
0.000000
  70
    32
  0
VERTEX
  8
0
  5
8EB0
 10
500.519
 20
226.712
 30
0.000000
  70
    32
  0
VERTEX
  8
0
  5
8EB1
 10
500.515
 20
226.674
 30
0.000000
  70
    32
  0
VERTEX
  8
0
  5
8EB2
 10
500.511
 20
226.635
 30
0.000000
  70
    32
  0
VERTEX
  8
0
  5
8EB3
 10
500.508
 20
226.596
 30
0.000000
  70
    32
  0
VERTEX
  8
0
  5
8EB4
 10
500.505
 20
226.557
 30
0.000000
  70
    32
  0
VERTEX
  8
0
  5
8EB5
 10
500.503
 20
226.518
 30
0.000000
  70
    32
  0
VERTEX
  8
0
  5
8EB6
 10
500.501
 20
226.479
 30
0.000000
  70
    32
  0
VERTEX
  8
0
  5
8EB7
 10
500.500
 20
226.439
 30
0.000000
  70
    32
  0
VERTEX
  8
0
  5
8EB8
 10
500.500
 20
226.400
 30
0.000000
  70
    32
  0
VERTEX
  8
0
  5
8EB9
 10
500.500
 20
226.361
 30
0.000000
  70
    32
  0
VERTEX
  8
0
  5
8EBA
 10
500.501
 20
226.321
 30
0.000000
  70
    32
  0
VERTEX
  8
0
  5
8EBB
 10
500.503
 20
226.282
 30
0.000000
  70
    32
  0
VERTEX
  8
0
  5
8EBC
 10
500.505
 20
226.243
 30
0.000000
  70
    32
  0
VERTEX
  8
0
  5
8EBD
 10
500.508
 20
226.204
 30
0.000000
  70
    32
  0
VERTEX
  8
0
  5
8EBE
 10
500.511
 20
226.165
 30
0.000000
  70
    32
  0
VERTEX
  8
0
  5
8EBF
 10
500.515
 20
226.126
 30
0.000000
  70
    32
  0
VERTEX
  8
0
  5
8EC0
 10
500.519
 20
226.088
 30
0.000000
  70
    32
  0
VERTEX
  8
0
  5
8EC1
 10
500.524
 20
226.049
 30
0.000000
  70
    32
  0
VERTEX
  8
0
  5
8EC2
 10
500.530
 20
226.011
 30
0.000000
  70
    32
  0
VERTEX
  8
0
  5
8EC3
 10
500.536
 20
225.973
 30
0.000000
  70
    32
  0
VERTEX
  8
0
  5
8EC4
 10
500.543
 20
225.936
 30
0.000000
  70
    32
  0
VERTEX
  8
0
  5
8EC5
 10
500.550
 20
225.898
 30
0.000000
  70
    32
  0
VERTEX
  8
0
  5
8EC6
 10
500.558
 20
225.861
 30
0.000000
  70
    32
  0
VERTEX
  8
0
  5
8EC7
 10
500.567
 20
225.824
 30
0.000000
  70
    32
  0
VERTEX
  8
0
  5
8EC8
 10
500.576
 20
225.788
 30
0.000000
  70
    32
  0
VERTEX
  8
0
  5
8EC9
 10
500.586
 20
225.752
 30
0.000000
  70
    32
  0
VERTEX
  8
0
  5
8ECA
 10
500.596
 20
225.716
 30
0.000000
  70
    32
  0
VERTEX
  8
0
  5
8ECB
 10
500.607
 20
225.681
 30
0.000000
  70
    32
  0
VERTEX
  8
0
  5
8ECC
 10
500.618
 20
225.646
 30
0.000000
  70
    32
  0
VERTEX
  8
0
  5
8ECD
 10
500.630
 20
225.611
 30
0.000000
  70
    32
  0
VERTEX
  8
0
  5
8ECE
 10
500.642
 20
225.577
 30
0.000000
  70
    32
  0
VERTEX
  8
0
  5
8ECF
 10
500.655
 20
225.544
 30
0.000000
  70
    32
  0
VERTEX
  8
0
  5
8ED0
 10
500.669
 20
225.511
 30
0.000000
  70
    32
  0
VERTEX
  8
0
  5
8ED1
 10
500.682
 20
225.479
 30
0.000000
  70
    32
  0
VERTEX
  8
0
  5
8ED2
 10
500.697
 20
225.447
 30
0.000000
  70
    32
  0
VERTEX
  8
0
  5
8ED3
 10
500.712
 20
225.416
 30
0.000000
  70
    32
  0
VERTEX
  8
0
  5
8ED4
 10
500.727
 20
225.385
 30
0.000000
  70
    32
  0
VERTEX
  8
0
  5
8ED5
 10
500.743
 20
225.355
 30
0.000000
  70
    32
  0
VERTEX
  8
0
  5
8ED6
 10
500.759
 20
225.326
 30
0.000000
  70
    32
  0
VERTEX
  8
0
  5
8ED7
 10
500.776
 20
225.297
 30
0.000000
  70
    32
  0
VERTEX
  8
0
  5
8ED8
 10
500.793
 20
225.269
 30
0.000000
  70
    32
  0
VERTEX
  8
0
  5
8ED9
 10
500.810
 20
225.241
 30
0.000000
  70
    32
  0
VERTEX
  8
0
  5
8EDA
 10
500.828
 20
225.214
 30
0.000000
  70
    32
  0
VERTEX
  8
0
  5
8EDB
 10
500.847
 20
225.188
 30
0.000000
  70
    32
  0
VERTEX
  8
0
  5
8EDC
 10
500.866
 20
225.163
 30
0.000000
  70
    32
  0
VERTEX
  8
0
  5
8EDD
 10
500.885
 20
225.139
 30
0.000000
  70
    32
  0
VERTEX
  8
0
  5
8EDE
 10
500.904
 20
225.115
 30
0.000000
  70
    32
  0
VERTEX
  8
0
  5
8EDF
 10
500.924
 20
225.092
 30
0.000000
  70
    32
  0
VERTEX
  8
0
  5
8EE0
 10
500.944
 20
225.070
 30
0.000000
  70
    32
  0
VERTEX
  8
0
  5
8EE1
 10
500.965
 20
225.048
 30
0.000000
  70
    32
  0
VERTEX
  8
0
  5
8EE2
 10
500.986
 20
225.028
 30
0.000000
  70
    32
  0
VERTEX
  8
0
  5
8EE3
 10
501.007
 20
225.008
 30
0.000000
  70
    32
  0
VERTEX
  8
0
  5
8EE4
 10
501.029
 20
224.989
 30
0.000000
  70
    32
  0
VERTEX
  8
0
  5
8EE5
 10
501.050
 20
224.971
 30
0.000000
  70
    32
  0
VERTEX
  8
0
  5
8EE6
 10
501.072
 20
224.954
 30
0.000000
  70
    32
  0
VERTEX
  8
0
  5
8EE7
 10
501.095
 20
224.937
 30
0.000000
  70
    32
  0
VERTEX
  8
0
  5
8EE8
 10
501.117
 20
224.922
 30
0.000000
  70
    32
  0
VERTEX
  8
0
  5
8EE9
 10
501.140
 20
224.907
 30
0.000000
  70
    32
  0
VERTEX
  8
0
  5
8EEA
 10
501.163
 20
224.894
 30
0.000000
  70
    32
  0
VERTEX
  8
0
  5
8EEB
 10
501.186
 20
224.881
 30
0.000000
  70
    32
  0
VERTEX
  8
0
  5
8EEC
 10
501.210
 20
224.869
 30
0.000000
  70
    32
  0
VERTEX
  8
0
  5
8EED
 10
501.233
 20
224.858
 30
0.000000
  70
    32
  0
VERTEX
  8
0
  5
8EEE
 10
501.257
 20
224.848
 30
0.000000
  70
    32
  0
VERTEX
  8
0
  5
8EEF
 10
501.281
 20
224.839
 30
0.000000
  70
    32
  0
VERTEX
  8
0
  5
8EF0
 10
501.305
 20
224.831
 30
0.000000
  70
    32
  0
VERTEX
  8
0
  5
8EF1
 10
501.329
 20
224.824
 30
0.000000
  70
    32
  0
VERTEX
  8
0
  5
8EF2
 10
501.353
 20
224.817
 30
0.000000
  70
    32
  0
VERTEX
  8
0
  5
8EF3
 10
501.378
 20
224.812
 30
0.000000
  70
    32
  0
VERTEX
  8
0
  5
8EF4
 10
501.402
 20
224.808
 30
0.000000
  70
    32
  0
VERTEX
  8
0
  5
8EF5
 10
501.426
 20
224.804
 30
0.000000
  70
    32
  0
VERTEX
  8
0
  5
8EF6
 10
501.451
 20
224.802
 30
0.000000
  70
    32
  0
VERTEX
  8
0
  5
8EF7
 10
501.475
 20
224.800
 30
0.000000
  70
    32
  0
VERTEX
  8
0
  5
8EF8
 10
501.500
 20
224.800
 30
0.000000
  70
    32
  0
SEQEND
  8
0
  5
8EF9
  0
POLYLINE
  5
84C1
  8
0
 10
524.50000000000023
 20
238.79999898672099
 30
0.0
 66
     1
 70
     8
  0
VERTEX
  8
0
  5
8EFA
 10
524.500
 20
238.800
 30
0.000000
  70
    32
  0
VERTEX
  8
0
  5
8EFB
 10
524.525
 20
238.800
 30
0.000000
  70
    32
  0
VERTEX
  8
0
  5
8EFC
 10
524.549
 20
238.802
 30
0.000000
  70
    32
  0
VERTEX
  8
0
  5
8EFD
 10
524.574
 20
238.804
 30
0.000000
  70
    32
  0
VERTEX
  8
0
  5
8EFE
 10
524.598
 20
238.808
 30
0.000000
  70
    32
  0
VERTEX
  8
0
  5
8EFF
 10
524.622
 20
238.812
 30
0.000000
  70
    32
  0
VERTEX
  8
0
  5
8F00
 10
524.647
 20
238.817
 30
0.000000
  70
    32
  0
VERTEX
  8
0
  5
8F01
 10
524.671
 20
238.824
 30
0.000000
  70
    32
  0
VERTEX
  8
0
  5
8F02
 10
524.695
 20
238.831
 30
0.000000
  70
    32
  0
VERTEX
  8
0
  5
8F03
 10
524.719
 20
238.839
 30
0.000000
  70
    32
  0
VERTEX
  8
0
  5
8F04
 10
524.743
 20
238.848
 30
0.000000
  70
    32
  0
VERTEX
  8
0
  5
8F05
 10
524.767
 20
238.858
 30
0.000000
  70
    32
  0
VERTEX
  8
0
  5
8F06
 10
524.790
 20
238.869
 30
0.000000
  70
    32
  0
VERTEX
  8
0
  5
8F07
 10
524.814
 20
238.881
 30
0.000000
  70
    32
  0
VERTEX
  8
0
  5
8F08
 10
524.837
 20
238.894
 30
0.000000
  70
    32
  0
VERTEX
  8
0
  5
8F09
 10
524.860
 20
238.907
 30
0.000000
  70
    32
  0
VERTEX
  8
0
  5
8F0A
 10
524.883
 20
238.922
 30
0.000000
  70
    32
  0
VERTEX
  8
0
  5
8F0B
 10
524.905
 20
238.937
 30
0.000000
  70
    32
  0
VERTEX
  8
0
  5
8F0C
 10
524.928
 20
238.954
 30
0.000000
  70
    32
  0
VERTEX
  8
0
  5
8F0D
 10
524.950
 20
238.971
 30
0.000000
  70
    32
  0
VERTEX
  8
0
  5
8F0E
 10
524.971
 20
238.989
 30
0.000000
  70
    32
  0
VERTEX
  8
0
  5
8F0F
 10
524.993
 20
239.008
 30
0.000000
  70
    32
  0
VERTEX
  8
0
  5
8F10
 10
525.014
 20
239.028
 30
0.000000
  70
    32
  0
VERTEX
  8
0
  5
8F11
 10
525.035
 20
239.048
 30
0.000000
  70
    32
  0
VERTEX
  8
0
  5
8F12
 10
525.056
 20
239.070
 30
0.000000
  70
    32
  0
VERTEX
  8
0
  5
8F13
 10
525.076
 20
239.092
 30
0.000000
  70
    32
  0
VERTEX
  8
0
  5
8F14
 10
525.096
 20
239.115
 30
0.000000
  70
    32
  0
VERTEX
  8
0
  5
8F15
 10
525.115
 20
239.139
 30
0.000000
  70
    32
  0
VERTEX
  8
0
  5
8F16
 10
525.134
 20
239.163
 30
0.000000
  70
    32
  0
VERTEX
  8
0
  5
8F17
 10
525.153
 20
239.188
 30
0.000000
  70
    32
  0
VERTEX
  8
0
  5
8F18
 10
525.172
 20
239.214
 30
0.000000
  70
    32
  0
VERTEX
  8
0
  5
8F19
 10
525.190
 20
239.241
 30
0.000000
  70
    32
  0
VERTEX
  8
0
  5
8F1A
 10
525.207
 20
239.269
 30
0.000000
  70
    32
  0
VERTEX
  8
0
  5
8F1B
 10
525.224
 20
239.297
 30
0.000000
  70
    32
  0
VERTEX
  8
0
  5
8F1C
 10
525.241
 20
239.326
 30
0.000000
  70
    32
  0
VERTEX
  8
0
  5
8F1D
 10
525.257
 20
239.355
 30
0.000000
  70
    32
  0
VERTEX
  8
0
  5
8F1E
 10
525.273
 20
239.385
 30
0.000000
  70
    32
  0
VERTEX
  8
0
  5
8F1F
 10
525.288
 20
239.416
 30
0.000000
  70
    32
  0
VERTEX
  8
0
  5
8F20
 10
525.303
 20
239.447
 30
0.000000
  70
    32
  0
VERTEX
  8
0
  5
8F21
 10
525.318
 20
239.479
 30
0.000000
  70
    32
  0
VERTEX
  8
0
  5
8F22
 10
525.331
 20
239.511
 30
0.000000
  70
    32
  0
VERTEX
  8
0
  5
8F23
 10
525.345
 20
239.544
 30
0.000000
  70
    32
  0
VERTEX
  8
0
  5
8F24
 10
525.358
 20
239.577
 30
0.000000
  70
    32
  0
VERTEX
  8
0
  5
8F25
 10
525.370
 20
239.611
 30
0.000000
  70
    32
  0
VERTEX
  8
0
  5
8F26
 10
525.382
 20
239.646
 30
0.000000
  70
    32
  0
VERTEX
  8
0
  5
8F27
 10
525.393
 20
239.681
 30
0.000000
  70
    32
  0
VERTEX
  8
0
  5
8F28
 10
525.404
 20
239.716
 30
0.000000
  70
    32
  0
VERTEX
  8
0
  5
8F29
 10
525.414
 20
239.752
 30
0.000000
  70
    32
  0
VERTEX
  8
0
  5
8F2A
 10
525.424
 20
239.788
 30
0.000000
  70
    32
  0
VERTEX
  8
0
  5
8F2B
 10
525.433
 20
239.824
 30
0.000000
  70
    32
  0
VERTEX
  8
0
  5
8F2C
 10
525.442
 20
239.861
 30
0.000000
  70
    32
  0
VERTEX
  8
0
  5
8F2D
 10
525.450
 20
239.898
 30
0.000000
  70
    32
  0
VERTEX
  8
0
  5
8F2E
 10
525.457
 20
239.936
 30
0.000000
  70
    32
  0
VERTEX
  8
0
  5
8F2F
 10
525.464
 20
239.973
 30
0.000000
  70
    32
  0
VERTEX
  8
0
  5
8F30
 10
525.470
 20
240.011
 30
0.000000
  70
    32
  0
VERTEX
  8
0
  5
8F31
 10
525.476
 20
240.049
 30
0.000000
  70
    32
  0
VERTEX
  8
0
  5
8F32
 10
525.481
 20
240.088
 30
0.000000
  70
    32
  0
VERTEX
  8
0
  5
8F33
 10
525.485
 20
240.126
 30
0.000000
  70
    32
  0
VERTEX
  8
0
  5
8F34
 10
525.489
 20
240.165
 30
0.000000
  70
    32
  0
VERTEX
  8
0
  5
8F35
 10
525.492
 20
240.204
 30
0.000000
  70
    32
  0
VERTEX
  8
0
  5
8F36
 10
525.495
 20
240.243
 30
0.000000
  70
    32
  0
VERTEX
  8
0
  5
8F37
 10
525.497
 20
240.282
 30
0.000000
  70
    32
  0
VERTEX
  8
0
  5
8F38
 10
525.499
 20
240.321
 30
0.000000
  70
    32
  0
VERTEX
  8
0
  5
8F39
 10
525.500
 20
240.361
 30
0.000000
  70
    32
  0
VERTEX
  8
0
  5
8F3A
 10
525.500
 20
240.400
 30
0.000000
  70
    32
  0
VERTEX
  8
0
  5
8F3B
 10
525.500
 20
240.439
 30
0.000000
  70
    32
  0
VERTEX
  8
0
  5
8F3C
 10
525.499
 20
240.479
 30
0.000000
  70
    32
  0
VERTEX
  8
0
  5
8F3D
 10
525.497
 20
240.518
 30
0.000000
  70
    32
  0
VERTEX
  8
0
  5
8F3E
 10
525.495
 20
240.557
 30
0.000000
  70
    32
  0
VERTEX
  8
0
  5
8F3F
 10
525.492
 20
240.596
 30
0.000000
  70
    32
  0
VERTEX
  8
0
  5
8F40
 10
525.489
 20
240.635
 30
0.000000
  70
    32
  0
VERTEX
  8
0
  5
8F41
 10
525.485
 20
240.674
 30
0.000000
  70
    32
  0
VERTEX
  8
0
  5
8F42
 10
525.481
 20
240.712
 30
0.000000
  70
    32
  0
VERTEX
  8
0
  5
8F43
 10
525.476
 20
240.751
 30
0.000000
  70
    32
  0
VERTEX
  8
0
  5
8F44
 10
525.470
 20
240.789
 30
0.000000
  70
    32
  0
VERTEX
  8
0
  5
8F45
 10
525.464
 20
240.827
 30
0.000000
  70
    32
  0
VERTEX
  8
0
  5
8F46
 10
525.457
 20
240.864
 30
0.000000
  70
    32
  0
VERTEX
  8
0
  5
8F47
 10
525.450
 20
240.902
 30
0.000000
  70
    32
  0
VERTEX
  8
0
  5
8F48
 10
525.442
 20
240.939
 30
0.000000
  70
    32
  0
VERTEX
  8
0
  5
8F49
 10
525.433
 20
240.976
 30
0.000000
  70
    32
  0
VERTEX
  8
0
  5
8F4A
 10
525.424
 20
241.012
 30
0.000000
  70
    32
  0
VERTEX
  8
0
  5
8F4B
 10
525.414
 20
241.048
 30
0.000000
  70
    32
  0
VERTEX
  8
0
  5
8F4C
 10
525.404
 20
241.084
 30
0.000000
  70
    32
  0
VERTEX
  8
0
  5
8F4D
 10
525.393
 20
241.119
 30
0.000000
  70
    32
  0
VERTEX
  8
0
  5
8F4E
 10
525.382
 20
241.154
 30
0.000000
  70
    32
  0
VERTEX
  8
0
  5
8F4F
 10
525.370
 20
241.189
 30
0.000000
  70
    32
  0
VERTEX
  8
0
  5
8F50
 10
525.358
 20
241.223
 30
0.000000
  70
    32
  0
VERTEX
  8
0
  5
8F51
 10
525.345
 20
241.256
 30
0.000000
  70
    32
  0
VERTEX
  8
0
  5
8F52
 10
525.331
 20
241.289
 30
0.000000
  70
    32
  0
VERTEX
  8
0
  5
8F53
 10
525.318
 20
241.321
 30
0.000000
  70
    32
  0
VERTEX
  8
0
  5
8F54
 10
525.303
 20
241.353
 30
0.000000
  70
    32
  0
VERTEX
  8
0
  5
8F55
 10
525.288
 20
241.384
 30
0.000000
  70
    32
  0
VERTEX
  8
0
  5
8F56
 10
525.273
 20
241.415
 30
0.000000
  70
    32
  0
VERTEX
  8
0
  5
8F57
 10
525.257
 20
241.445
 30
0.000000
  70
    32
  0
VERTEX
  8
0
  5
8F58
 10
525.241
 20
241.474
 30
0.000000
  70
    32
  0
VERTEX
  8
0
  5
8F59
 10
525.224
 20
241.503
 30
0.000000
  70
    32
  0
VERTEX
  8
0
  5
8F5A
 10
525.207
 20
241.531
 30
0.000000
  70
    32
  0
VERTEX
  8
0
  5
8F5B
 10
525.190
 20
241.559
 30
0.000000
  70
    32
  0
VERTEX
  8
0
  5
8F5C
 10
525.172
 20
241.586
 30
0.000000
  70
    32
  0
VERTEX
  8
0
  5
8F5D
 10
525.153
 20
241.612
 30
0.000000
  70
    32
  0
VERTEX
  8
0
  5
8F5E
 10
525.134
 20
241.637
 30
0.000000
  70
    32
  0
VERTEX
  8
0
  5
8F5F
 10
525.115
 20
241.661
 30
0.000000
  70
    32
  0
VERTEX
  8
0
  5
8F60
 10
525.096
 20
241.685
 30
0.000000
  70
    32
  0
VERTEX
  8
0
  5
8F61
 10
525.076
 20
241.708
 30
0.000000
  70
    32
  0
VERTEX
  8
0
  5
8F62
 10
525.056
 20
241.730
 30
0.000000
  70
    32
  0
VERTEX
  8
0
  5
8F63
 10
525.035
 20
241.752
 30
0.000000
  70
    32
  0
VERTEX
  8
0
  5
8F64
 10
525.014
 20
241.772
 30
0.000000
  70
    32
  0
VERTEX
  8
0
  5
8F65
 10
524.993
 20
241.792
 30
0.000000
  70
    32
  0
VERTEX
  8
0
  5
8F66
 10
524.971
 20
241.811
 30
0.000000
  70
    32
  0
VERTEX
  8
0
  5
8F67
 10
524.950
 20
241.829
 30
0.000000
  70
    32
  0
VERTEX
  8
0
  5
8F68
 10
524.928
 20
241.846
 30
0.000000
  70
    32
  0
VERTEX
  8
0
  5
8F69
 10
524.905
 20
241.863
 30
0.000000
  70
    32
  0
VERTEX
  8
0
  5
8F6A
 10
524.883
 20
241.878
 30
0.000000
  70
    32
  0
VERTEX
  8
0
  5
8F6B
 10
524.860
 20
241.893
 30
0.000000
  70
    32
  0
VERTEX
  8
0
  5
8F6C
 10
524.837
 20
241.906
 30
0.000000
  70
    32
  0
VERTEX
  8
0
  5
8F6D
 10
524.814
 20
241.919
 30
0.000000
  70
    32
  0
VERTEX
  8
0
  5
8F6E
 10
524.790
 20
241.931
 30
0.000000
  70
    32
  0
VERTEX
  8
0
  5
8F6F
 10
524.767
 20
241.942
 30
0.000000
  70
    32
  0
VERTEX
  8
0
  5
8F70
 10
524.743
 20
241.952
 30
0.000000
  70
    32
  0
VERTEX
  8
0
  5
8F71
 10
524.719
 20
241.961
 30
0.000000
  70
    32
  0
VERTEX
  8
0
  5
8F72
 10
524.695
 20
241.969
 30
0.000000
  70
    32
  0
VERTEX
  8
0
  5
8F73
 10
524.671
 20
241.976
 30
0.000000
  70
    32
  0
VERTEX
  8
0
  5
8F74
 10
524.647
 20
241.983
 30
0.000000
  70
    32
  0
VERTEX
  8
0
  5
8F75
 10
524.622
 20
241.988
 30
0.000000
  70
    32
  0
VERTEX
  8
0
  5
8F76
 10
524.598
 20
241.992
 30
0.000000
  70
    32
  0
VERTEX
  8
0
  5
8F77
 10
524.574
 20
241.996
 30
0.000000
  70
    32
  0
VERTEX
  8
0
  5
8F78
 10
524.549
 20
241.998
 30
0.000000
  70
    32
  0
VERTEX
  8
0
  5
8F79
 10
524.525
 20
242.000
 30
0.000000
  70
    32
  0
VERTEX
  8
0
  5
8F7A
 10
524.500
 20
242.000
 30
0.000000
  70
    32
  0
SEQEND
  8
0
  5
8F7B
  0
POLYLINE
  5
84C2
  8
0
 10
501.50000000000023
 20
241.9999989867211
 30
0.0
 66
     1
 70
     8
  0
VERTEX
  8
0
  5
8F7C
 10
501.500
 20
242.000
 30
0.000000
  70
    32
  0
VERTEX
  8
0
  5
8F7D
 10
501.475
 20
242.000
 30
0.000000
  70
    32
  0
VERTEX
  8
0
  5
8F7E
 10
501.451
 20
241.998
 30
0.000000
  70
    32
  0
VERTEX
  8
0
  5
8F7F
 10
501.426
 20
241.996
 30
0.000000
  70
    32
  0
VERTEX
  8
0
  5
8F80
 10
501.402
 20
241.992
 30
0.000000
  70
    32
  0
VERTEX
  8
0
  5
8F81
 10
501.378
 20
241.988
 30
0.000000
  70
    32
  0
VERTEX
  8
0
  5
8F82
 10
501.353
 20
241.983
 30
0.000000
  70
    32
  0
VERTEX
  8
0
  5
8F83
 10
501.329
 20
241.976
 30
0.000000
  70
    32
  0
VERTEX
  8
0
  5
8F84
 10
501.305
 20
241.969
 30
0.000000
  70
    32
  0
VERTEX
  8
0
  5
8F85
 10
501.281
 20
241.961
 30
0.000000
  70
    32
  0
VERTEX
  8
0
  5
8F86
 10
501.257
 20
241.952
 30
0.000000
  70
    32
  0
VERTEX
  8
0
  5
8F87
 10
501.233
 20
241.942
 30
0.000000
  70
    32
  0
VERTEX
  8
0
  5
8F88
 10
501.210
 20
241.931
 30
0.000000
  70
    32
  0
VERTEX
  8
0
  5
8F89
 10
501.186
 20
241.919
 30
0.000000
  70
    32
  0
VERTEX
  8
0
  5
8F8A
 10
501.163
 20
241.906
 30
0.000000
  70
    32
  0
VERTEX
  8
0
  5
8F8B
 10
501.140
 20
241.893
 30
0.000000
  70
    32
  0
VERTEX
  8
0
  5
8F8C
 10
501.117
 20
241.878
 30
0.000000
  70
    32
  0
VERTEX
  8
0
  5
8F8D
 10
501.095
 20
241.863
 30
0.000000
  70
    32
  0
VERTEX
  8
0
  5
8F8E
 10
501.072
 20
241.846
 30
0.000000
  70
    32
  0
VERTEX
  8
0
  5
8F8F
 10
501.050
 20
241.829
 30
0.000000
  70
    32
  0
VERTEX
  8
0
  5
8F90
 10
501.029
 20
241.811
 30
0.000000
  70
    32
  0
VERTEX
  8
0
  5
8F91
 10
501.007
 20
241.792
 30
0.000000
  70
    32
  0
VERTEX
  8
0
  5
8F92
 10
500.986
 20
241.772
 30
0.000000
  70
    32
  0
VERTEX
  8
0
  5
8F93
 10
500.965
 20
241.752
 30
0.000000
  70
    32
  0
VERTEX
  8
0
  5
8F94
 10
500.944
 20
241.730
 30
0.000000
  70
    32
  0
VERTEX
  8
0
  5
8F95
 10
500.924
 20
241.708
 30
0.000000
  70
    32
  0
VERTEX
  8
0
  5
8F96
 10
500.904
 20
241.685
 30
0.000000
  70
    32
  0
VERTEX
  8
0
  5
8F97
 10
500.885
 20
241.661
 30
0.000000
  70
    32
  0
VERTEX
  8
0
  5
8F98
 10
500.866
 20
241.637
 30
0.000000
  70
    32
  0
VERTEX
  8
0
  5
8F99
 10
500.847
 20
241.612
 30
0.000000
  70
    32
  0
VERTEX
  8
0
  5
8F9A
 10
500.828
 20
241.586
 30
0.000000
  70
    32
  0
VERTEX
  8
0
  5
8F9B
 10
500.810
 20
241.559
 30
0.000000
  70
    32
  0
VERTEX
  8
0
  5
8F9C
 10
500.793
 20
241.531
 30
0.000000
  70
    32
  0
VERTEX
  8
0
  5
8F9D
 10
500.776
 20
241.503
 30
0.000000
  70
    32
  0
VERTEX
  8
0
  5
8F9E
 10
500.759
 20
241.474
 30
0.000000
  70
    32
  0
VERTEX
  8
0
  5
8F9F
 10
500.743
 20
241.445
 30
0.000000
  70
    32
  0
VERTEX
  8
0
  5
8FA0
 10
500.727
 20
241.415
 30
0.000000
  70
    32
  0
VERTEX
  8
0
  5
8FA1
 10
500.712
 20
241.384
 30
0.000000
  70
    32
  0
VERTEX
  8
0
  5
8FA2
 10
500.697
 20
241.353
 30
0.000000
  70
    32
  0
VERTEX
  8
0
  5
8FA3
 10
500.682
 20
241.321
 30
0.000000
  70
    32
  0
VERTEX
  8
0
  5
8FA4
 10
500.669
 20
241.289
 30
0.000000
  70
    32
  0
VERTEX
  8
0
  5
8FA5
 10
500.655
 20
241.256
 30
0.000000
  70
    32
  0
VERTEX
  8
0
  5
8FA6
 10
500.642
 20
241.223
 30
0.000000
  70
    32
  0
VERTEX
  8
0
  5
8FA7
 10
500.630
 20
241.189
 30
0.000000
  70
    32
  0
VERTEX
  8
0
  5
8FA8
 10
500.618
 20
241.154
 30
0.000000
  70
    32
  0
VERTEX
  8
0
  5
8FA9
 10
500.607
 20
241.119
 30
0.000000
  70
    32
  0
VERTEX
  8
0
  5
8FAA
 10
500.596
 20
241.084
 30
0.000000
  70
    32
  0
VERTEX
  8
0
  5
8FAB
 10
500.586
 20
241.048
 30
0.000000
  70
    32
  0
VERTEX
  8
0
  5
8FAC
 10
500.576
 20
241.012
 30
0.000000
  70
    32
  0
VERTEX
  8
0
  5
8FAD
 10
500.567
 20
240.976
 30
0.000000
  70
    32
  0
VERTEX
  8
0
  5
8FAE
 10
500.558
 20
240.939
 30
0.000000
  70
    32
  0
VERTEX
  8
0
  5
8FAF
 10
500.550
 20
240.902
 30
0.000000
  70
    32
  0
VERTEX
  8
0
  5
8FB0
 10
500.543
 20
240.864
 30
0.000000
  70
    32
  0
VERTEX
  8
0
  5
8FB1
 10
500.536
 20
240.827
 30
0.000000
  70
    32
  0
VERTEX
  8
0
  5
8FB2
 10
500.530
 20
240.789
 30
0.000000
  70
    32
  0
VERTEX
  8
0
  5
8FB3
 10
500.524
 20
240.751
 30
0.000000
  70
    32
  0
VERTEX
  8
0
  5
8FB4
 10
500.519
 20
240.712
 30
0.000000
  70
    32
  0
VERTEX
  8
0
  5
8FB5
 10
500.515
 20
240.674
 30
0.000000
  70
    32
  0
VERTEX
  8
0
  5
8FB6
 10
500.511
 20
240.635
 30
0.000000
  70
    32
  0
VERTEX
  8
0
  5
8FB7
 10
500.508
 20
240.596
 30
0.000000
  70
    32
  0
VERTEX
  8
0
  5
8FB8
 10
500.505
 20
240.557
 30
0.000000
  70
    32
  0
VERTEX
  8
0
  5
8FB9
 10
500.503
 20
240.518
 30
0.000000
  70
    32
  0
VERTEX
  8
0
  5
8FBA
 10
500.501
 20
240.479
 30
0.000000
  70
    32
  0
VERTEX
  8
0
  5
8FBB
 10
500.500
 20
240.439
 30
0.000000
  70
    32
  0
VERTEX
  8
0
  5
8FBC
 10
500.500
 20
240.400
 30
0.000000
  70
    32
  0
VERTEX
  8
0
  5
8FBD
 10
500.500
 20
240.361
 30
0.000000
  70
    32
  0
VERTEX
  8
0
  5
8FBE
 10
500.501
 20
240.321
 30
0.000000
  70
    32
  0
VERTEX
  8
0
  5
8FBF
 10
500.503
 20
240.282
 30
0.000000
  70
    32
  0
VERTEX
  8
0
  5
8FC0
 10
500.505
 20
240.243
 30
0.000000
  70
    32
  0
VERTEX
  8
0
  5
8FC1
 10
500.508
 20
240.204
 30
0.000000
  70
    32
  0
VERTEX
  8
0
  5
8FC2
 10
500.511
 20
240.165
 30
0.000000
  70
    32
  0
VERTEX
  8
0
  5
8FC3
 10
500.515
 20
240.126
 30
0.000000
  70
    32
  0
VERTEX
  8
0
  5
8FC4
 10
500.519
 20
240.088
 30
0.000000
  70
    32
  0
VERTEX
  8
0
  5
8FC5
 10
500.524
 20
240.049
 30
0.000000
  70
    32
  0
VERTEX
  8
0
  5
8FC6
 10
500.530
 20
240.011
 30
0.000000
  70
    32
  0
VERTEX
  8
0
  5
8FC7
 10
500.536
 20
239.973
 30
0.000000
  70
    32
  0
VERTEX
  8
0
  5
8FC8
 10
500.543
 20
239.936
 30
0.000000
  70
    32
  0
VERTEX
  8
0
  5
8FC9
 10
500.550
 20
239.898
 30
0.000000
  70
    32
  0
VERTEX
  8
0
  5
8FCA
 10
500.558
 20
239.861
 30
0.000000
  70
    32
  0
VERTEX
  8
0
  5
8FCB
 10
500.567
 20
239.824
 30
0.000000
  70
    32
  0
VERTEX
  8
0
  5
8FCC
 10
500.576
 20
239.788
 30
0.000000
  70
    32
  0
VERTEX
  8
0
  5
8FCD
 10
500.586
 20
239.752
 30
0.000000
  70
    32
  0
VERTEX
  8
0
  5
8FCE
 10
500.596
 20
239.716
 30
0.000000
  70
    32
  0
VERTEX
  8
0
  5
8FCF
 10
500.607
 20
239.681
 30
0.000000
  70
    32
  0
VERTEX
  8
0
  5
8FD0
 10
500.618
 20
239.646
 30
0.000000
  70
    32
  0
VERTEX
  8
0
  5
8FD1
 10
500.630
 20
239.611
 30
0.000000
  70
    32
  0
VERTEX
  8
0
  5
8FD2
 10
500.642
 20
239.577
 30
0.000000
  70
    32
  0
VERTEX
  8
0
  5
8FD3
 10
500.655
 20
239.544
 30
0.000000
  70
    32
  0
VERTEX
  8
0
  5
8FD4
 10
500.669
 20
239.511
 30
0.000000
  70
    32
  0
VERTEX
  8
0
  5
8FD5
 10
500.682
 20
239.479
 30
0.000000
  70
    32
  0
VERTEX
  8
0
  5
8FD6
 10
500.697
 20
239.447
 30
0.000000
  70
    32
  0
VERTEX
  8
0
  5
8FD7
 10
500.712
 20
239.416
 30
0.000000
  70
    32
  0
VERTEX
  8
0
  5
8FD8
 10
500.727
 20
239.385
 30
0.000000
  70
    32
  0
VERTEX
  8
0
  5
8FD9
 10
500.743
 20
239.355
 30
0.000000
  70
    32
  0
VERTEX
  8
0
  5
8FDA
 10
500.759
 20
239.326
 30
0.000000
  70
    32
  0
VERTEX
  8
0
  5
8FDB
 10
500.776
 20
239.297
 30
0.000000
  70
    32
  0
VERTEX
  8
0
  5
8FDC
 10
500.793
 20
239.269
 30
0.000000
  70
    32
  0
VERTEX
  8
0
  5
8FDD
 10
500.810
 20
239.241
 30
0.000000
  70
    32
  0
VERTEX
  8
0
  5
8FDE
 10
500.828
 20
239.214
 30
0.000000
  70
    32
  0
VERTEX
  8
0
  5
8FDF
 10
500.847
 20
239.188
 30
0.000000
  70
    32
  0
VERTEX
  8
0
  5
8FE0
 10
500.866
 20
239.163
 30
0.000000
  70
    32
  0
VERTEX
  8
0
  5
8FE1
 10
500.885
 20
239.139
 30
0.000000
  70
    32
  0
VERTEX
  8
0
  5
8FE2
 10
500.904
 20
239.115
 30
0.000000
  70
    32
  0
VERTEX
  8
0
  5
8FE3
 10
500.924
 20
239.092
 30
0.000000
  70
    32
  0
VERTEX
  8
0
  5
8FE4
 10
500.944
 20
239.070
 30
0.000000
  70
    32
  0
VERTEX
  8
0
  5
8FE5
 10
500.965
 20
239.048
 30
0.000000
  70
    32
  0
VERTEX
  8
0
  5
8FE6
 10
500.986
 20
239.028
 30
0.000000
  70
    32
  0
VERTEX
  8
0
  5
8FE7
 10
501.007
 20
239.008
 30
0.000000
  70
    32
  0
VERTEX
  8
0
  5
8FE8
 10
501.029
 20
238.989
 30
0.000000
  70
    32
  0
VERTEX
  8
0
  5
8FE9
 10
501.050
 20
238.971
 30
0.000000
  70
    32
  0
VERTEX
  8
0
  5
8FEA
 10
501.072
 20
238.954
 30
0.000000
  70
    32
  0
VERTEX
  8
0
  5
8FEB
 10
501.095
 20
238.937
 30
0.000000
  70
    32
  0
VERTEX
  8
0
  5
8FEC
 10
501.117
 20
238.922
 30
0.000000
  70
    32
  0
VERTEX
  8
0
  5
8FED
 10
501.140
 20
238.907
 30
0.000000
  70
    32
  0
VERTEX
  8
0
  5
8FEE
 10
501.163
 20
238.894
 30
0.000000
  70
    32
  0
VERTEX
  8
0
  5
8FEF
 10
501.186
 20
238.881
 30
0.000000
  70
    32
  0
VERTEX
  8
0
  5
8FF0
 10
501.210
 20
238.869
 30
0.000000
  70
    32
  0
VERTEX
  8
0
  5
8FF1
 10
501.233
 20
238.858
 30
0.000000
  70
    32
  0
VERTEX
  8
0
  5
8FF2
 10
501.257
 20
238.848
 30
0.000000
  70
    32
  0
VERTEX
  8
0
  5
8FF3
 10
501.281
 20
238.839
 30
0.000000
  70
    32
  0
VERTEX
  8
0
  5
8FF4
 10
501.305
 20
238.831
 30
0.000000
  70
    32
  0
VERTEX
  8
0
  5
8FF5
 10
501.329
 20
238.824
 30
0.000000
  70
    32
  0
VERTEX
  8
0
  5
8FF6
 10
501.353
 20
238.817
 30
0.000000
  70
    32
  0
VERTEX
  8
0
  5
8FF7
 10
501.378
 20
238.812
 30
0.000000
  70
    32
  0
VERTEX
  8
0
  5
8FF8
 10
501.402
 20
238.808
 30
0.000000
  70
    32
  0
VERTEX
  8
0
  5
8FF9
 10
501.426
 20
238.804
 30
0.000000
  70
    32
  0
VERTEX
  8
0
  5
8FFA
 10
501.451
 20
238.802
 30
0.000000
  70
    32
  0
VERTEX
  8
0
  5
8FFB
 10
501.475
 20
238.800
 30
0.000000
  70
    32
  0
VERTEX
  8
0
  5
8FFC
 10
501.500
 20
238.800
 30
0.000000
  70
    32
  0
SEQEND
  8
0
  5
8FFD
  0
POLYLINE
  5
84C3
  8
0
 10
524.50000000000023
 20
252.79999898672102
 30
0.0
 66
     1
 70
     8
  0
VERTEX
  8
0
  5
8FFE
 10
524.500
 20
252.800
 30
0.000000
  70
    32
  0
VERTEX
  8
0
  5
8FFF
 10
524.525
 20
252.800
 30
0.000000
  70
    32
  0
VERTEX
  8
0
  5
9000
 10
524.549
 20
252.802
 30
0.000000
  70
    32
  0
VERTEX
  8
0
  5
9001
 10
524.574
 20
252.804
 30
0.000000
  70
    32
  0
VERTEX
  8
0
  5
9002
 10
524.598
 20
252.808
 30
0.000000
  70
    32
  0
VERTEX
  8
0
  5
9003
 10
524.622
 20
252.812
 30
0.000000
  70
    32
  0
VERTEX
  8
0
  5
9004
 10
524.647
 20
252.817
 30
0.000000
  70
    32
  0
VERTEX
  8
0
  5
9005
 10
524.671
 20
252.824
 30
0.000000
  70
    32
  0
VERTEX
  8
0
  5
9006
 10
524.695
 20
252.831
 30
0.000000
  70
    32
  0
VERTEX
  8
0
  5
9007
 10
524.719
 20
252.839
 30
0.000000
  70
    32
  0
VERTEX
  8
0
  5
9008
 10
524.743
 20
252.848
 30
0.000000
  70
    32
  0
VERTEX
  8
0
  5
9009
 10
524.767
 20
252.858
 30
0.000000
  70
    32
  0
VERTEX
  8
0
  5
900A
 10
524.790
 20
252.869
 30
0.000000
  70
    32
  0
VERTEX
  8
0
  5
900B
 10
524.814
 20
252.881
 30
0.000000
  70
    32
  0
VERTEX
  8
0
  5
900C
 10
524.837
 20
252.894
 30
0.000000
  70
    32
  0
VERTEX
  8
0
  5
900D
 10
524.860
 20
252.907
 30
0.000000
  70
    32
  0
VERTEX
  8
0
  5
900E
 10
524.883
 20
252.922
 30
0.000000
  70
    32
  0
VERTEX
  8
0
  5
900F
 10
524.905
 20
252.937
 30
0.000000
  70
    32
  0
VERTEX
  8
0
  5
9010
 10
524.928
 20
252.954
 30
0.000000
  70
    32
  0
VERTEX
  8
0
  5
9011
 10
524.950
 20
252.971
 30
0.000000
  70
    32
  0
VERTEX
  8
0
  5
9012
 10
524.971
 20
252.989
 30
0.000000
  70
    32
  0
VERTEX
  8
0
  5
9013
 10
524.993
 20
253.008
 30
0.000000
  70
    32
  0
VERTEX
  8
0
  5
9014
 10
525.014
 20
253.028
 30
0.000000
  70
    32
  0
VERTEX
  8
0
  5
9015
 10
525.035
 20
253.048
 30
0.000000
  70
    32
  0
VERTEX
  8
0
  5
9016
 10
525.056
 20
253.070
 30
0.000000
  70
    32
  0
VERTEX
  8
0
  5
9017
 10
525.076
 20
253.092
 30
0.000000
  70
    32
  0
VERTEX
  8
0
  5
9018
 10
525.096
 20
253.115
 30
0.000000
  70
    32
  0
VERTEX
  8
0
  5
9019
 10
525.115
 20
253.139
 30
0.000000
  70
    32
  0
VERTEX
  8
0
  5
901A
 10
525.134
 20
253.163
 30
0.000000
  70
    32
  0
VERTEX
  8
0
  5
901B
 10
525.153
 20
253.188
 30
0.000000
  70
    32
  0
VERTEX
  8
0
  5
901C
 10
525.172
 20
253.214
 30
0.000000
  70
    32
  0
VERTEX
  8
0
  5
901D
 10
525.190
 20
253.241
 30
0.000000
  70
    32
  0
VERTEX
  8
0
  5
901E
 10
525.207
 20
253.269
 30
0.000000
  70
    32
  0
VERTEX
  8
0
  5
901F
 10
525.224
 20
253.297
 30
0.000000
  70
    32
  0
VERTEX
  8
0
  5
9020
 10
525.241
 20
253.326
 30
0.000000
  70
    32
  0
VERTEX
  8
0
  5
9021
 10
525.257
 20
253.355
 30
0.000000
  70
    32
  0
VERTEX
  8
0
  5
9022
 10
525.273
 20
253.385
 30
0.000000
  70
    32
  0
VERTEX
  8
0
  5
9023
 10
525.288
 20
253.416
 30
0.000000
  70
    32
  0
VERTEX
  8
0
  5
9024
 10
525.303
 20
253.447
 30
0.000000
  70
    32
  0
VERTEX
  8
0
  5
9025
 10
525.318
 20
253.479
 30
0.000000
  70
    32
  0
VERTEX
  8
0
  5
9026
 10
525.331
 20
253.511
 30
0.000000
  70
    32
  0
VERTEX
  8
0
  5
9027
 10
525.345
 20
253.544
 30
0.000000
  70
    32
  0
VERTEX
  8
0
  5
9028
 10
525.358
 20
253.577
 30
0.000000
  70
    32
  0
VERTEX
  8
0
  5
9029
 10
525.370
 20
253.611
 30
0.000000
  70
    32
  0
VERTEX
  8
0
  5
902A
 10
525.382
 20
253.646
 30
0.000000
  70
    32
  0
VERTEX
  8
0
  5
902B
 10
525.393
 20
253.681
 30
0.000000
  70
    32
  0
VERTEX
  8
0
  5
902C
 10
525.404
 20
253.716
 30
0.000000
  70
    32
  0
VERTEX
  8
0
  5
902D
 10
525.414
 20
253.752
 30
0.000000
  70
    32
  0
VERTEX
  8
0
  5
902E
 10
525.424
 20
253.788
 30
0.000000
  70
    32
  0
VERTEX
  8
0
  5
902F
 10
525.433
 20
253.824
 30
0.000000
  70
    32
  0
VERTEX
  8
0
  5
9030
 10
525.442
 20
253.861
 30
0.000000
  70
    32
  0
VERTEX
  8
0
  5
9031
 10
525.450
 20
253.898
 30
0.000000
  70
    32
  0
VERTEX
  8
0
  5
9032
 10
525.457
 20
253.936
 30
0.000000
  70
    32
  0
VERTEX
  8
0
  5
9033
 10
525.464
 20
253.973
 30
0.000000
  70
    32
  0
VERTEX
  8
0
  5
9034
 10
525.470
 20
254.011
 30
0.000000
  70
    32
  0
VERTEX
  8
0
  5
9035
 10
525.476
 20
254.049
 30
0.000000
  70
    32
  0
VERTEX
  8
0
  5
9036
 10
525.481
 20
254.088
 30
0.000000
  70
    32
  0
VERTEX
  8
0
  5
9037
 10
525.485
 20
254.126
 30
0.000000
  70
    32
  0
VERTEX
  8
0
  5
9038
 10
525.489
 20
254.165
 30
0.000000
  70
    32
  0
VERTEX
  8
0
  5
9039
 10
525.492
 20
254.204
 30
0.000000
  70
    32
  0
VERTEX
  8
0
  5
903A
 10
525.495
 20
254.243
 30
0.000000
  70
    32
  0
VERTEX
  8
0
  5
903B
 10
525.497
 20
254.282
 30
0.000000
  70
    32
  0
VERTEX
  8
0
  5
903C
 10
525.499
 20
254.321
 30
0.000000
  70
    32
  0
VERTEX
  8
0
  5
903D
 10
525.500
 20
254.361
 30
0.000000
  70
    32
  0
VERTEX
  8
0
  5
903E
 10
525.500
 20
254.400
 30
0.000000
  70
    32
  0
VERTEX
  8
0
  5
903F
 10
525.500
 20
254.439
 30
0.000000
  70
    32
  0
VERTEX
  8
0
  5
9040
 10
525.499
 20
254.479
 30
0.000000
  70
    32
  0
VERTEX
  8
0
  5
9041
 10
525.497
 20
254.518
 30
0.000000
  70
    32
  0
VERTEX
  8
0
  5
9042
 10
525.495
 20
254.557
 30
0.000000
  70
    32
  0
VERTEX
  8
0
  5
9043
 10
525.492
 20
254.596
 30
0.000000
  70
    32
  0
VERTEX
  8
0
  5
9044
 10
525.489
 20
254.635
 30
0.000000
  70
    32
  0
VERTEX
  8
0
  5
9045
 10
525.485
 20
254.674
 30
0.000000
  70
    32
  0
VERTEX
  8
0
  5
9046
 10
525.481
 20
254.712
 30
0.000000
  70
    32
  0
VERTEX
  8
0
  5
9047
 10
525.476
 20
254.751
 30
0.000000
  70
    32
  0
VERTEX
  8
0
  5
9048
 10
525.470
 20
254.789
 30
0.000000
  70
    32
  0
VERTEX
  8
0
  5
9049
 10
525.464
 20
254.827
 30
0.000000
  70
    32
  0
VERTEX
  8
0
  5
904A
 10
525.457
 20
254.864
 30
0.000000
  70
    32
  0
VERTEX
  8
0
  5
904B
 10
525.450
 20
254.902
 30
0.000000
  70
    32
  0
VERTEX
  8
0
  5
904C
 10
525.442
 20
254.939
 30
0.000000
  70
    32
  0
VERTEX
  8
0
  5
904D
 10
525.433
 20
254.976
 30
0.000000
  70
    32
  0
VERTEX
  8
0
  5
904E
 10
525.424
 20
255.012
 30
0.000000
  70
    32
  0
VERTEX
  8
0
  5
904F
 10
525.414
 20
255.048
 30
0.000000
  70
    32
  0
VERTEX
  8
0
  5
9050
 10
525.404
 20
255.084
 30
0.000000
  70
    32
  0
VERTEX
  8
0
  5
9051
 10
525.393
 20
255.119
 30
0.000000
  70
    32
  0
VERTEX
  8
0
  5
9052
 10
525.382
 20
255.154
 30
0.000000
  70
    32
  0
VERTEX
  8
0
  5
9053
 10
525.370
 20
255.189
 30
0.000000
  70
    32
  0
VERTEX
  8
0
  5
9054
 10
525.358
 20
255.223
 30
0.000000
  70
    32
  0
VERTEX
  8
0
  5
9055
 10
525.345
 20
255.256
 30
0.000000
  70
    32
  0
VERTEX
  8
0
  5
9056
 10
525.331
 20
255.289
 30
0.000000
  70
    32
  0
VERTEX
  8
0
  5
9057
 10
525.318
 20
255.321
 30
0.000000
  70
    32
  0
VERTEX
  8
0
  5
9058
 10
525.303
 20
255.353
 30
0.000000
  70
    32
  0
VERTEX
  8
0
  5
9059
 10
525.288
 20
255.384
 30
0.000000
  70
    32
  0
VERTEX
  8
0
  5
905A
 10
525.273
 20
255.415
 30
0.000000
  70
    32
  0
VERTEX
  8
0
  5
905B
 10
525.257
 20
255.445
 30
0.000000
  70
    32
  0
VERTEX
  8
0
  5
905C
 10
525.241
 20
255.474
 30
0.000000
  70
    32
  0
VERTEX
  8
0
  5
905D
 10
525.224
 20
255.503
 30
0.000000
  70
    32
  0
VERTEX
  8
0
  5
905E
 10
525.207
 20
255.531
 30
0.000000
  70
    32
  0
VERTEX
  8
0
  5
905F
 10
525.190
 20
255.559
 30
0.000000
  70
    32
  0
VERTEX
  8
0
  5
9060
 10
525.172
 20
255.586
 30
0.000000
  70
    32
  0
VERTEX
  8
0
  5
9061
 10
525.153
 20
255.612
 30
0.000000
  70
    32
  0
VERTEX
  8
0
  5
9062
 10
525.134
 20
255.637
 30
0.000000
  70
    32
  0
VERTEX
  8
0
  5
9063
 10
525.115
 20
255.661
 30
0.000000
  70
    32
  0
VERTEX
  8
0
  5
9064
 10
525.096
 20
255.685
 30
0.000000
  70
    32
  0
VERTEX
  8
0
  5
9065
 10
525.076
 20
255.708
 30
0.000000
  70
    32
  0
VERTEX
  8
0
  5
9066
 10
525.056
 20
255.730
 30
0.000000
  70
    32
  0
VERTEX
  8
0
  5
9067
 10
525.035
 20
255.752
 30
0.000000
  70
    32
  0
VERTEX
  8
0
  5
9068
 10
525.014
 20
255.772
 30
0.000000
  70
    32
  0
VERTEX
  8
0
  5
9069
 10
524.993
 20
255.792
 30
0.000000
  70
    32
  0
VERTEX
  8
0
  5
906A
 10
524.971
 20
255.811
 30
0.000000
  70
    32
  0
VERTEX
  8
0
  5
906B
 10
524.950
 20
255.829
 30
0.000000
  70
    32
  0
VERTEX
  8
0
  5
906C
 10
524.928
 20
255.846
 30
0.000000
  70
    32
  0
VERTEX
  8
0
  5
906D
 10
524.905
 20
255.863
 30
0.000000
  70
    32
  0
VERTEX
  8
0
  5
906E
 10
524.883
 20
255.878
 30
0.000000
  70
    32
  0
VERTEX
  8
0
  5
906F
 10
524.860
 20
255.893
 30
0.000000
  70
    32
  0
VERTEX
  8
0
  5
9070
 10
524.837
 20
255.906
 30
0.000000
  70
    32
  0
VERTEX
  8
0
  5
9071
 10
524.814
 20
255.919
 30
0.000000
  70
    32
  0
VERTEX
  8
0
  5
9072
 10
524.790
 20
255.931
 30
0.000000
  70
    32
  0
VERTEX
  8
0
  5
9073
 10
524.767
 20
255.942
 30
0.000000
  70
    32
  0
VERTEX
  8
0
  5
9074
 10
524.743
 20
255.952
 30
0.000000
  70
    32
  0
VERTEX
  8
0
  5
9075
 10
524.719
 20
255.961
 30
0.000000
  70
    32
  0
VERTEX
  8
0
  5
9076
 10
524.695
 20
255.969
 30
0.000000
  70
    32
  0
VERTEX
  8
0
  5
9077
 10
524.671
 20
255.976
 30
0.000000
  70
    32
  0
VERTEX
  8
0
  5
9078
 10
524.647
 20
255.983
 30
0.000000
  70
    32
  0
VERTEX
  8
0
  5
9079
 10
524.622
 20
255.988
 30
0.000000
  70
    32
  0
VERTEX
  8
0
  5
907A
 10
524.598
 20
255.992
 30
0.000000
  70
    32
  0
VERTEX
  8
0
  5
907B
 10
524.574
 20
255.996
 30
0.000000
  70
    32
  0
VERTEX
  8
0
  5
907C
 10
524.549
 20
255.998
 30
0.000000
  70
    32
  0
VERTEX
  8
0
  5
907D
 10
524.525
 20
256.000
 30
0.000000
  70
    32
  0
VERTEX
  8
0
  5
907E
 10
524.500
 20
256.000
 30
0.000000
  70
    32
  0
SEQEND
  8
0
  5
907F
  0
POLYLINE
  5
84C4
  8
0
 10
501.50000000000023
 20
255.99999898672095
 30
0.0
 66
     1
 70
     8
  0
VERTEX
  8
0
  5
9080
 10
501.500
 20
256.000
 30
0.000000
  70
    32
  0
VERTEX
  8
0
  5
9081
 10
501.475
 20
256.000
 30
0.000000
  70
    32
  0
VERTEX
  8
0
  5
9082
 10
501.451
 20
255.998
 30
0.000000
  70
    32
  0
VERTEX
  8
0
  5
9083
 10
501.426
 20
255.996
 30
0.000000
  70
    32
  0
VERTEX
  8
0
  5
9084
 10
501.402
 20
255.992
 30
0.000000
  70
    32
  0
VERTEX
  8
0
  5
9085
 10
501.378
 20
255.988
 30
0.000000
  70
    32
  0
VERTEX
  8
0
  5
9086
 10
501.353
 20
255.983
 30
0.000000
  70
    32
  0
VERTEX
  8
0
  5
9087
 10
501.329
 20
255.976
 30
0.000000
  70
    32
  0
VERTEX
  8
0
  5
9088
 10
501.305
 20
255.969
 30
0.000000
  70
    32
  0
VERTEX
  8
0
  5
9089
 10
501.281
 20
255.961
 30
0.000000
  70
    32
  0
VERTEX
  8
0
  5
908A
 10
501.257
 20
255.952
 30
0.000000
  70
    32
  0
VERTEX
  8
0
  5
908B
 10
501.233
 20
255.942
 30
0.000000
  70
    32
  0
VERTEX
  8
0
  5
908C
 10
501.210
 20
255.931
 30
0.000000
  70
    32
  0
VERTEX
  8
0
  5
908D
 10
501.186
 20
255.919
 30
0.000000
  70
    32
  0
VERTEX
  8
0
  5
908E
 10
501.163
 20
255.906
 30
0.000000
  70
    32
  0
VERTEX
  8
0
  5
908F
 10
501.140
 20
255.893
 30
0.000000
  70
    32
  0
VERTEX
  8
0
  5
9090
 10
501.117
 20
255.878
 30
0.000000
  70
    32
  0
VERTEX
  8
0
  5
9091
 10
501.095
 20
255.863
 30
0.000000
  70
    32
  0
VERTEX
  8
0
  5
9092
 10
501.072
 20
255.846
 30
0.000000
  70
    32
  0
VERTEX
  8
0
  5
9093
 10
501.050
 20
255.829
 30
0.000000
  70
    32
  0
VERTEX
  8
0
  5
9094
 10
501.029
 20
255.811
 30
0.000000
  70
    32
  0
VERTEX
  8
0
  5
9095
 10
501.007
 20
255.792
 30
0.000000
  70
    32
  0
VERTEX
  8
0
  5
9096
 10
500.986
 20
255.772
 30
0.000000
  70
    32
  0
VERTEX
  8
0
  5
9097
 10
500.965
 20
255.752
 30
0.000000
  70
    32
  0
VERTEX
  8
0
  5
9098
 10
500.944
 20
255.730
 30
0.000000
  70
    32
  0
VERTEX
  8
0
  5
9099
 10
500.924
 20
255.708
 30
0.000000
  70
    32
  0
VERTEX
  8
0
  5
909A
 10
500.904
 20
255.685
 30
0.000000
  70
    32
  0
VERTEX
  8
0
  5
909B
 10
500.885
 20
255.661
 30
0.000000
  70
    32
  0
VERTEX
  8
0
  5
909C
 10
500.866
 20
255.637
 30
0.000000
  70
    32
  0
VERTEX
  8
0
  5
909D
 10
500.847
 20
255.612
 30
0.000000
  70
    32
  0
VERTEX
  8
0
  5
909E
 10
500.828
 20
255.586
 30
0.000000
  70
    32
  0
VERTEX
  8
0
  5
909F
 10
500.810
 20
255.559
 30
0.000000
  70
    32
  0
VERTEX
  8
0
  5
90A0
 10
500.793
 20
255.531
 30
0.000000
  70
    32
  0
VERTEX
  8
0
  5
90A1
 10
500.776
 20
255.503
 30
0.000000
  70
    32
  0
VERTEX
  8
0
  5
90A2
 10
500.759
 20
255.474
 30
0.000000
  70
    32
  0
VERTEX
  8
0
  5
90A3
 10
500.743
 20
255.445
 30
0.000000
  70
    32
  0
VERTEX
  8
0
  5
90A4
 10
500.727
 20
255.415
 30
0.000000
  70
    32
  0
VERTEX
  8
0
  5
90A5
 10
500.712
 20
255.384
 30
0.000000
  70
    32
  0
VERTEX
  8
0
  5
90A6
 10
500.697
 20
255.353
 30
0.000000
  70
    32
  0
VERTEX
  8
0
  5
90A7
 10
500.682
 20
255.321
 30
0.000000
  70
    32
  0
VERTEX
  8
0
  5
90A8
 10
500.669
 20
255.289
 30
0.000000
  70
    32
  0
VERTEX
  8
0
  5
90A9
 10
500.655
 20
255.256
 30
0.000000
  70
    32
  0
VERTEX
  8
0
  5
90AA
 10
500.642
 20
255.223
 30
0.000000
  70
    32
  0
VERTEX
  8
0
  5
90AB
 10
500.630
 20
255.189
 30
0.000000
  70
    32
  0
VERTEX
  8
0
  5
90AC
 10
500.618
 20
255.154
 30
0.000000
  70
    32
  0
VERTEX
  8
0
  5
90AD
 10
500.607
 20
255.119
 30
0.000000
  70
    32
  0
VERTEX
  8
0
  5
90AE
 10
500.596
 20
255.084
 30
0.000000
  70
    32
  0
VERTEX
  8
0
  5
90AF
 10
500.586
 20
255.048
 30
0.000000
  70
    32
  0
VERTEX
  8
0
  5
90B0
 10
500.576
 20
255.012
 30
0.000000
  70
    32
  0
VERTEX
  8
0
  5
90B1
 10
500.567
 20
254.976
 30
0.000000
  70
    32
  0
VERTEX
  8
0
  5
90B2
 10
500.558
 20
254.939
 30
0.000000
  70
    32
  0
VERTEX
  8
0
  5
90B3
 10
500.550
 20
254.902
 30
0.000000
  70
    32
  0
VERTEX
  8
0
  5
90B4
 10
500.543
 20
254.864
 30
0.000000
  70
    32
  0
VERTEX
  8
0
  5
90B5
 10
500.536
 20
254.827
 30
0.000000
  70
    32
  0
VERTEX
  8
0
  5
90B6
 10
500.530
 20
254.789
 30
0.000000
  70
    32
  0
VERTEX
  8
0
  5
90B7
 10
500.524
 20
254.751
 30
0.000000
  70
    32
  0
VERTEX
  8
0
  5
90B8
 10
500.519
 20
254.712
 30
0.000000
  70
    32
  0
VERTEX
  8
0
  5
90B9
 10
500.515
 20
254.674
 30
0.000000
  70
    32
  0
VERTEX
  8
0
  5
90BA
 10
500.511
 20
254.635
 30
0.000000
  70
    32
  0
VERTEX
  8
0
  5
90BB
 10
500.508
 20
254.596
 30
0.000000
  70
    32
  0
VERTEX
  8
0
  5
90BC
 10
500.505
 20
254.557
 30
0.000000
  70
    32
  0
VERTEX
  8
0
  5
90BD
 10
500.503
 20
254.518
 30
0.000000
  70
    32
  0
VERTEX
  8
0
  5
90BE
 10
500.501
 20
254.479
 30
0.000000
  70
    32
  0
VERTEX
  8
0
  5
90BF
 10
500.500
 20
254.439
 30
0.000000
  70
    32
  0
VERTEX
  8
0
  5
90C0
 10
500.500
 20
254.400
 30
0.000000
  70
    32
  0
VERTEX
  8
0
  5
90C1
 10
500.500
 20
254.361
 30
0.000000
  70
    32
  0
VERTEX
  8
0
  5
90C2
 10
500.501
 20
254.321
 30
0.000000
  70
    32
  0
VERTEX
  8
0
  5
90C3
 10
500.503
 20
254.282
 30
0.000000
  70
    32
  0
VERTEX
  8
0
  5
90C4
 10
500.505
 20
254.243
 30
0.000000
  70
    32
  0
VERTEX
  8
0
  5
90C5
 10
500.508
 20
254.204
 30
0.000000
  70
    32
  0
VERTEX
  8
0
  5
90C6
 10
500.511
 20
254.165
 30
0.000000
  70
    32
  0
VERTEX
  8
0
  5
90C7
 10
500.515
 20
254.126
 30
0.000000
  70
    32
  0
VERTEX
  8
0
  5
90C8
 10
500.519
 20
254.088
 30
0.000000
  70
    32
  0
VERTEX
  8
0
  5
90C9
 10
500.524
 20
254.049
 30
0.000000
  70
    32
  0
VERTEX
  8
0
  5
90CA
 10
500.530
 20
254.011
 30
0.000000
  70
    32
  0
VERTEX
  8
0
  5
90CB
 10
500.536
 20
253.973
 30
0.000000
  70
    32
  0
VERTEX
  8
0
  5
90CC
 10
500.543
 20
253.936
 30
0.000000
  70
    32
  0
VERTEX
  8
0
  5
90CD
 10
500.550
 20
253.898
 30
0.000000
  70
    32
  0
VERTEX
  8
0
  5
90CE
 10
500.558
 20
253.861
 30
0.000000
  70
    32
  0
VERTEX
  8
0
  5
90CF
 10
500.567
 20
253.824
 30
0.000000
  70
    32
  0
VERTEX
  8
0
  5
90D0
 10
500.576
 20
253.788
 30
0.000000
  70
    32
  0
VERTEX
  8
0
  5
90D1
 10
500.586
 20
253.752
 30
0.000000
  70
    32
  0
VERTEX
  8
0
  5
90D2
 10
500.596
 20
253.716
 30
0.000000
  70
    32
  0
VERTEX
  8
0
  5
90D3
 10
500.607
 20
253.681
 30
0.000000
  70
    32
  0
VERTEX
  8
0
  5
90D4
 10
500.618
 20
253.646
 30
0.000000
  70
    32
  0
VERTEX
  8
0
  5
90D5
 10
500.630
 20
253.611
 30
0.000000
  70
    32
  0
VERTEX
  8
0
  5
90D6
 10
500.642
 20
253.577
 30
0.000000
  70
    32
  0
VERTEX
  8
0
  5
90D7
 10
500.655
 20
253.544
 30
0.000000
  70
    32
  0
VERTEX
  8
0
  5
90D8
 10
500.669
 20
253.511
 30
0.000000
  70
    32
  0
VERTEX
  8
0
  5
90D9
 10
500.682
 20
253.479
 30
0.000000
  70
    32
  0
VERTEX
  8
0
  5
90DA
 10
500.697
 20
253.447
 30
0.000000
  70
    32
  0
VERTEX
  8
0
  5
90DB
 10
500.712
 20
253.416
 30
0.000000
  70
    32
  0
VERTEX
  8
0
  5
90DC
 10
500.727
 20
253.385
 30
0.000000
  70
    32
  0
VERTEX
  8
0
  5
90DD
 10
500.743
 20
253.355
 30
0.000000
  70
    32
  0
VERTEX
  8
0
  5
90DE
 10
500.759
 20
253.326
 30
0.000000
  70
    32
  0
VERTEX
  8
0
  5
90DF
 10
500.776
 20
253.297
 30
0.000000
  70
    32
  0
VERTEX
  8
0
  5
90E0
 10
500.793
 20
253.269
 30
0.000000
  70
    32
  0
VERTEX
  8
0
  5
90E1
 10
500.810
 20
253.241
 30
0.000000
  70
    32
  0
VERTEX
  8
0
  5
90E2
 10
500.828
 20
253.214
 30
0.000000
  70
    32
  0
VERTEX
  8
0
  5
90E3
 10
500.847
 20
253.188
 30
0.000000
  70
    32
  0
VERTEX
  8
0
  5
90E4
 10
500.866
 20
253.163
 30
0.000000
  70
    32
  0
VERTEX
  8
0
  5
90E5
 10
500.885
 20
253.139
 30
0.000000
  70
    32
  0
VERTEX
  8
0
  5
90E6
 10
500.904
 20
253.115
 30
0.000000
  70
    32
  0
VERTEX
  8
0
  5
90E7
 10
500.924
 20
253.092
 30
0.000000
  70
    32
  0
VERTEX
  8
0
  5
90E8
 10
500.944
 20
253.070
 30
0.000000
  70
    32
  0
VERTEX
  8
0
  5
90E9
 10
500.965
 20
253.048
 30
0.000000
  70
    32
  0
VERTEX
  8
0
  5
90EA
 10
500.986
 20
253.028
 30
0.000000
  70
    32
  0
VERTEX
  8
0
  5
90EB
 10
501.007
 20
253.008
 30
0.000000
  70
    32
  0
VERTEX
  8
0
  5
90EC
 10
501.029
 20
252.989
 30
0.000000
  70
    32
  0
VERTEX
  8
0
  5
90ED
 10
501.050
 20
252.971
 30
0.000000
  70
    32
  0
VERTEX
  8
0
  5
90EE
 10
501.072
 20
252.954
 30
0.000000
  70
    32
  0
VERTEX
  8
0
  5
90EF
 10
501.095
 20
252.937
 30
0.000000
  70
    32
  0
VERTEX
  8
0
  5
90F0
 10
501.117
 20
252.922
 30
0.000000
  70
    32
  0
VERTEX
  8
0
  5
90F1
 10
501.140
 20
252.907
 30
0.000000
  70
    32
  0
VERTEX
  8
0
  5
90F2
 10
501.163
 20
252.894
 30
0.000000
  70
    32
  0
VERTEX
  8
0
  5
90F3
 10
501.186
 20
252.881
 30
0.000000
  70
    32
  0
VERTEX
  8
0
  5
90F4
 10
501.210
 20
252.869
 30
0.000000
  70
    32
  0
VERTEX
  8
0
  5
90F5
 10
501.233
 20
252.858
 30
0.000000
  70
    32
  0
VERTEX
  8
0
  5
90F6
 10
501.257
 20
252.848
 30
0.000000
  70
    32
  0
VERTEX
  8
0
  5
90F7
 10
501.281
 20
252.839
 30
0.000000
  70
    32
  0
VERTEX
  8
0
  5
90F8
 10
501.305
 20
252.831
 30
0.000000
  70
    32
  0
VERTEX
  8
0
  5
90F9
 10
501.329
 20
252.824
 30
0.000000
  70
    32
  0
VERTEX
  8
0
  5
90FA
 10
501.353
 20
252.817
 30
0.000000
  70
    32
  0
VERTEX
  8
0
  5
90FB
 10
501.378
 20
252.812
 30
0.000000
  70
    32
  0
VERTEX
  8
0
  5
90FC
 10
501.402
 20
252.808
 30
0.000000
  70
    32
  0
VERTEX
  8
0
  5
90FD
 10
501.426
 20
252.804
 30
0.000000
  70
    32
  0
VERTEX
  8
0
  5
90FE
 10
501.451
 20
252.802
 30
0.000000
  70
    32
  0
VERTEX
  8
0
  5
90FF
 10
501.475
 20
252.800
 30
0.000000
  70
    32
  0
VERTEX
  8
0
  5
9100
 10
501.500
 20
252.800
 30
0.000000
  70
    32
  0
SEQEND
  8
0
  5
9101
  0
LINE
  5
84C5
  8
0
 10
500.49999981373543
 20
220.99999761581421
 30
0.0
 11
500.49999981373543
 21
219.79999965429309
 31
0.0
  0
LINE
  5
84C6
  8
0
 10
525.50000018626451
 20
219.79999965429309
 30
0.0
 11
525.50000018626451
 21
220.99999761581421
 31
0.0
  0
LINE
  5
84C7
  8
0
 10
500.49999981373543
 20
219.79999965429309
 30
0.0
 11
500.80000023543829
 21
219.4999983012676
 31
0.0
  0
LINE
  5
84C8
  8
0
 10
525.19999976456165
 20
219.4999983012676
 30
0.0
 11
525.50000018626451
 21
219.79999965429309
 31
0.0
  0
LINE
  5
84C9
  8
0
 10
500.49999981373543
 20
238.7999971807003
 30
0.0
 11
500.49999981373543
 21
237.79999887943271
 31
0.0
  0
LINE
  5
84CA
  8
0
 10
525.50000018626451
 20
237.79999887943271
 30
0.0
 11
525.50000018626451
 21
238.7999971807003
 31
0.0
  0
LINE
  5
84CB
  8
0
 10
525.50000018626451
 20
228.99999892711639
 30
0.0
 11
525.19999976456165
 21
229.3000002801418
 31
0.0
  0
LINE
  5
84CC
  8
0
 10
500.80000023543829
 20
229.3000002801418
 30
0.0
 11
500.49999981373543
 21
228.99999892711639
 31
0.0
  0
LINE
  5
84CD
  8
0
 10
500.49999981373543
 20
237.79999887943271
 30
0.0
 11
500.80000023543829
 21
237.49999752640721
 31
0.0
  0
LINE
  5
84CE
  8
0
 10
525.19999976456165
 20
237.49999752640721
 30
0.0
 11
525.50000018626451
 21
237.79999887943271
 31
0.0
  0
LINE
  5
84CF
  8
0
 10
500.49999981373543
 20
256.99999979138369
 30
0.0
 11
500.49999981373543
 21
255.999999627471
 31
0.0
  0
LINE
  5
84D0
  8
0
 10
525.50000018626451
 20
255.999999627471
 30
0.0
 11
525.50000018626451
 21
256.99999979138369
 31
0.0
  0
LINE
  5
84D1
  8
0
 10
500.49999981373543
 20
252.7999994754791
 30
0.0
 11
500.49999981373543
 21
251.79999931156641
 31
0.0
  0
LINE
  5
84D2
  8
0
 10
525.50000018626451
 20
251.79999931156641
 30
0.0
 11
525.50000018626451
 21
252.7999994754791
 31
0.0
  0
LINE
  5
84D3
  8
0
 10
500.49999981373543
 20
251.79999931156641
 30
0.0
 11
500.80000023543829
 21
251.49999982118609
 31
0.0
  0
LINE
  5
84D4
  8
0
 10
525.19999976456165
 20
251.49999982118609
 30
0.0
 11
525.50000018626451
 21
251.79999931156641
 31
0.0
  0
LINE
  5
84D5
  8
0
 10
525.50000018626451
 20
256.99999979138369
 30
0.0
 11
525.19999976456165
 21
257.29999928176397
 31
0.0
  0
LINE
  5
84D6
  8
0
 10
500.80000023543829
 20
257.29999928176397
 30
0.0
 11
500.49999981373543
 21
256.99999979138369
 31
0.0
  0
LINE
  5
84D7
  8
0
 10
500.49999981373543
 20
242.99999749660489
 30
0.0
 11
500.49999981373543
 21
241.9999991953373
 31
0.0
  0
LINE
  5
84D8
  8
0
 10
525.50000018626451
 20
241.9999991953373
 30
0.0
 11
525.50000018626451
 21
242.99999749660489
 31
0.0
  0
LINE
  5
84D9
  8
0
 10
525.50000018626451
 20
242.99999749660489
 30
0.0
 11
525.19999976456165
 21
243.29999884963041
 31
0.0
  0
LINE
  5
84DA
  8
0
 10
500.80000023543829
 20
243.29999884963041
 30
0.0
 11
500.49999981373543
 21
242.99999749660489
 31
0.0
  0
LINE
  5
84DB
  8
0
 10
500.49999981373543
 20
228.99999892711639
 30
0.0
 11
500.49999981373543
 21
228.0000006258488
 31
0.0
  0
LINE
  5
84DC
  8
0
 10
525.50000018626451
 20
228.0000006258488
 30
0.0
 11
525.50000018626451
 21
228.99999892711639
 31
0.0
  0
LINE
  5
84DD
  8
0
 10
500.49999981373543
 20
224.79999861121181
 30
0.0
 11
500.49999981373543
 21
222.3499981164932
 31
0.0
  0
LINE
  5
84DE
  8
0
 10
525.50000018626451
 20
222.3499981164932
 30
0.0
 11
525.50000018626451
 21
224.79999861121181
 31
0.0
  0
LINE
  5
84DF
  8
0
 10
500.80000023543829
 20
218.6999996602535
 30
0.0
 11
500.99999989569181
 21
218.5
 31
0.0
  0
LINE
  5
84E0
  8
0
 10
525.00000010430813
 20
218.5
 30
0.0
 11
525.19999976456165
 21
218.6999996602535
 31
0.0
  0
LINE
  5
84E1
  8
0
 10
525.19999976456165
 20
257.29999928176397
 30
0.0
 11
525.19999976456165
 21
269.49999904632568
 31
0.0
  0
LINE
  5
84E2
  8
0
 10
500.80000023543829
 20
269.49999904632568
 30
0.0
 11
500.80000023543829
 21
257.29999928176397
 31
0.0
  0
LINE
  5
84E3
  8
0
 10
525.19999976456165
 20
243.29999884963041
 30
0.0
 11
525.19999976456165
 21
251.49999982118609
 31
0.0
  0
LINE
  5
84E4
  8
0
 10
500.80000023543829
 20
251.49999982118609
 30
0.0
 11
500.80000023543829
 21
243.29999884963041
 31
0.0
  0
LINE
  5
84E5
  8
0
 10
525.19999976456165
 20
218.6999996602535
 30
0.0
 11
525.19999976456165
 21
219.4999983012676
 31
0.0
  0
LINE
  5
84E6
  8
0
 10
500.80000023543829
 20
219.4999983012676
 30
0.0
 11
500.80000023543829
 21
218.6999996602535
 31
0.0
  0
LINE
  5
84E7
  8
0
 10
525.19999976456165
 20
229.3000002801418
 30
0.0
 11
525.19999976456165
 21
237.49999752640721
 31
0.0
  0
LINE
  5
84E8
  8
0
 10
500.80000023543829
 20
237.49999752640721
 30
0.0
 11
500.80000023543829
 21
229.3000002801418
 31
0.0
  0
LINE
  5
84E9
  8
0
 10
501.0499998107552
 20
222.3499981164932
 30
0.0
 11
501.0499998107552
 21
220.99999761581421
 31
0.0
  0
LINE
  5
84EA
  8
0
 10
524.95000018924475
 20
220.99999761581421
 30
0.0
 11
524.95000018924475
 21
222.3499981164932
 31
0.0
  0
LINE
  5
84EB
  8
0
 10
500.49999981373543
 20
220.99999761581421
 30
0.0
 11
525.50000018626451
 21
220.99999761581421
 31
0.0
  0
LINE
  5
84EC
  8
0
 10
525.19999976456165
 20
219.4999983012676
 30
0.0
 11
500.80000023543829
 21
219.4999983012676
 31
0.0
  0
LINE
  5
84ED
  8
0
 10
500.49999981373543
 20
238.7999971807003
 30
0.0
 11
525.50000018626451
 21
238.7999971807003
 31
0.0
  0
LINE
  5
84EE
  8
0
 10
525.19999976456165
 20
229.3000002801418
 30
0.0
 11
500.80000023543829
 21
229.3000002801418
 31
0.0
  0
LINE
  5
84EF
  8
0
 10
525.19999976456165
 20
237.49999752640721
 30
0.0
 11
500.80000023543829
 21
237.4999975264073
 31
0.0
  0
LINE
  5
84F0
  8
0
 10
500.49999981373543
 20
255.999999627471
 30
0.0
 11
525.50000018626451
 21
255.999999627471
 31
0.0
  0
LINE
  5
84F1
  8
0
 10
500.49999981373543
 20
252.7999994754791
 30
0.0
 11
525.50000018626451
 21
252.7999994754791
 31
0.0
  0
LINE
  5
84F2
  8
0
 10
525.19999976456165
 20
251.49999982118609
 30
0.0
 11
500.80000023543829
 21
251.49999982118609
 31
0.0
  0
LINE
  5
84F3
  8
0
 10
525.19999976456165
 20
257.29999928176397
 30
0.0
 11
500.80000023543857
 21
257.29999928176397
 31
0.0
  0
LINE
  5
84F4
  8
0
 10
500.49999981373543
 20
241.9999991953373
 30
0.0
 11
525.50000018626451
 21
241.9999991953373
 31
0.0
  0
LINE
  5
84F5
  8
0
 10
525.19999976456165
 20
243.29999884963041
 30
0.0
 11
500.80000023543829
 21
243.29999884963041
 31
0.0
  0
LINE
  5
84F6
  8
0
 10
500.49999981373543
 20
228.0000006258488
 30
0.0
 11
525.50000018626451
 21
228.0000006258488
 31
0.0
  0
LINE
  5
84F7
  8
0
 10
500.49999981373543
 20
224.79999861121181
 30
0.0
 11
525.50000018626451
 21
224.79999861121181
 31
0.0
  0
LINE
  5
84F8
  8
0
 10
500.49999981373543
 20
222.3499981164932
 30
0.0
 11
525.50000018626451
 21
222.3499981164932
 31
0.0
  0
LINE
  5
84F9
  8
0
 10
525.00000010430813
 20
218.5
 30
0.0
 11
500.99999989569181
 21
218.5
 31
0.0
  0
CIRCLE
  5
84FA
  8
0
 10
513.00000291129891
 20
249.49999959296099
 30
0.0
 40
1.499999214948883
  0
CIRCLE
  5
84FB
  8
0
 10
512.99999450291796
 20
231.4999974362631
 30
0.0
 40
1.500002146514458
  0
CIRCLE
  5
84FC
  8
0
 10
513.0
 20
249.4999989867211
 30
0.0
 40
0.7499999999999716
  0
CIRCLE
  5
84FD
  8
0
 10
513.0
 20
231.4999989867211
 30
0.0
 40
0.75
  0
LINE
  5
8508
  8
1
 10
510.00000369635001
 20
249.49999959296099
 30
0.0
 11
516.00000212624775
 21
249.49999959296099
 31
0.0
  0
LINE
  5
8509
  8
1
 10
509.99999528796911
 20
231.4999974362631
 30
0.0
 11
515.9999937178668
 21
231.4999974362631
 31
0.0
  0
ARC
  5
850E
  8
0
 10
337.6616641853729
 20
249.4999995929611
 30
0.0
 40
12.551616540579889
 50
173.13638035790359
 51
186.86361964209669
  0
ARC
  5
850F
  8
0
 10
337.6616641853729
 20
231.5000003678187
 30
0.0
 40
12.551616540579889
 50
173.13638035790351
 51
186.86361964209669
  0
LINE
  5
8529
  8
0
 10
322.4999996945262
 20
375.49999779462809
 30
0.0
 11
323.9999999403953
 21
374.63397210836411
 31
0.0
  0
CIRCLE
  5
854B
  8
0
 10
313.00000000000028
 20
100.0
 30
0.0
 40
12.19999999999999
  0
CIRCLE
  5
854C
  8
0
 10
313.00000000000028
 20
100.0
 30
0.0
 40
2.1000000000000218
  0
CIRCLE
  5
854D
  8
0
 10
313.00000000000028
 20
100.0
 30
0.0
 40
12.5
  0
CIRCLE
  5
854E
  8
0
 10
313.00000000000028
 20
99.999999999999886
 30
0.0
 40
16.345299461620751
  0
CIRCLE
  5
854F
  8
0
 10
313.00000000000028
 20
99.999999999999872
 30
0.0
 40
17.5
  0
CIRCLE
  5
8550
  8
0
 10
313.00000000000028
 20
99.999999999999886
 30
0.0
 40
14.000000000000011
  0
CIRCLE
  5
85D3
  8
3
 10
313.0
 20
100.0
 30
0.0
 40
2.5
  0
LINE
  5
864D
  8
0
 10
309.74999999999977
 20
524.99999773502293
 30
0.0
 11
309.74999999999977
 21
525.49999773502293
 31
0.0
  0
LINE
  5
864E
  8
0
 10
316.24999999999977
 20
525.49999773502304
 30
0.0
 11
316.24999999999977
 21
524.99999773502304
 31
0.0
  0
LINE
  5
864F
  8
0
 10
309.24999999999977
 20
524.64528979192301
 30
0.0
 11
309.24999999999977
 21
524.799997735023
 31
0.0
  0
LINE
  5
8650
  8
0
 10
316.74999999999977
 20
524.799997735023
 30
0.0
 11
316.74999999999977
 21
524.64528979192301
 31
0.0
  0
LINE
  5
8651
  8
0
 10
309.24999999999977
 20
524.799997735023
 30
0.0
 11
309.44999999999987
 21
524.99999773502293
 31
0.0
  0
LINE
  5
8652
  8
0
 10
316.54999999999978
 20
524.99999773502304
 30
0.0
 11
316.74999999999977
 21
524.799997735023
 31
0.0
  0
LINE
  5
8653
  8
0
 10
316.75000000000023
 20
485.19999773502292
 30
0.0
 11
316.55000000000018
 21
484.99999773502287
 31
0.0
  0
LINE
  5
8654
  8
0
 10
309.45000000000022
 20
484.99999773502287
 30
0.0
 11
309.25000000000023
 21
485.19999773502281
 31
0.0
  0
LINE
  5
8655
  8
0
 10
309.25000000000023
 20
485.19999773502281
 30
0.0
 11
309.25000000000023
 21
485.35470567812303
 31
0.0
  0
LINE
  5
8656
  8
0
 10
316.75000000000023
 20
485.35470567812303
 30
0.0
 11
316.75000000000023
 21
485.19999773502292
 31
0.0
  0
LINE
  5
8657
  8
0
 10
316.24999999999977
 20
525.49999773502304
 30
0.0
 11
309.74999999999977
 21
525.49999773502293
 31
0.0
  0
LINE
  5
8658
  8
0
 10
312.99999999999989
 20
527.99999773502304
 30
0.0
 11
312.99999999999989
 21
525.49999773502304
 31
0.0
  0
LINE
  5
8659
  8
0
 10
315.74999999999977
 20
527.99999773502304
 30
0.0
 11
315.74999999999977
 21
525.49999773502304
 31
0.0
  0
LINE
  5
865A
  8
0
 10
315.74999999999977
 20
527.99999773502304
 30
0.0
 11
310.24999999999977
 21
527.99999773502293
 31
0.0
  0
LINE
  5
865B
  8
0
 10
310.24999999999977
 20
527.99999773502293
 30
0.0
 11
310.24999999999977
 21
525.49999773502293
 31
0.0
  0
LINE
  5
865C
  8
0
 10
316.54999999999978
 20
524.99999773502304
 30
0.0
 11
309.44999999999982
 21
524.99999773502293
 31
0.0
  0
LINE
  5
865D
  8
0
 10
309.45000000000022
 20
484.99999773502287
 30
0.0
 11
316.55000000000018
 21
484.99999773502287
 31
0.0
  0
LINE
  5
8678
  8
0
 10
532.99999955294891
 20
341.64999848602349
 30
0.0
 11
533.50000056624913
 21
341.64999848602349
 31
0.0
  0
LINE
  5
8679
  8
0
 10
533.50000056624913
 20
348.14999675752352
 30
0.0
 11
532.99999955294891
 21
348.14999675752352
 31
0.0
  0
LINE
  5
867A
  8
0
 10
533.50000056624913
 20
348.14999675752352
 30
0.0
 11
533.50000056624913
 21
341.64999848602349
 31
0.0
  0
LINE
  5
867B
  8
0
 10
535.39999920134915
 20
344.5999962687236
 30
0.0
 11
536.00000004474919
 21
344.5999962687236
 31
0.0
  0
LINE
  5
867C
  8
0
 10
536.00000004474919
 20
344.5999962687236
 30
0.0
 11
536.00000004474919
 21
341.7245713472235
 31
0.0
  0
LINE
  5
867D
  8
0
 10
536.00000004474919
 20
343.3122826218235
 30
0.0
 11
533.50000056624913
 21
343.3122826218235
 31
0.0
  0
LINE
  5
867E
  8
0
 10
536.00000004474919
 20
346.48771262162347
 30
0.0
 11
533.50000056624913
 21
346.48771262162347
 31
0.0
  0
LINE
  5
867F
  8
0
 10
536.00000004474907
 20
348.07542389632363
 30
0.0
 11
536.00000004474919
 21
345.19999897482359
 31
0.0
  0
LINE
  5
8680
  8
0
 10
535.39999920134915
 20
345.19999897482359
 30
0.0
 11
536.00000004474919
 21
345.19999897482359
 31
0.0
  0
LINE
  5
8681
  8
0
 10
535.39999920134915
 20
345.19999897482359
 30
0.0
 11
535.39999920134915
 21
344.5999962687236
 31
0.0
  0
LINE
  5
8682
  8
0
 10
536.00000004474919
 20
348.07542389632363
 30
0.0
 11
533.50000056624913
 21
348.07542389632363
 31
0.0
  0
LINE
  5
8683
  8
0
 10
536.00000004474919
 20
341.7245713472235
 30
0.0
 11
533.50000056624913
 21
341.7245713472235
 31
0.0
  0
LINE
  5
8684
  8
0
 10
532.99999955294891
 20
348.44999438522348
 30
0.0
 11
532.99999955294891
 21
341.34999713302358
 31
0.0
  0
LINE
  5
8685
  8
0
 10
493.0000004470491
 20
341.34999713302358
 30
0.0
 11
493.0000004470491
 21
348.45000183582363
 31
0.0
  0
ARC
  5
8686
  8
0
 10
473.19467944181378
 20
344.89999922515801
 30
0.0
 40
20.176056154669059
 50
348.9993426275845
 51
11.000657372282699
  0
ARC
  5
8687
  8
0
 10
552.80532055828428
 20
344.89999922515801
 30
0.0
 40
20.176056154669059
 50
168.99934262771731
 51
191.0006573724155
  0
LINE
  5
8688
  8
0
 10
493.0474307670936
 20
348.4974298044682
 30
0.0
 11
493.0000004470491
 21
348.44999948442359
 31
0.0
  0
LINE
  5
8689
  8
0
 10
493.0000004470491
 20
341.34999948442362
 30
0.0
 11
493.04743084664022
 21
341.30256908483233
 31
0.0
  0
LINE
  5
868A
  8
0
 10
532.95256923300451
 20
348.4974298044682
 30
0.0
 11
532.99999955304895
 21
348.44999948442359
 31
0.0
  0
LINE
  5
868B
  8
0
 10
532.99999955304895
 20
341.34999948442362
 30
0.0
 11
532.95256915345794
 21
341.30256908483233
 31
0.0
  0
LINE
  5
86A6
  8
0
 10
93.000000447053466
 20
341.64999848602338
 30
0.0
 11
92.499999433753374
 21
341.64999848602338
 31
0.0
  0
LINE
  5
86A7
  8
0
 10
92.499999433753374
 20
348.14999675752341
 30
0.0
 11
93.000000447053466
 21
348.14999675752341
 31
0.0
  0
LINE
  5
86A8
  8
0
 10
92.499999433753374
 20
348.14999675752341
 30
0.0
 11
92.499999433753374
 21
341.64999848602338
 31
0.0
  0
LINE
  5
86A9
  8
0
 10
90.600000798653355
 20
344.59999626872349
 30
0.0
 11
89.999999955253315
 21
344.59999626872349
 31
0.0
  0
LINE
  5
86AA
  8
0
 10
89.999999955253315
 20
344.59999626872349
 30
0.0
 11
89.999999955253315
 21
341.72457134722339
 31
0.0
  0
LINE
  5
86AB
  8
0
 10
89.999999955253315
 20
343.31228262182339
 30
0.0
 11
92.499999433753374
 21
343.31228262182339
 31
0.0
  0
LINE
  5
86AC
  8
0
 10
89.999999955253315
 20
346.48771262162342
 30
0.0
 11
92.499999433753374
 21
346.48771262162342
 31
0.0
  0
LINE
  5
86AD
  8
0
 10
89.999999955253415
 20
348.07542389632351
 30
0.0
 11
89.999999955253315
 21
345.19999897482347
 31
0.0
  0
LINE
  5
86AE
  8
0
 10
90.600000798653355
 20
345.19999897482347
 30
0.0
 11
89.999999955253315
 21
345.19999897482347
 31
0.0
  0
LINE
  5
86AF
  8
0
 10
90.600000798653355
 20
345.19999897482347
 30
0.0
 11
90.600000798653355
 21
344.59999626872349
 31
0.0
  0
LINE
  5
86B0
  8
0
 10
89.999999955253315
 20
348.07542389632351
 30
0.0
 11
92.499999433753374
 21
348.07542389632351
 31
0.0
  0
LINE
  5
86B1
  8
0
 10
89.999999955253315
 20
341.72457134722339
 30
0.0
 11
92.499999433753374
 21
341.72457134722339
 31
0.0
  0
LINE
  5
86B2
  8
0
 10
93.000000447053466
 20
348.44999438522342
 30
0.0
 11
93.000000447053466
 21
341.34999713302352
 31
0.0
  0
ARC
  5
86B3
  8
0
 10
73.194679441718108
 20
344.89999922515779
 30
0.0
 40
20.176056154669059
 50
348.9993426275841
 51
11.00065737228301
  0
LINE
  5
86B4
  8
0
 10
93.047430766997977
 20
348.4974298044682
 30
0.0
 11
93.000000446953436
 21
348.44999948442347
 31
0.0
  0
LINE
  5
86B5
  8
0
 10
93.000000446953436
 20
341.34999948442339
 30
0.0
 11
93.047430846544557
 21
341.30256908483221
 31
0.0
  0
LINE
  5
86B6
  8
0
 10
132.99999955295181
 20
341.34999713302358
 30
0.0
 11
132.99999955295181
 21
348.45000183582363
 31
0.0
  0
ARC
  5
86B7
  8
0
 10
152.80532055818699
 20
344.89999922515801
 30
0.0
 40
20.176056154669059
 50
168.99934262771691
 51
191.00065737241579
  0
LINE
  5
86B8
  8
0
 10
132.95256923290719
 20
348.4974298044682
 30
0.0
 11
132.99999955295181
 21
348.44999948442359
 31
0.0
  0
LINE
  5
86B9
  8
0
 10
132.99999955295181
 20
341.34999948442362
 30
0.0
 11
132.95256915336071
 21
341.30256908483233
 31
0.0
  0
ENDSEC
  0
EOF
