  0
SECTION
  2
HEADER
  9
$ACADVER
  1
AC1009
  9
$INSBASE
 10
0.0
 20
0.0
 30
0.0
  9
$EXTMIN
 10
-0.0204638472032742
 20
-2.960436562073669
 30
-0.0000000000000002
  9
$EXTMAX
 10
432.50000000000011
 20
419.50000196695339
 30
0.0000000000000002
  9
$LIMMIN
 10
0.0
 20
0.0
  9
$LIMMAX
 10
594.0
 20
420.0
  9
$ORTHOMODE
 70
     1
  9
$REGENMODE
 70
     1
  9
$FILLMODE
 70
     1
  9
$QTEXTMODE
 70
     0
  9
$MIRRTEXT
 70
     1
  9
$DRAGMODE
 70
     2
  9
$LTSCALE
 40
1.0
  9
$OSMODE
 70
    37
  9
$ATTMODE
 70
     1
  9
$TEXTSIZE
 40
2.5
  9
$TRACEWID
 40
1.0
  9
$TEXTSTYLE
  7
STANDARD
  9
$CLAYER
  8
0
  9
$CELTYPE
  6
BYLAYER
  9
$CECOLOR
 62
   256
  9
$DIMSCALE
 40
1.0
  9
$DIMASZ
 40
3.0
  9
$DIMEXO
 40
1.0
  9
$DIMDLI
 40
3.75
  9
$DIMRND
 40
0.0
  9
$DIMDLE
 40
0.0
  9
$DIMEXE
 40
1.0
  9
$DIMTP
 40
0.0
  9
$DIMTM
 40
0.0
  9
$DIMTXT
 40
4.2333333333333316
  9
$DIMCEN
 40
2.5
  9
$DIMTSZ
 40
0.0
  9
$DIMTOL
 70
     0
  9
$DIMLIM
 70
     0
  9
$DIMTIH
 70
     1
  9
$DIMTOH
 70
     1
  9
$DIMSE1
 70
     0
  9
$DIMSE2
 70
     0
  9
$DIMTAD
 70
     1
  9
$DIMZIN
 70
     0
  9
$DIMBLK
  1

  9
$DIMASO
 70
     1
  9
$DIMSHO
 70
     1
  9
$DIMPOST
  1

  9
$DIMAPOST
  1

  9
$DIMALT
 70
     0
  9
$DIMALTD
 70
     3
  9
$DIMALTF
 40
0.0393700787401575
  9
$DIMLFAC
 40
1.0
  9
$DIMTOFL
 70
     1
  9
$DIMTVP
 40
0.0
  9
$DIMTIX
 70
     0
  9
$DIMSOXD
 70
     0
  9
$DIMSAH
 70
     0
  9
$DIMBLK1
  1

  9
$DIMBLK2
  1

  9
$DIMSTYLE
  2
ISO-25
  9
$DIMCLRD
 70
     0
  9
$DIMCLRE
 70
     0
  9
$DIMCLRT
 70
     0
  9
$DIMTFAC
 40
1.0
  9
$DIMGAP
 40
1.524
  9
$LUNITS
 70
     2
  9
$LUPREC
 70
     1
  9
$SKETCHINC
 40
1.0
  9
$FILLETRAD
 40
10.0
  9
$AUNITS
 70
     0
  9
$AUPREC
 70
     0
  9
$MENU
  1
.
  9
$ELEVATION
 40
0.0
  9
$PELEVATION
 40
0.0
  9
$THICKNESS
 40
0.0
  9
$LIMCHECK
 70
     0
  9
$BLIPMODE
 70
     0
  9
$CHAMFERA
 40
10.0
  9
$CHAMFERB
 40
10.0
  9
$SKPOLY
 70
     0
  9
$TDCREATE
 40
2454991.6013850812
  9
$TDUPDATE
 40
2457939.374712164
  9
$TDINDWG
 40
0.4326330556
  9
$TDUSRTIMER
 40
0.4326330556
  9
$USRTIMER
 70
     1
  9
$ANGBASE
 50
0.0
  9
$ANGDIR
 70
     0
  9
$PDMODE
 70
     0
  9
$PDSIZE
 40
-1.0
  9
$PLINEWID
 40
0.0
  9
$COORDS
 70
     1
  9
$SPLFRAME
 70
     0
  9
$SPLINETYPE
 70
     6
  9
$SPLINESEGS
 70
     8
  9
$ATTDIA
 70
     0
  9
$ATTREQ
 70
     1
  9
$HANDLING
 70
     1
  9
$HANDSEED
  5
8A7F
  9
$SURFTAB1
 70
     6
  9
$SURFTAB2
 70
     6
  9
$SURFTYPE
 70
     6
  9
$SURFU
 70
     6
  9
$SURFV
 70
     6
  9
$UCSNAME
  2

  9
$UCSORG
 10
0.0
 20
0.0
 30
0.0
  9
$UCSXDIR
 10
1.0
 20
0.0
 30
0.0
  9
$UCSYDIR
 10
0.0
 20
1.0
 30
0.0
  9
$PUCSNAME
  2

  9
$PUCSORG
 10
0.0
 20
0.0
 30
0.0
  9
$PUCSXDIR
 10
1.0
 20
0.0
 30
0.0
  9
$PUCSYDIR
 10
0.0
 20
1.0
 30
0.0
  9
$USERI1
 70
     0
  9
$USERI2
 70
     0
  9
$USERI3
 70
     0
  9
$USERI4
 70
     0
  9
$USERI5
 70
     0
  9
$USERR1
 40
0.0
  9
$USERR2
 40
0.0
  9
$USERR3
 40
0.0
  9
$USERR4
 40
0.0
  9
$USERR5
 40
0.0
  9
$WORLDVIEW
 70
     1
  9
$SHADEDGE
 70
     3
  9
$SHADEDIF
 70
    70
  9
$TILEMODE
 70
     1
  9
$MAXACTVP
 70
    64
  9
$PLIMCHECK
 70
     0
  9
$PEXTMIN
 10
1.0000000000000000E+020
 20
1.0000000000000000E+020
 30
1.0000000000000000E+020
  9
$PEXTMAX
 10
-1.0000000000000000E+020
 20
-1.0000000000000000E+020
 30
-1.0000000000000000E+020
  9
$PLIMMIN
 10
0.0
 20
0.0
  9
$PLIMMAX
 10
420.0
 20
297.0
  9
$UNITMODE
 70
     0
  9
$VISRETAIN
 70
     1
  9
$PLINEGEN
 70
     0
  9
$PSLTSCALE
 70
     1
  0
ENDSEC
  0
SECTION
  2
TABLES
  0
TABLE
  2
VPORT
 70
     1
  0
VPORT
  2
*ACTIVE
 70
     0
 10
0.0
 20
0.0
 11
1.0
 21
1.0
 12
486.80449632994151
 22
208.280976734201
 13
0.0
 23
0.0
 14
10.0
 24
10.0
 15
10.0
 25
10.0
 16
0.0
 26
0.0
 36
1.0
 17
0.0
 27
0.0
 37
0.0
 40
426.20182970328028
 41
2.6019575856443709
 42
50.0
 43
0.0
 44
0.0
 50
0.0
 51
0.0
 71
     0
 72
  2000
 73
     1
 74
     3
 75
     0
 76
     0
 77
     0
 78
     0
  0
ENDTAB
  0
TABLE
  2
LTYPE
 70
     2
  0
LTYPE
  2
CONTINUOUS
 70
     0
  3
Solid line
 72
    65
 73
     0
 40
0.0
  0
LTYPE
  2
CENTER
 70
     0
  3
Center ____ _ ____ _ ____ _ ____ _ ____ _ ____
 72
    65
 73
     4
 40
10.16
 49
6.3499999999999988
 49
-1.27
 49
1.27
 49
-1.27
  0
ENDTAB
  0
TABLE
  2
LAYER
 70
     4
  0
LAYER
  2
0
 70
     0
 62
     7
  6
CONTINUOUS
  0
LAYER
  2
DEFPOINTS
 70
     0
 62
     7
  6
CONTINUOUS
  0
LAYER
  2
1
 70
     0
 62
     1
  6
CENTER
  0
LAYER
  2
3
 70
     0
 62
     3
  6
CONTINUOUS
  0
ENDTAB
  0
TABLE
  2
STYLE
 70
     2
  0
STYLE
  2
STANDARD
 70
     0
 40
0.0
 41
1.0
 50
0.0
 71
     0
 42
2.5
  3
txt
  4
bigfont
  0
STYLE
  2
STANDARD1
 70
     0
 40
0.0
 41
1.0
 50
0.0
 71
     0
 42
3.0
  3
txt
  4

  0
ENDTAB
  0
TABLE
  2
VIEW
 70
     0
  0
ENDTAB
  0
TABLE
  2
UCS
 70
     0
  0
ENDTAB
  0
TABLE
  2
APPID
 70
     4
  0
APPID
  2
ACAD
 70
     0
  0
APPID
  2
ACAD_MLEADERVER
 70
     0
  0
APPID
  2
ACAD_NAV_VCDISPLAY
 70
     0
  0
APPID
  2
ACAD_EXEMPT_FROM_CAD_STANDARDS
 70
     0
  0
ENDTAB
  0
TABLE
  2
DIMSTYLE
 70
     2
  0
DIMSTYLE
  2
ISO-25
 70
     0
  3

  4

  5

  6

  7

 40
1.0
 41
2.5
 42
0.625
 43
3.75
 44
1.25
 45
0.0
 46
0.0
 47
0.0
 48
0.0
140
2.5
141
2.5
142
0.0
143
0.03937007874016
144
1.0
145
0.0
146
1.0
147
0.625
 71
     0
 72
     0
 73
     0
 74
     0
 75
     0
 76
     0
 77
     1
 78
     8
170
     0
171
     3
172
     1
173
     0
174
     0
175
     0
176
     0
177
     0
178
     0
  0
DIMSTYLE
  2
STANDARD
 70
     0
  3

  4

  5

  6

  7

 40
1.0
 41
0.18
 42
0.0625
 43
0.38
 44
0.18
 45
0.0
 46
0.0
 47
0.0
 48
0.0
140
0.18
141
0.09
142
0.0
143
25.399999999999999
144
1.0
145
0.0
146
1.0
147
0.09
 71
     0
 72
     0
 73
     1
 74
     1
 75
     0
 76
     0
 77
     0
 78
     0
170
     0
171
     2
172
     0
173
     0
174
     0
175
     0
176
     0
177
     0
178
     0
  0
ENDTAB
  0
ENDSEC
  0
SECTION
  2
BLOCKS
  0
BLOCK
  8
0
  2
$MODEL_SPACE
 70
     0
 10
0.0
 20
0.0
 30
0.0
  3
$MODEL_SPACE
  1

  0
ENDBLK
  5
21
  8
0
  0
BLOCK
 67
     1
  8
0
  2
$PAPER_SPACE
 70
     0
 10
0.0
 20
0.0
 30
0.0
  3
$PAPER_SPACE
  1

  0
ENDBLK
  5
1D
 67
     1
  8
0
  0
ENDSEC
  0
SECTION
  2
ENTITIES
  0
TEXT
  5
6529
  8
0
 62
     3
 10
0.0
 20
0.0
 30
0.0
 40
10.0
  1
AMWSW16R-W-AG
  7
STANDARD1
  0
LINE
  5
6816
  8
0
 10
217.00000017881391
 20
287.50000000000023
 30
0.0
 11
215.99999815225601
 21
288.07735294103639
 31
0.0
  0
LINE
  5
6817
  8
0
 10
210.0000008940697
 20
288.07735294103639
 30
0.0
 11
208.99999886751169
 21
287.50000000000023
 31
0.0
  0
LINE
  5
6818
  8
0
 10
217.00000017881391
 20
252.49999985098859
 30
0.0
 11
217.00000017881391
 21
259.50000286102318
 31
0.0
  0
LINE
  5
6819
  8
0
 10
208.99999886751169
 20
259.50000286102318
 30
0.0
 11
208.99999886751169
 21
252.49999985098859
 31
0.0
  0
ARC
  5
681A
  8
0
 10
213.0
 20
287.50000107288378
 30
0.0
 40
5.0
 50
53.130102354154509
 51
126.8698976458455
  0
LINE
  5
681B
  8
0
 10
215.99999815225601
 20
288.07735294103639
 30
0.0
 11
215.99999815225601
 21
291.50000065565132
 31
0.0
  0
LINE
  5
681C
  8
0
 10
210.0000008940697
 20
291.50000065565132
 30
0.0
 11
210.0000008940697
 21
288.07735294103639
 31
0.0
  0
LINE
  5
681D
  8
0
 10
264.99999966472387
 20
231.00000098347689
 30
0.0
 11
264.99999966472387
 21
287.50000000000023
 31
0.0
  0
LINE
  5
681E
  8
0
 10
235.0000003352761
 20
258.5000008344652
 30
0.0
 11
235.0000003352761
 21
231.00000098347689
 31
0.0
  0
LINE
  5
681F
  8
0
 10
235.0000003352761
 20
287.50000000000023
 30
0.0
 11
235.0000003352761
 21
282.99999833107017
 31
0.0
  0
LINE
  5
6820
  8
0
 10
264.99999966472387
 20
287.50000000000023
 30
0.0
 11
264.00000043213367
 21
288.50000202655809
 31
0.0
  0
LINE
  5
6821
  8
0
 10
235.9999995678663
 20
288.50000202655809
 30
0.0
 11
235.0000003352761
 21
287.50000000000023
 31
0.0
  0
ARC
  5
6822
  8
0
 10
264.5
 20
231.0000010728838
 30
0.0
 40
0.5
 50
270.0
 51
0.0
  0
ARC
  5
6823
  8
0
 10
235.5
 20
231.0000010728838
 30
0.0
 40
0.5
 50
180.0
 51
270.0
  0
ARC
  5
6824
  8
0
 10
228.99999872810611
 20
258.50000054604823
 30
0.0
 40
6.0000012718939164
 50
0.0000050309087774
 51
89.999987854309069
  0
ARC
  5
6825
  8
0
 10
234.5
 20
283.00000107288389
 30
0.0
 40
0.500000000000057
 50
270.0
 51
0.0
  0
LINE
  5
6826
  8
0
 10
204.99999821186071
 20
282.00000375509279
 30
0.0
 11
204.99999821186071
 21
265.0000028312208
 31
0.0
  0
ARC
  5
6827
  8
0
 10
205.50000630864929
 20
281.99999845975577
 30
0.0
 40
0.5000063086558352
 50
90.000722908825196
 51
179.99970056135959
  0
ARC
  5
6828
  8
0
 10
205.50000000000011
 20
265.00000107288378
 30
0.0
 40
0.5
 50
180.0
 51
270.0
  0
LINE
  5
6829
  8
0
 10
264.99500032514328
 20
227.30000074952861
 30
0.0
 11
264.79499973356718
 21
227.50000134110471
 31
0.0
  0
LINE
  5
682A
  8
0
 10
235.20500026643279
 20
227.50000134110471
 30
0.0
 11
235.00499967485669
 21
227.30000074952861
 31
0.0
  0
LINE
  5
682B
  8
0
 10
264.99500032514328
 20
226.50000117719199
 30
0.0
 11
264.99500032514328
 21
227.30000074952861
 31
0.0
  0
LINE
  5
682C
  8
0
 10
235.00499967485669
 20
227.30000074952861
 30
0.0
 11
235.00499967485669
 21
226.50000117719199
 31
0.0
  0
LINE
  5
682D
  8
0
 10
235.9999995678663
 20
207.500000856817
 30
0.0
 11
237.1547007933259
 21
205.500001460314
 31
0.0
  0
LINE
  5
682E
  8
0
 10
262.8452992066741
 20
205.500001460314
 30
0.0
 11
264.00000043213367
 21
207.500000856817
 31
0.0
  0
LINE
  5
682F
  8
0
 10
264.00000043213367
 20
207.500000856817
 30
0.0
 11
264.00000043213367
 21
214.5000010728838
 31
0.0
  0
LINE
  5
6830
  8
0
 10
235.9999995678663
 20
214.5000010728838
 30
0.0
 11
235.9999995678663
 21
207.500000856817
 31
0.0
  0
ARC
  5
6831
  8
0
 10
237.5
 20
229.0000010728838
 30
0.0
 40
1.5
 50
270.0
 51
0.0
  0
ARC
  5
6832
  8
0
 10
262.5
 20
229.0000010728838
 30
0.0
 40
1.5
 50
180.0
 51
270.0
  0
LINE
  5
6833
  8
0
 10
260.9999999403953
 20
229.00000065565129
 30
0.0
 11
260.9999999403953
 21
230.500001832843
 31
0.0
  0
LINE
  5
6834
  8
0
 10
239.00000005960459
 20
230.500001832843
 30
0.0
 11
239.00000005960459
 21
229.00000065565129
 31
0.0
  0
LINE
  5
6835
  8
0
 10
258.00000037997961
 20
288.50000202655809
 30
0.0
 11
258.00000037997961
 21
288.63397836685198
 31
0.0
  0
LINE
  5
6836
  8
0
 10
241.99999962002039
 20
298.49999994039558
 30
0.0
 11
241.99999962002039
 21
288.50000202655809
 31
0.0
  0
LINE
  5
6837
  8
0
 10
242.99999978393319
 20
299.5000019669535
 30
0.0
 11
241.99999962002039
 21
298.49999994039558
 31
0.0
  0
ARC
  5
6838
  8
0
 10
264.49994408641533
 20
226.42946818866579
 30
0.0
 40
0.5000555788850072
 50
359.99724899378418
 51
8.1086270263215638
  0
ARC
  5
6839
  8
0
 10
235.50000575072301
 20
226.42946923086231
 30
0.0
 40
0.5000054160743001
 50
171.8906746355909
 51
180.0028707078408
  0
LINE
  5
683A
  8
0
 10
216.75277501344681
 20
246.99999988079091
 30
0.0
 11
216.75277501344681
 21
252.49999985098859
 31
0.0
  0
LINE
  5
683B
  8
0
 10
209.2472240328789
 20
246.99999988079091
 30
0.0
 11
209.2472240328789
 21
252.49999985098859
 31
0.0
  0
LINE
  5
683E
  8
0
 10
220.5055542290211
 20
246.99999988079091
 30
0.0
 11
220.5055542290211
 21
252.49999985098859
 31
0.0
  0
LINE
  5
6841
  8
0
 10
205.49444481730461
 20
246.99999988079091
 30
0.0
 11
205.49444481730461
 21
252.49999985098859
 31
0.0
  0
LINE
  5
6842
  8
0
 10
220.5055542290211
 20
252.49999985098859
 30
0.0
 11
205.49444481730461
 21
252.49999985098859
 31
0.0
  0
LINE
  5
6843
  8
0
 10
220.5055542290211
 20
246.99999988079099
 30
0.0
 11
205.49444481730461
 21
246.99999988079091
 31
0.0
  0
LINE
  5
6845
  8
0
 10
215.99999815225601
 20
288.07735294103639
 30
0.0
 11
210.00000089406981
 21
288.07735294103639
 31
0.0
  0
LINE
  5
6847
  8
0
 10
215.99999815225601
 20
291.50000065565132
 30
0.0
 11
209.99999944369009
 21
291.50000065565132
 31
0.0
  0
LINE
  5
6848
  8
0
 10
209.2472240328789
 20
264.50000181794189
 30
0.0
 11
209.2472240328789
 21
259.50000286102318
 31
0.0
  0
LINE
  5
6849
  8
0
 10
216.75277501344681
 20
264.50000181794189
 30
0.0
 11
216.75277501344681
 21
259.50000286102318
 31
0.0
  0
LINE
  5
684B
  8
0
 10
209.2472240328789
 20
264.50000181794189
 30
0.0
 11
209.25834402441981
 21
264.50000181794189
 31
0.0
  0
LINE
  5
684C
  8
0
 10
220.5055542290211
 20
264.50000181794189
 30
0.0
 11
220.5055542290211
 21
259.50000286102318
 31
0.0
  0
LINE
  5
684D
  8
0
 10
220.5055542290211
 20
259.50000286102318
 30
0.0
 11
205.49444481730461
 21
259.50000286102318
 31
0.0
  0
LINE
  5
684E
  8
0
 10
205.49444481730461
 20
264.50000181794189
 30
0.0
 11
205.49444481730461
 21
259.50000286102318
 31
0.0
  0
LINE
  5
6850
  8
0
 10
209.2472240328789
 20
264.50000181794189
 30
0.0
 11
209.2416621744633
 21
264.50000181794189
 31
0.0
  0
LINE
  5
6851
  8
0
 10
205.49999922513959
 20
264.50000181794189
 30
0.0
 11
205.49444481730461
 21
264.50000181794189
 31
0.0
  0
LINE
  5
6852
  8
0
 10
209.25834402441981
 20
282.50000476837181
 30
0.0
 11
209.2472240328789
 21
282.50000476837181
 31
0.0
  0
LINE
  5
6853
  8
0
 10
209.2472240328789
 20
287.50000000000023
 30
0.0
 11
209.2472240328789
 21
282.50000476837181
 31
0.0
  0
LINE
  5
6855
  8
0
 10
216.75277501344681
 20
287.50000000000023
 30
0.0
 11
216.75277501344681
 21
282.50000476837181
 31
0.0
  0
LINE
  5
6856
  8
0
 10
220.5055542290211
 20
287.50000000000023
 30
0.0
 11
220.5055542290211
 21
282.50000476837181
 31
0.0
  0
LINE
  5
6857
  8
0
 10
205.4944448173047
 20
287.50000000000023
 30
0.0
 11
220.5055542290211
 21
287.50000000000023
 31
0.0
  0
LINE
  5
6858
  8
0
 10
205.49444481730461
 20
287.50000000000023
 30
0.0
 11
205.49444481730461
 21
282.50000476837181
 31
0.0
  0
LINE
  5
6859
  8
0
 10
205.49444481730461
 20
282.50000476837181
 30
0.0
 11
205.49999922513959
 21
282.50000476837181
 31
0.0
  0
LINE
  5
685A
  8
0
 10
209.2416621744633
 20
282.50000476837181
 30
0.0
 11
209.2472240328789
 21
282.50000476837181
 31
0.0
  0
LINE
  5
6861
  8
0
 10
264.99999966472387
 20
287.50000000000023
 30
0.0
 11
235.00000033527601
 21
287.50000000000023
 31
0.0
  0
LINE
  5
6863
  8
0
 10
235.9999995678663
 20
288.50000202655809
 30
0.0
 11
264.00000043213367
 21
288.50000202655809
 31
0.0
  0
LINE
  5
6865
  8
0
 10
264.49999958276749
 20
230.500001832843
 30
0.0
 11
235.50000041723251
 21
230.500001832843
 31
0.0
  0
LINE
  5
686B
  8
0
 10
205.49444481730461
 20
282.50000476837181
 30
0.0
 11
234.50192236165489
 21
282.50000476837181
 31
0.0
  0
LINE
  5
686D
  8
0
 10
229.00000013608869
 20
264.50000181794189
 30
0.0
 11
205.4944448173045
 21
264.50000181794189
 31
0.0
  0
LINE
  5
6870
  8
0
 10
235.0000003352761
 20
226.0000010952356
 30
0.0
 11
235.0000003352761
 21
215.0000010966325
 31
0.0
  0
LINE
  5
6872
  8
0
 10
264.99999966472387
 20
226.0000010952356
 30
0.0
 11
264.99999966472387
 21
215.0000010966325
 31
0.0
  0
LINE
  5
6873
  8
0
 10
264.99999966472387
 20
215.0000010966325
 30
0.0
 11
264.49999958276749
 21
214.5000010728838
 31
0.0
  0
LINE
  5
6874
  8
0
 10
264.49999958276749
 20
214.5000010728838
 30
0.0
 11
235.50000041723251
 21
214.5000010728838
 31
0.0
  0
LINE
  5
6875
  8
0
 10
235.0000003352761
 20
215.0000010966325
 30
0.0
 11
235.50000041723251
 21
214.5000010728838
 31
0.0
  0
ARC
  5
6876
  8
0
 10
235.5
 20
226.0000010728838
 30
0.0
 40
0.5
 50
90.0
 51
180.0
  0
LINE
  5
6877
  8
0
 10
235.00499967485669
 20
226.50000117719199
 30
0.0
 11
264.99500032514351
 21
226.50000117719199
 31
0.0
  0
ARC
  5
6878
  8
0
 10
264.5
 20
226.0000010728838
 30
0.0
 40
0.5
 50
0.0
 51
90.0
  0
LINE
  5
687C
  8
0
 10
235.20500026643279
 20
227.50000134110471
 30
0.0
 11
264.79499973356741
 21
227.50000134110471
 31
0.0
  0
LINE
  5
687F
  8
0
 10
262.8452992066741
 20
205.500001460314
 30
0.0
 11
237.1547007933259
 21
205.500001460314
 31
0.0
  0
LINE
  5
6880
  8
0
 10
235.9999995678663
 20
207.500000856817
 30
0.0
 11
264.00000043213367
 21
207.500000856817
 31
0.0
  0
LINE
  5
6881
  8
0
 10
256.50000013411039
 20
289.50000405311607
 30
0.0
 11
256.50000013411039
 21
299.5000019669535
 31
0.0
  0
LINE
  5
6883
  8
0
 10
256.50000013411039
 20
298.49999994039558
 30
0.0
 11
241.99999962002039
 21
298.49999994039558
 31
0.0
  0
LINE
  5
6884
  8
0
 10
242.99999978393319
 20
299.5000019669535
 30
0.0
 11
256.50000013411039
 21
299.5000019669535
 31
0.0
  0
LINE
  5
6886
  8
0
 10
264.99999966472382
 20
226.42944417607561
 30
0.0
 11
264.99999966472387
 21
226.0000010952356
 31
0.0
  0
LINE
  5
6887
  8
0
 10
235.0000003352761
 20
226.0000010952356
 30
0.0
 11
235.0000003352761
 21
226.42873078584691
 31
0.0
  0
LINE
  5
6890
  8
0
 10
414.99999966472382
 20
269.60000246756363
 30
0.0
 11
414.99999966472382
 21
287.50000000000023
 31
0.0
  0
LINE
  5
6891
  8
0
 10
414.99999966472382
 20
231.00000098347689
 30
0.0
 11
414.99999966472382
 21
261.9000010729539
 31
0.0
  0
LINE
  5
6892
  8
0
 10
385.0000003352763
 20
261.90000107295361
 30
0.0
 11
385.00000033527613
 21
231.00000098347689
 31
0.0
  0
LINE
  5
6893
  8
0
 10
385.00000033527613
 20
287.50000000000023
 30
0.0
 11
385.00000033527613
 21
269.6000024678296
 31
0.0
  0
ARC
  5
6894
  8
0
 10
414.5
 20
231.0000010728838
 30
0.0
 40
0.5
 50
270.0
 51
0.0
  0
ARC
  5
6895
  8
0
 10
385.5
 20
231.0000010728838
 30
0.0
 40
0.5
 50
180.0
 51
270.0
  0
LINE
  5
6896
  8
0
 10
414.99999966472382
 20
287.50000000000023
 30
0.0
 11
414.00000043213362
 21
288.50000202655809
 31
0.0
  0
LINE
  5
6897
  8
0
 10
385.99999956786633
 20
288.50000202655809
 30
0.0
 11
385.00000033527613
 21
287.50000000000023
 31
0.0
  0
ARC
  5
6898
  8
0
 10
432.0
 20
226.0000010728838
 30
0.0
 40
0.500000000000057
 50
0.0
 51
90.0
  0
LINE
  5
6899
  8
0
 10
432.4999988079071
 20
215.0000010966325
 30
0.0
 11
432.4999988079071
 21
226.0000010952356
 31
0.0
  0
LINE
  5
689A
  8
0
 10
432.00000151991838
 20
214.5000010728838
 30
0.0
 11
432.4999988079071
 21
215.0000010966325
 31
0.0
  0
LINE
  5
689B
  8
0
 10
367.5000011920929
 20
226.0000010952356
 30
0.0
 11
367.5000011920929
 21
215.0000010966325
 31
0.0
  0
LINE
  5
689C
  8
0
 10
367.5000011920929
 20
215.0000010966325
 30
0.0
 11
367.99999848008162
 21
214.5000010728838
 31
0.0
  0
ARC
  5
689D
  8
0
 10
368.0
 20
226.0000010728838
 30
0.0
 40
0.500000000000057
 50
90.0
 51
180.0
  0
LINE
  5
689E
  8
0
 10
414.99500032514328
 20
227.30000074952861
 30
0.0
 11
414.79499973356718
 21
227.50000134110471
 31
0.0
  0
LINE
  5
689F
  8
0
 10
385.20500026643271
 20
227.50000134110471
 30
0.0
 11
385.00499967485661
 21
227.30000074952861
 31
0.0
  0
LINE
  5
68A0
  8
0
 10
414.99500032514328
 20
226.50000117719199
 30
0.0
 11
414.99500032514328
 21
227.30000074952861
 31
0.0
  0
LINE
  5
68A1
  8
0
 10
385.00499967485661
 20
227.30000074952861
 30
0.0
 11
385.00499967485661
 21
226.50000117719199
 31
0.0
  0
LINE
  5
68A2
  8
0
 10
385.99999956786633
 20
207.500000856817
 30
0.0
 11
387.1547007933259
 21
205.500001460314
 31
0.0
  0
LINE
  5
68A3
  8
0
 10
412.84529920667399
 20
205.500001460314
 30
0.0
 11
414.00000043213362
 21
207.500000856817
 31
0.0
  0
LINE
  5
68A4
  8
0
 10
414.00000043213362
 20
207.500000856817
 30
0.0
 11
414.00000043213362
 21
214.5000010728838
 31
0.0
  0
LINE
  5
68A5
  8
0
 10
385.99999956786633
 20
214.5000010728838
 30
0.0
 11
385.99999956786633
 21
207.500000856817
 31
0.0
  0
ARC
  5
68A6
  8
0
 10
387.5
 20
229.0000010728838
 30
0.0
 40
1.5
 50
270.0
 51
0.0
  0
ARC
  5
68A7
  8
0
 10
412.5
 20
229.0000010728838
 30
0.0
 40
1.5
 50
180.0
 51
270.0
  0
LINE
  5
68A8
  8
0
 10
410.9999999403953
 20
229.00000065565129
 30
0.0
 11
410.9999999403953
 21
230.500001832843
 31
0.0
  0
LINE
  5
68A9
  8
0
 10
389.00000005960459
 20
230.500001832843
 30
0.0
 11
389.00000005960459
 21
229.00000065565129
 31
0.0
  0
LINE
  5
68AA
  8
0
 10
408.00000037997961
 20
288.50000202655809
 30
0.0
 11
408.00000037997961
 21
298.49999994039558
 31
0.0
  0
LINE
  5
68AB
  8
0
 10
391.99999962002039
 20
298.49999994039558
 30
0.0
 11
391.99999962002039
 21
288.50000202655809
 31
0.0
  0
LINE
  5
68AC
  8
0
 10
408.00000037997961
 20
298.49999994039558
 30
0.0
 11
407.00000021606678
 21
299.5000019669535
 31
0.0
  0
LINE
  5
68AD
  8
0
 10
392.99999978393311
 20
299.5000019669535
 30
0.0
 11
391.99999962002039
 21
298.49999994039558
 31
0.0
  0
LINE
  5
68BE
  8
0
 10
414.99999966472382
 20
287.50000000000023
 30
0.0
 11
385.00000033527613
 21
287.50000000000023
 31
0.0
  0
LINE
  5
68BF
  8
0
 10
414.49999958276737
 20
230.500001832843
 30
0.0
 11
385.50000041723251
 21
230.500001832843
 31
0.0
  0
LINE
  5
68C0
  8
0
 10
385.99999956786633
 20
288.50000202655809
 30
0.0
 11
414.00000043213362
 21
288.50000202655809
 31
0.0
  0
CIRCLE
  5
68D0
  8
0
 10
390.00000000000028
 20
220.5000010728842
 30
0.0
 40
2.6499999999999768
  0
CIRCLE
  5
68D1
  8
0
 10
390.00000000000028
 20
220.5000010728842
 30
0.0
 40
2.099999999999965
  0
LINE
  5
68D7
  8
0
 10
432.00000151991873
 20
214.5000010728838
 30
0.0
 11
367.99999848008162
 21
214.5000010728838
 31
0.0
  0
LINE
  5
68DA
  8
0
 10
385.20500026643271
 20
227.50000134110471
 30
0.0
 11
414.79499973356718
 21
227.50000134110471
 31
0.0
  0
LINE
  5
68DB
  8
0
 10
412.84529920667399
 20
205.500001460314
 30
0.0
 11
387.1547007933259
 21
205.500001460314
 31
0.0
  0
LINE
  5
68DC
  8
0
 10
385.99999956786633
 20
207.500000856817
 30
0.0
 11
414.00000043213362
 21
207.500000856817
 31
0.0
  0
CIRCLE
  5
68DD
  8
0
 10
390.00000000000028
 20
220.5000010728842
 30
0.0
 40
0.75
  0
LINE
  5
68DE
  8
0
 10
395.33631047233939
 20
289.50000405311607
 30
0.0
 11
395.33631047233939
 21
298.49999994039558
 31
0.0
  0
POLYLINE
  5
68DF
  8
0
 10
395.33631047345563
 20
289.50000107288383
 30
0.0
 66
     1
 70
     8
  0
VERTEX
  8
0
  5
80D9
 10
395.336
 20
289.500
 30
0.000000
  70
    32
  0
VERTEX
  8
0
  5
80DA
 10
395.400
 20
289.474
 30
0.000000
  70
    32
  0
VERTEX
  8
0
  5
80DB
 10
395.464
 20
289.448
 30
0.000000
  70
    32
  0
VERTEX
  8
0
  5
80DC
 10
395.528
 20
289.423
 30
0.000000
  70
    32
  0
VERTEX
  8
0
  5
80DD
 10
395.593
 20
289.398
 30
0.000000
  70
    32
  0
VERTEX
  8
0
  5
80DE
 10
395.658
 20
289.374
 30
0.000000
  70
    32
  0
VERTEX
  8
0
  5
80DF
 10
395.723
 20
289.349
 30
0.000000
  70
    32
  0
VERTEX
  8
0
  5
80E0
 10
395.789
 20
289.326
 30
0.000000
  70
    32
  0
VERTEX
  8
0
  5
80E1
 10
395.856
 20
289.302
 30
0.000000
  70
    32
  0
VERTEX
  8
0
  5
80E2
 10
395.922
 20
289.279
 30
0.000000
  70
    32
  0
VERTEX
  8
0
  5
80E3
 10
395.989
 20
289.256
 30
0.000000
  70
    32
  0
VERTEX
  8
0
  5
80E4
 10
396.057
 20
289.234
 30
0.000000
  70
    32
  0
VERTEX
  8
0
  5
80E5
 10
396.125
 20
289.212
 30
0.000000
  70
    32
  0
VERTEX
  8
0
  5
80E6
 10
396.193
 20
289.190
 30
0.000000
  70
    32
  0
VERTEX
  8
0
  5
80E7
 10
396.262
 20
289.169
 30
0.000000
  70
    32
  0
VERTEX
  8
0
  5
80E8
 10
396.331
 20
289.148
 30
0.000000
  70
    32
  0
VERTEX
  8
0
  5
80E9
 10
396.400
 20
289.128
 30
0.000000
  70
    32
  0
VERTEX
  8
0
  5
80EA
 10
396.470
 20
289.108
 30
0.000000
  70
    32
  0
VERTEX
  8
0
  5
80EB
 10
396.540
 20
289.088
 30
0.000000
  70
    32
  0
VERTEX
  8
0
  5
80EC
 10
396.610
 20
289.069
 30
0.000000
  70
    32
  0
VERTEX
  8
0
  5
80ED
 10
396.680
 20
289.050
 30
0.000000
  70
    32
  0
VERTEX
  8
0
  5
80EE
 10
396.751
 20
289.032
 30
0.000000
  70
    32
  0
VERTEX
  8
0
  5
80EF
 10
396.823
 20
289.014
 30
0.000000
  70
    32
  0
VERTEX
  8
0
  5
80F0
 10
396.894
 20
288.996
 30
0.000000
  70
    32
  0
VERTEX
  8
0
  5
80F1
 10
396.966
 20
288.979
 30
0.000000
  70
    32
  0
VERTEX
  8
0
  5
80F2
 10
397.038
 20
288.962
 30
0.000000
  70
    32
  0
VERTEX
  8
0
  5
80F3
 10
397.111
 20
288.946
 30
0.000000
  70
    32
  0
VERTEX
  8
0
  5
80F4
 10
397.183
 20
288.930
 30
0.000000
  70
    32
  0
VERTEX
  8
0
  5
80F5
 10
397.256
 20
288.914
 30
0.000000
  70
    32
  0
VERTEX
  8
0
  5
80F6
 10
397.329
 20
288.899
 30
0.000000
  70
    32
  0
VERTEX
  8
0
  5
80F7
 10
397.403
 20
288.884
 30
0.000000
  70
    32
  0
VERTEX
  8
0
  5
80F8
 10
397.477
 20
288.870
 30
0.000000
  70
    32
  0
VERTEX
  8
0
  5
80F9
 10
397.551
 20
288.856
 30
0.000000
  70
    32
  0
VERTEX
  8
0
  5
80FA
 10
397.625
 20
288.842
 30
0.000000
  70
    32
  0
VERTEX
  8
0
  5
80FB
 10
397.699
 20
288.829
 30
0.000000
  70
    32
  0
VERTEX
  8
0
  5
80FC
 10
397.774
 20
288.816
 30
0.000000
  70
    32
  0
VERTEX
  8
0
  5
80FD
 10
397.849
 20
288.804
 30
0.000000
  70
    32
  0
VERTEX
  8
0
  5
80FE
 10
397.924
 20
288.792
 30
0.000000
  70
    32
  0
VERTEX
  8
0
  5
80FF
 10
397.999
 20
288.781
 30
0.000000
  70
    32
  0
VERTEX
  8
0
  5
8100
 10
398.074
 20
288.770
 30
0.000000
  70
    32
  0
VERTEX
  8
0
  5
8101
 10
398.150
 20
288.759
 30
0.000000
  70
    32
  0
VERTEX
  8
0
  5
8102
 10
398.226
 20
288.749
 30
0.000000
  70
    32
  0
VERTEX
  8
0
  5
8103
 10
398.302
 20
288.739
 30
0.000000
  70
    32
  0
VERTEX
  8
0
  5
8104
 10
398.378
 20
288.730
 30
0.000000
  70
    32
  0
VERTEX
  8
0
  5
8105
 10
398.454
 20
288.721
 30
0.000000
  70
    32
  0
VERTEX
  8
0
  5
8106
 10
398.530
 20
288.713
 30
0.000000
  70
    32
  0
VERTEX
  8
0
  5
8107
 10
398.607
 20
288.705
 30
0.000000
  70
    32
  0
VERTEX
  8
0
  5
8108
 10
398.683
 20
288.697
 30
0.000000
  70
    32
  0
VERTEX
  8
0
  5
8109
 10
398.760
 20
288.690
 30
0.000000
  70
    32
  0
VERTEX
  8
0
  5
810A
 10
398.837
 20
288.683
 30
0.000000
  70
    32
  0
VERTEX
  8
0
  5
810B
 10
398.914
 20
288.677
 30
0.000000
  70
    32
  0
VERTEX
  8
0
  5
810C
 10
398.991
 20
288.671
 30
0.000000
  70
    32
  0
VERTEX
  8
0
  5
810D
 10
399.069
 20
288.665
 30
0.000000
  70
    32
  0
VERTEX
  8
0
  5
810E
 10
399.146
 20
288.660
 30
0.000000
  70
    32
  0
VERTEX
  8
0
  5
810F
 10
399.223
 20
288.656
 30
0.000000
  70
    32
  0
VERTEX
  8
0
  5
8110
 10
399.301
 20
288.652
 30
0.000000
  70
    32
  0
VERTEX
  8
0
  5
8111
 10
399.378
 20
288.648
 30
0.000000
  70
    32
  0
VERTEX
  8
0
  5
8112
 10
399.456
 20
288.645
 30
0.000000
  70
    32
  0
VERTEX
  8
0
  5
8113
 10
399.533
 20
288.642
 30
0.000000
  70
    32
  0
VERTEX
  8
0
  5
8114
 10
399.611
 20
288.639
 30
0.000000
  70
    32
  0
VERTEX
  8
0
  5
8115
 10
399.689
 20
288.637
 30
0.000000
  70
    32
  0
VERTEX
  8
0
  5
8116
 10
399.767
 20
288.636
 30
0.000000
  70
    32
  0
VERTEX
  8
0
  5
8117
 10
399.844
 20
288.635
 30
0.000000
  70
    32
  0
VERTEX
  8
0
  5
8118
 10
399.922
 20
288.634
 30
0.000000
  70
    32
  0
VERTEX
  8
0
  5
8119
 10
400.000
 20
288.634
 30
0.000000
  70
    32
  0
VERTEX
  8
0
  5
811A
 10
400.078
 20
288.634
 30
0.000000
  70
    32
  0
VERTEX
  8
0
  5
811B
 10
400.156
 20
288.635
 30
0.000000
  70
    32
  0
VERTEX
  8
0
  5
811C
 10
400.233
 20
288.636
 30
0.000000
  70
    32
  0
VERTEX
  8
0
  5
811D
 10
400.311
 20
288.637
 30
0.000000
  70
    32
  0
VERTEX
  8
0
  5
811E
 10
400.389
 20
288.639
 30
0.000000
  70
    32
  0
VERTEX
  8
0
  5
811F
 10
400.467
 20
288.642
 30
0.000000
  70
    32
  0
VERTEX
  8
0
  5
8120
 10
400.544
 20
288.645
 30
0.000000
  70
    32
  0
VERTEX
  8
0
  5
8121
 10
400.622
 20
288.648
 30
0.000000
  70
    32
  0
VERTEX
  8
0
  5
8122
 10
400.699
 20
288.652
 30
0.000000
  70
    32
  0
VERTEX
  8
0
  5
8123
 10
400.777
 20
288.656
 30
0.000000
  70
    32
  0
VERTEX
  8
0
  5
8124
 10
400.854
 20
288.660
 30
0.000000
  70
    32
  0
VERTEX
  8
0
  5
8125
 10
400.931
 20
288.665
 30
0.000000
  70
    32
  0
VERTEX
  8
0
  5
8126
 10
401.009
 20
288.671
 30
0.000000
  70
    32
  0
VERTEX
  8
0
  5
8127
 10
401.086
 20
288.677
 30
0.000000
  70
    32
  0
VERTEX
  8
0
  5
8128
 10
401.163
 20
288.683
 30
0.000000
  70
    32
  0
VERTEX
  8
0
  5
8129
 10
401.240
 20
288.690
 30
0.000000
  70
    32
  0
VERTEX
  8
0
  5
812A
 10
401.317
 20
288.697
 30
0.000000
  70
    32
  0
VERTEX
  8
0
  5
812B
 10
401.393
 20
288.705
 30
0.000000
  70
    32
  0
VERTEX
  8
0
  5
812C
 10
401.470
 20
288.713
 30
0.000000
  70
    32
  0
VERTEX
  8
0
  5
812D
 10
401.546
 20
288.721
 30
0.000000
  70
    32
  0
VERTEX
  8
0
  5
812E
 10
401.622
 20
288.730
 30
0.000000
  70
    32
  0
VERTEX
  8
0
  5
812F
 10
401.698
 20
288.739
 30
0.000000
  70
    32
  0
VERTEX
  8
0
  5
8130
 10
401.774
 20
288.749
 30
0.000000
  70
    32
  0
VERTEX
  8
0
  5
8131
 10
401.850
 20
288.759
 30
0.000000
  70
    32
  0
VERTEX
  8
0
  5
8132
 10
401.926
 20
288.770
 30
0.000000
  70
    32
  0
VERTEX
  8
0
  5
8133
 10
402.001
 20
288.781
 30
0.000000
  70
    32
  0
VERTEX
  8
0
  5
8134
 10
402.076
 20
288.792
 30
0.000000
  70
    32
  0
VERTEX
  8
0
  5
8135
 10
402.151
 20
288.804
 30
0.000000
  70
    32
  0
VERTEX
  8
0
  5
8136
 10
402.226
 20
288.816
 30
0.000000
  70
    32
  0
VERTEX
  8
0
  5
8137
 10
402.301
 20
288.829
 30
0.000000
  70
    32
  0
VERTEX
  8
0
  5
8138
 10
402.375
 20
288.842
 30
0.000000
  70
    32
  0
VERTEX
  8
0
  5
8139
 10
402.449
 20
288.856
 30
0.000000
  70
    32
  0
VERTEX
  8
0
  5
813A
 10
402.523
 20
288.870
 30
0.000000
  70
    32
  0
VERTEX
  8
0
  5
813B
 10
402.597
 20
288.884
 30
0.000000
  70
    32
  0
VERTEX
  8
0
  5
813C
 10
402.671
 20
288.899
 30
0.000000
  70
    32
  0
VERTEX
  8
0
  5
813D
 10
402.744
 20
288.914
 30
0.000000
  70
    32
  0
VERTEX
  8
0
  5
813E
 10
402.817
 20
288.930
 30
0.000000
  70
    32
  0
VERTEX
  8
0
  5
813F
 10
402.889
 20
288.946
 30
0.000000
  70
    32
  0
VERTEX
  8
0
  5
8140
 10
402.962
 20
288.962
 30
0.000000
  70
    32
  0
VERTEX
  8
0
  5
8141
 10
403.034
 20
288.979
 30
0.000000
  70
    32
  0
VERTEX
  8
0
  5
8142
 10
403.106
 20
288.996
 30
0.000000
  70
    32
  0
VERTEX
  8
0
  5
8143
 10
403.177
 20
289.014
 30
0.000000
  70
    32
  0
VERTEX
  8
0
  5
8144
 10
403.249
 20
289.032
 30
0.000000
  70
    32
  0
VERTEX
  8
0
  5
8145
 10
403.320
 20
289.050
 30
0.000000
  70
    32
  0
VERTEX
  8
0
  5
8146
 10
403.390
 20
289.069
 30
0.000000
  70
    32
  0
VERTEX
  8
0
  5
8147
 10
403.460
 20
289.088
 30
0.000000
  70
    32
  0
VERTEX
  8
0
  5
8148
 10
403.530
 20
289.108
 30
0.000000
  70
    32
  0
VERTEX
  8
0
  5
8149
 10
403.600
 20
289.128
 30
0.000000
  70
    32
  0
VERTEX
  8
0
  5
814A
 10
403.669
 20
289.148
 30
0.000000
  70
    32
  0
VERTEX
  8
0
  5
814B
 10
403.738
 20
289.169
 30
0.000000
  70
    32
  0
VERTEX
  8
0
  5
814C
 10
403.807
 20
289.190
 30
0.000000
  70
    32
  0
VERTEX
  8
0
  5
814D
 10
403.875
 20
289.212
 30
0.000000
  70
    32
  0
VERTEX
  8
0
  5
814E
 10
403.943
 20
289.234
 30
0.000000
  70
    32
  0
VERTEX
  8
0
  5
814F
 10
404.011
 20
289.256
 30
0.000000
  70
    32
  0
VERTEX
  8
0
  5
8150
 10
404.078
 20
289.279
 30
0.000000
  70
    32
  0
VERTEX
  8
0
  5
8151
 10
404.144
 20
289.302
 30
0.000000
  70
    32
  0
VERTEX
  8
0
  5
8152
 10
404.211
 20
289.326
 30
0.000000
  70
    32
  0
VERTEX
  8
0
  5
8153
 10
404.277
 20
289.349
 30
0.000000
  70
    32
  0
VERTEX
  8
0
  5
8154
 10
404.342
 20
289.374
 30
0.000000
  70
    32
  0
VERTEX
  8
0
  5
8155
 10
404.407
 20
289.398
 30
0.000000
  70
    32
  0
VERTEX
  8
0
  5
8156
 10
404.472
 20
289.423
 30
0.000000
  70
    32
  0
VERTEX
  8
0
  5
8157
 10
404.536
 20
289.448
 30
0.000000
  70
    32
  0
VERTEX
  8
0
  5
8158
 10
404.600
 20
289.474
 30
0.000000
  70
    32
  0
VERTEX
  8
0
  5
8159
 10
404.664
 20
289.500
 30
0.000000
  70
    32
  0
SEQEND
  8
0
  5
815A
  0
LINE
  5
68E0
  8
0
 10
404.66368952766061
 20
298.49999994039558
 30
0.0
 11
404.66368952766061
 21
289.50000405311607
 31
0.0
  0
LINE
  5
68E1
  8
0
 10
395.33631047233939
 20
298.49999994039558
 30
0.0
 11
391.99999962002039
 21
298.49999994039558
 31
0.0
  0
LINE
  5
68E2
  8
0
 10
408.00000037997961
 20
298.49999994039558
 30
0.0
 11
404.66368952766061
 21
298.49999994039558
 31
0.0
  0
LINE
  5
68E3
  8
0
 10
404.66368952766061
 20
289.50000405311607
 30
0.0
 11
395.33631047233939
 21
289.50000405311607
 31
0.0
  0
LINE
  5
68E6
  8
0
 10
392.99999978393311
 20
299.5000019669535
 30
0.0
 11
407.00000021606661
 21
299.5000019669535
 31
0.0
  0
LINE
  5
68E7
  8
0
 10
395.33631047233939
 20
298.49999994039558
 30
0.0
 11
397.4019238725304
 21
299.5000019669535
 31
0.0
  0
CIRCLE
  5
68E8
  8
0
 10
400.0
 20
295.50000107288378
 30
0.0
 40
2.6499999999999768
  0
CIRCLE
  5
68EA
  8
0
 10
400.0
 20
295.50000107288378
 30
0.0
 40
2.099999999999965
  0
LINE
  5
68EF
  8
0
 10
104.0000001899899
 20
287.50000000000023
 30
0.0
 11
103.0000000260771
 21
288.07735294103639
 31
0.0
  0
LINE
  5
68F0
  8
0
 10
96.999999973923096
 20
288.07735294103639
 30
0.0
 11
95.999999810010308
 21
287.50000000000023
 31
0.0
  0
LINE
  5
68F1
  8
0
 10
104.0000001899899
 20
252.49999985098859
 30
0.0
 11
104.0000001899899
 21
259.50000286102318
 31
0.0
  0
LINE
  5
68F2
  8
0
 10
95.999999810010308
 20
259.50000286102318
 30
0.0
 11
95.999999810010308
 21
252.49999985098859
 31
0.0
  0
LINE
  5
68F3
  8
0
 10
103.0000000260771
 20
288.07735294103639
 30
0.0
 11
103.0000000260771
 21
291.50000065565132
 31
0.0
  0
LINE
  5
68F4
  8
0
 10
96.999999973923096
 20
291.50000065565132
 30
0.0
 11
96.999999973923096
 21
288.07735294103639
 31
0.0
  0
ARC
  5
68F5
  8
0
 10
99.999999999999886
 20
287.50000107288378
 30
0.0
 40
5.0
 50
53.130102354154509
 51
126.8698976458455
  0
ARC
  5
68F8
  8
0
 10
114.5
 20
231.0000010728838
 30
0.0
 40
0.5
 50
270.0
 51
0.0
  0
ARC
  5
68F9
  8
0
 10
85.5
 20
231.0000010728838
 30
0.0
 40
0.5
 50
180.0
 51
270.0
  0
LINE
  5
68FA
  8
0
 10
114.9999996647239
 20
269.6000024678292
 30
0.0
 11
114.9999996647238
 21
287.50000000000023
 31
0.0
  0
LINE
  5
68FB
  8
0
 10
114.9999996647238
 20
231.00000098347689
 30
0.0
 11
114.9999996647238
 21
261.90000107295339
 31
0.0
  0
LINE
  5
68FC
  8
0
 10
85.000000335276127
 20
261.90000107295361
 30
0.0
 11
85.000000335276127
 21
231.00000098347689
 31
0.0
  0
LINE
  5
68FD
  8
0
 10
85.000000335276127
 20
287.50000000000023
 30
0.0
 11
85.000000335276098
 21
269.60000246756408
 31
0.0
  0
LINE
  5
68FE
  8
0
 10
114.9999996647238
 20
287.50000000000023
 30
0.0
 11
114.0000004321336
 21
288.50000202655809
 31
0.0
  0
LINE
  5
68FF
  8
0
 10
85.999999567866325
 20
288.50000202655809
 30
0.0
 11
85.000000335276127
 21
287.50000000000023
 31
0.0
  0
LINE
  5
6900
  8
0
 10
67.500001192092896
 20
215.0000010966325
 30
0.0
 11
67.999998480081544
 21
214.5000010728838
 31
0.0
  0
ARC
  5
6901
  8
0
 10
68.0
 20
226.0000010728838
 30
0.0
 40
0.5
 50
90.0
 51
180.0
  0
LINE
  5
6902
  8
0
 10
67.500001192092896
 20
226.0000010952356
 30
0.0
 11
67.500001192092896
 21
215.0000010966325
 31
0.0
  0
LINE
  5
6903
  8
0
 10
132.00000151991841
 20
214.5000010728838
 30
0.0
 11
132.4999988079071
 21
215.0000010966325
 31
0.0
  0
ARC
  5
6904
  8
0
 10
132.0
 20
226.0000010728838
 30
0.0
 40
0.5
 50
0.0
 51
90.0
  0
LINE
  5
6905
  8
0
 10
132.4999988079071
 20
215.0000010966325
 30
0.0
 11
132.4999988079071
 21
226.0000010952356
 31
0.0
  0
LINE
  5
6906
  8
0
 10
114.99500032514329
 20
227.30000074952861
 30
0.0
 11
114.7949997335672
 21
227.50000134110471
 31
0.0
  0
LINE
  5
6907
  8
0
 10
85.205000266432762
 20
227.50000134110471
 30
0.0
 11
85.004999674856663
 21
227.30000074952861
 31
0.0
  0
LINE
  5
6908
  8
0
 10
114.99500032514329
 20
226.50000117719199
 30
0.0
 11
114.99500032514329
 21
227.30000074952861
 31
0.0
  0
LINE
  5
6909
  8
0
 10
85.004999674856663
 20
227.30000074952861
 30
0.0
 11
85.004999674856663
 21
226.50000117719199
 31
0.0
  0
LINE
  5
690A
  8
0
 10
85.999999567866325
 20
207.500000856817
 30
0.0
 11
87.154700793325901
 21
205.500001460314
 31
0.0
  0
LINE
  5
690B
  8
0
 10
112.8452992066741
 20
205.500001460314
 30
0.0
 11
114.0000004321336
 21
207.500000856817
 31
0.0
  0
LINE
  5
690C
  8
0
 10
114.0000004321336
 20
207.500000856817
 30
0.0
 11
114.0000004321336
 21
214.5000010728838
 31
0.0
  0
LINE
  5
690D
  8
0
 10
85.999999567866325
 20
214.5000010728838
 30
0.0
 11
85.999999567866325
 21
207.500000856817
 31
0.0
  0
ARC
  5
690E
  8
0
 10
87.5
 20
229.0000010728838
 30
0.0
 40
1.5
 50
270.0
 51
0.0
  0
ARC
  5
690F
  8
0
 10
112.5
 20
229.0000010728838
 30
0.0
 40
1.5
 50
180.0
 51
270.0
  0
LINE
  5
6910
  8
0
 10
110.9999999403953
 20
229.00000065565129
 30
0.0
 11
110.9999999403953
 21
230.500001832843
 31
0.0
  0
LINE
  5
6911
  8
0
 10
89.000000059604645
 20
230.500001832843
 30
0.0
 11
89.000000059604645
 21
229.00000065565129
 31
0.0
  0
LINE
  5
6912
  8
0
 10
108.0000003799796
 20
298.49999994039558
 30
0.0
 11
107.00000021606679
 21
299.5000019669535
 31
0.0
  0
LINE
  5
6913
  8
0
 10
92.999999783933163
 20
299.5000019669535
 30
0.0
 11
91.999999620020375
 21
298.49999994039558
 31
0.0
  0
LINE
  5
6914
  8
0
 10
108.0000003799796
 20
288.50000202655809
 30
0.0
 11
108.0000003799796
 21
298.49999994039558
 31
0.0
  0
LINE
  5
6915
  8
0
 10
91.999999620020375
 20
298.49999994039558
 30
0.0
 11
91.999999620020375
 21
288.50000202655809
 31
0.0
  0
LINE
  5
696D
  8
0
 10
106.50000013411049
 20
246.99999988079091
 30
0.0
 11
106.50000013411049
 21
252.49999985098859
 31
0.0
  0
LINE
  5
696E
  8
0
 10
106.50000013411049
 20
246.99999988079091
 30
0.0
 11
93.499999865889777
 21
246.99999988079099
 31
0.0
  0
LINE
  5
696F
  8
0
 10
99.999999999999886
 20
246.99999988079091
 30
0.0
 11
99.999999999999886
 21
252.49999985098859
 31
0.0
  0
LINE
  5
6970
  8
0
 10
106.50000013411049
 20
252.49999985098859
 30
0.0
 11
93.499999865889777
 21
252.49999985098859
 31
0.0
  0
LINE
  5
6971
  8
0
 10
93.499999865889663
 20
246.99999988079091
 30
0.0
 11
93.499999865889663
 21
252.49999985098859
 31
0.0
  0
LINE
  5
6974
  8
0
 10
103.0000000260771
 20
288.07735294103639
 30
0.0
 11
96.999999973923096
 21
288.07735294103639
 31
0.0
  0
LINE
  5
6976
  8
0
 10
103.0000000260772
 20
291.50000065565132
 30
0.0
 11
96.999999973923096
 21
291.50000065565132
 31
0.0
  0
LINE
  5
6978
  8
0
 10
99.999999999999886
 20
264.50000181794189
 30
0.0
 11
99.999999999999886
 21
259.50000286102318
 31
0.0
  0
LINE
  5
6979
  8
0
 10
106.50000013411049
 20
264.50000181794189
 30
0.0
 11
106.50000013411049
 21
259.50000286102318
 31
0.0
  0
LINE
  5
697A
  8
0
 10
106.50000013411049
 20
264.50000181794189
 30
0.0
 11
106.490370258689
 21
264.50000181794189
 31
0.0
  0
LINE
  5
697B
  8
0
 10
100.0096296507764
 20
264.50000181794189
 30
0.0
 11
99.999999999999886
 21
264.50000181794189
 31
0.0
  0
LINE
  5
697D
  8
0
 10
93.499999865889663
 20
264.50000181794189
 30
0.0
 11
93.499999865889663
 21
259.50000286102318
 31
0.0
  0
LINE
  5
697E
  8
0
 10
93.499999865889663
 20
264.50000181794189
 30
0.0
 11
93.509629741311187
 21
264.50000181794189
 31
0.0
  0
LINE
  5
697F
  8
0
 10
99.990370349223795
 20
264.50000181794189
 30
0.0
 11
99.999999999999886
 21
264.50000181794189
 31
0.0
  0
LINE
  5
6980
  8
0
 10
93.499999865889663
 20
259.50000286102318
 30
0.0
 11
106.50000013411049
 21
259.50000286102318
 31
0.0
  0
LINE
  5
6982
  8
0
 10
99.990370349223795
 20
282.50000476837181
 30
0.0
 11
99.999999999999886
 21
282.50000476837181
 31
0.0
  0
LINE
  5
6983
  8
0
 10
93.499999865889663
 20
287.50000000000023
 30
0.0
 11
93.499999865889663
 21
282.50000476837181
 31
0.0
  0
LINE
  5
6984
  8
0
 10
99.999999999999886
 20
287.50000000000023
 30
0.0
 11
99.999999999999886
 21
282.50000476837181
 31
0.0
  0
LINE
  5
6986
  8
0
 10
106.50000013411049
 20
287.50000000000023
 30
0.0
 11
106.50000013411049
 21
282.50000476837181
 31
0.0
  0
LINE
  5
6987
  8
0
 10
99.999999999999886
 20
282.50000476837181
 30
0.0
 11
100.0096296507764
 21
282.50000476837181
 31
0.0
  0
LINE
  5
6999
  8
0
 10
107.49999983236199
 20
264.50000181794189
 30
0.0
 11
92.500000167638177
 21
264.50000181794189
 31
0.0
  0
ARC
  5
699A
  8
0
 10
92.500000000000114
 20
265.00000107288378
 30
0.0
 40
0.5
 50
180.0
 51
270.0
  0
ARC
  5
699C
  8
0
 10
107.5000000000001
 20
265.00000107288378
 30
0.0
 40
0.5
 50
270.0
 51
0.0
  0
ARC
  5
699E
  8
0
 10
92.500000000000114
 20
282.00000107288378
 30
0.0
 40
0.5
 50
90.0
 51
180.0
  0
LINE
  5
699F
  8
0
 10
91.805017925798765
 20
282.50000476837181
 30
0.0
 11
108.19498207420121
 21
282.50000476837181
 31
0.0
  0
ARC
  5
69A0
  8
0
 10
107.5000000000001
 20
282.00000107288378
 30
0.0
 40
0.5
 50
0.0
 51
90.0
  0
LINE
  5
69A1
  8
0
 10
91.999999620020503
 20
264.33955356478782
 30
0.0
 11
91.999999620020503
 21
282.00000375509279
 31
0.0
  0
LINE
  5
69A2
  8
0
 10
108.0000003799797
 20
264.3395535647868
 30
0.0
 11
108.0000003799797
 21
282.00000375509279
 31
0.0
  0
ARC
  5
69AB
  8
0
 10
76.016609639899116
 20
267.57641272538189
 30
0.0
 40
16.307851252760639
 50
326.18128600767852
 51
348.55163690613603
  0
ARC
  5
69AC
  8
0
 10
123.9833903601001
 20
267.5764127253816
 30
0.0
 40
16.307851252759779
 50
191.4483630938648
 51
213.8187139923225
  0
LINE
  5
69AE
  8
0
 10
91.805017925798893
 20
282.50000476837181
 30
0.0
 11
91.672287695109844
 21
282.48192220926308
 31
0.0
  0
LINE
  5
69B0
  8
0
 10
89.565216936171055
 20
258.5000008344652
 30
0.0
 11
89.565216936171055
 21
282.00000375509279
 31
0.0
  0
LINE
  5
69B1
  8
0
 10
108.33003595471379
 20
282.481609284878
 30
0.0
 11
108.19498207420111
 21
282.50000476837181
 31
0.0
  0
LINE
  5
69B4
  8
0
 10
110.4347830638289
 20
282.00000375509279
 30
0.0
 11
110.4347830638289
 21
258.5000008344652
 31
0.0
  0
LINE
  5
69B7
  8
0
 10
114.4999995827675
 20
230.500001832843
 30
0.0
 11
85.500000417232513
 21
230.500001832843
 31
0.0
  0
LINE
  5
69BD
  8
0
 10
114.9999996647238
 20
287.50000000000023
 30
0.0
 11
85.000000335276127
 21
287.50000000000023
 31
0.0
  0
LINE
  5
69BE
  8
0
 10
85.999999567866325
 20
288.50000202655809
 30
0.0
 11
96.999999973922954
 21
288.50000202655809
 31
0.0
  0
LINE
  5
69BF
  8
0
 10
103.000000026077
 20
288.50000202655809
 30
0.0
 11
114.0000004321336
 21
288.50000202655809
 31
0.0
  0
LINE
  5
69D8
  8
0
 10
132.00000151991841
 20
214.5000010728838
 30
0.0
 11
67.999998480081544
 21
214.5000010728838
 31
0.0
  0
LINE
  5
69DB
  8
0
 10
85.205000266432762
 20
227.50000134110471
 30
0.0
 11
114.7949997335672
 21
227.50000134110471
 31
0.0
  0
LINE
  5
69DC
  8
0
 10
112.8452992066741
 20
205.500001460314
 30
0.0
 11
87.154700793325901
 21
205.500001460314
 31
0.0
  0
LINE
  5
69DD
  8
0
 10
85.999999567866325
 20
207.500000856817
 30
0.0
 11
114.0000004321336
 21
207.500000856817
 31
0.0
  0
LINE
  5
69DE
  8
0
 10
108.0000003799796
 20
298.49999994039558
 30
0.0
 11
91.999999620020375
 21
298.49999994039558
 31
0.0
  0
LINE
  5
69DF
  8
0
 10
92.999999783933163
 20
299.5000019669535
 30
0.0
 11
107.00000021606679
 21
299.5000019669535
 31
0.0
  0
LINE
  5
69E0
  8
0
 10
110.4347830638289
 20
258.5000008344652
 30
0.0
 11
104.00000018998981
 21
258.5000008344652
 31
0.0
  0
LINE
  5
69E1
  8
0
 10
95.999999810010195
 20
258.5000008344652
 30
0.0
 11
89.565216936171055
 21
258.5000008344652
 31
0.0
  0
ARC
  5
69E2
  8
0
 10
93.589869243399775
 20
269.2504797464843
 30
0.0
 40
13.36967421593244
 50
98.246241043410663
 51
107.5193846846914
  0
ARC
  5
69E3
  8
0
 10
106.40963682588379
 20
269.24898162501893
 30
0.0
 40
13.37125153448547
 50
72.480529432660589
 51
81.74253886655741
  0
CIRCLE
  5
69EE
  8
0
 10
213.0
 20
382.0000019669535
 30
0.0
 40
2.9999999999999498
  0
CIRCLE
  5
69EF
  8
0
 10
213.0
 20
382.0000019669535
 30
0.0
 40
4.000000000000032
  0
LINE
  5
69F0
  8
0
 10
216.75277501344681
 20
388.50000210106373
 30
0.0
 11
220.5055542290211
 21
382.0000019669535
 31
0.0
  0
LINE
  5
69F1
  8
0
 10
216.75277501344681
 20
375.50000183284283
 30
0.0
 11
220.5055542290211
 21
382.0000019669535
 31
0.0
  0
LINE
  5
69F2
  8
0
 10
216.75277501344681
 20
375.50000183284283
 30
0.0
 11
209.2472240328789
 21
375.50000183284283
 31
0.0
  0
LINE
  5
69F3
  8
0
 10
205.49444481730461
 20
382.0000019669535
 30
0.0
 11
209.2472240328789
 21
375.50000183284283
 31
0.0
  0
LINE
  5
69F4
  8
0
 10
209.2472240328789
 20
388.50000210106373
 30
0.0
 11
205.49444481730461
 21
382.0000019669535
 31
0.0
  0
CIRCLE
  5
69F5
  8
0
 10
213.0
 20
382.0000019669535
 30
0.0
 40
4.0000000000000044
  0
LINE
  5
69F6
  8
0
 10
209.2472240328789
 20
388.50000210106373
 30
0.0
 11
216.75277501344681
 21
388.50000210106373
 31
0.0
  0
CIRCLE
  5
6A02
  8
0
 10
250.0
 20
382.00000196695328
 30
0.0
 40
14.99999999999994
  0
CIRCLE
  5
6A03
  8
0
 10
250.0
 20
382.00000196695328
 30
0.0
 40
14.0
  0
CIRCLE
  5
6A04
  8
0
 10
250.0
 20
382.00000196695328
 30
0.0
 40
9.0
  0
ARC
  5
6A0A
  8
0
 10
233.47728835814181
 20
398.00000196695328
 30
0.0
 40
8.0
 50
270.0
 51
315.9207901521105
  0
ARC
  5
6A0B
  8
0
 10
233.47728835814181
 20
366.00000196695328
 30
0.0
 40
8.0
 50
44.079209847889892
 51
90.0
  0
ARC
  5
6A0C
  8
0
 10
213.0
 20
382.00000196695328
 30
0.0
 40
8.0
 50
90.0
 51
270.0
  0
LINE
  5
6A0D
  8
0
 10
212.99999952316281
 20
390.00000234693289
 30
0.0
 11
233.47728885710239
 21
390.00000234693289
 31
0.0
  0
LINE
  5
6A0E
  8
0
 10
221.000000834465
 20
386.20000181719672
 30
0.0
 11
218.08068081736559
 21
386.20000181719672
 31
0.0
  0
ARC
  5
6A0F
  8
0
 10
221.0
 20
382.00000196695328
 30
0.0
 40
4.2000000000000446
 50
270.0
 51
90.0
  0
LINE
  5
6A10
  8
0
 10
218.08068081736559
 20
377.80000211671
 30
0.0
 11
221.000000834465
 21
377.80000211671
 31
0.0
  0
LINE
  5
6A11
  8
0
 10
233.47728885710239
 20
374.00000158697372
 30
0.0
 11
212.99999952316281
 21
374.00000158697372
 31
0.0
  0
ARC
  5
6A14
  8
0
 10
250.0
 20
382.00000196695328
 30
0.0
 40
7.0000000000000213
 50
21.786789298260938
 51
338.21321070173911
  0
LINE
  5
6A16
  8
0
 10
256.50000013411039
 20
386.66369130658171
 30
0.0
 11
256.50000013411039
 21
377.33631262732479
 31
0.0
  0
ARC
  5
6A1A
  8
0
 10
250.0
 20
399.5000019669535
 30
0.0
 40
15.0
 50
0.0
 51
180.0
  0
ARC
  5
6A1B
  8
0
 10
250.0
 20
382.0000019669535
 30
0.0
 40
28.199999999999989
 50
80.000000000001464
 51
99.999999999998565
  0
ARC
  5
6A1C
  8
0
 10
245.83244373599371
 20
405.63538803924649
 30
0.0
 40
4.2000000000000011
 50
99.999999999998565
 51
279.99999999999858
  0
ARC
  5
6A1D
  8
0
 10
254.16755626400641
 20
405.63538803924649
 30
0.0
 40
4.2000000000000011
 50
260.00000000000142
 51
80.000000000001464
  0
ARC
  5
6A1E
  8
0
 10
250.0
 20
382.0000019669535
 30
0.0
 40
19.800000000000001
 50
80.000000000001464
 51
99.999999999998565
  0
LINE
  5
6A1F
  8
0
 10
235.0000003352761
 20
390.14625445008301
 30
0.0
 11
235.0000003352761
 21
399.50000204145931
 31
0.0
  0
LINE
  5
6A21
  8
0
 10
235.0000003352761
 20
364.5000018924477
 30
0.0
 11
235.0000003352761
 21
373.853749483824
 31
0.0
  0
LINE
  5
6A22
  8
0
 10
264.99999966472387
 20
399.50317344688739
 30
0.0
 11
264.99999966472387
 21
364.5000018924477
 31
0.0
  0
ARC
  5
6A23
  8
0
 10
250.0
 20
364.5000019669535
 30
0.0
 40
15.0
 50
180.0
 51
0.0
  0
ARC
  5
6A24
  8
0
 10
250.0
 20
382.0000019669535
 30
0.0
 40
19.800000000000001
 50
260.00000000000142
 51
279.99999999999858
  0
ARC
  5
6A25
  8
0
 10
245.83244373599371
 20
358.36461589466052
 30
0.0
 40
4.2000000000000481
 50
80.000000000001464
 51
260.00000000000142
  0
ARC
  5
6A26
  8
0
 10
254.16755626400641
 20
358.36461589466052
 30
0.0
 40
4.2000000000000481
 50
279.99999999999858
 51
99.999999999998565
  0
ARC
  5
6A27
  8
0
 10
250.0
 20
382.0000019669535
 30
0.0
 40
28.200000000000049
 50
260.00000000000142
 51
279.99999999999858
  0
CIRCLE
  5
6B0E
  8
0
 10
250.0
 20
382.00000196695328
 30
0.0
 40
8.0
  0
LINE
  5
6BE8
  8
1
 10
100.0
 20
157.5000000000002
 30
0.0
 11
100.0
 21
304.5000019669535
 31
0.0
  0
LINE
  5
6BEB
  8
1
 10
250.0
 20
304.5000019669535
 30
0.0
 11
250.0
 21
157.5000000000002
 31
0.0
  0
LINE
  5
6BEC
  8
1
 10
400.0
 20
157.5000000000002
 30
0.0
 11
400.0
 21
304.5000019669535
 31
0.0
  0
LINE
  5
6BFA
  8
3
 10
216.3234988675118
 20
252.49999985098859
 30
0.0
 11
216.323498867512
 21
259.50000286102318
 31
0.0
  0
LINE
  5
6BFB
  8
3
 10
209.6764988675117
 20
252.49999985098859
 30
0.0
 11
209.6764988675117
 21
259.50000286102312
 31
0.0
  0
LINE
  5
6BFC
  8
3
 10
103.323499344349
 20
252.50000171363379
 30
0.0
 11
103.3234993443491
 21
259.50000472366833
 31
0.0
  0
LINE
  5
6BFD
  8
3
 10
96.676499344348841
 20
252.50000171363379
 30
0.0
 11
96.676499344348841
 21
259.50000472366833
 31
0.0
  0
LINE
  5
6C02
  8
1
 10
200.0
 20
382.00000196695328
 30
0.0
 11
270.0
 21
382.00000196695328
 31
0.0
  0
LINE
  5
6C07
  8
1
 10
250.0
 20
419.50000196695339
 30
0.0
 11
250.0
 21
344.5000019669535
 31
0.0
  0
LINE
  5
6C08
  8
1
 10
200.0
 20
80.0
 30
0.0
 11
270.0
 21
80.0
 31
0.0
  0
LINE
  5
6C09
  8
1
 10
250.0
 20
117.5000000000002
 30
0.0
 11
250.0
 21
42.500000000000227
 31
0.0
  0
LINE
  5
6C5B
  8
0
 10
132.0
 20
226.5000010728838
 30
0.0
 11
67.999998480081544
 21
226.50000117719199
 31
0.0
  0
LINE
  5
6CA7
  8
0
 10
368.0
 20
226.50000107288389
 30
0.0
 11
432.0
 21
226.50000107288389
 31
0.0
  0
LINE
  5
6CAA
  8
1
 10
212.99999952316281
 20
391.50000210106373
 30
0.0
 11
212.99999952316281
 21
372.50000183284283
 31
0.0
  0
LINE
  5
6CAB
  8
1
 10
221.0
 20
374.50000196695328
 30
0.0
 11
221.0
 21
389.50000196695339
 31
0.0
  0
LINE
  5
6CAC
  8
1
 10
221.0
 20
72.500000000000085
 30
0.0
 11
221.0
 21
87.500000000000085
 31
0.0
  0
LINE
  5
6CAD
  8
1
 10
213.0
 20
89.500000134110508
 30
0.0
 11
213.0
 21
70.499999865889606
 31
0.0
  0
LINE
  5
6CB1
  8
1
 10
212.99999952316281
 20
243.99999988079091
 30
0.0
 11
212.99999952316281
 21
295.50000107288378
 31
0.0
  0
ARC
  5
6CF7
  8
1
 10
250.0
 20
80.003171479705685
 30
0.0
 40
24.0
 50
242.74614688263961
 51
297.25385311736028
  0
ARC
  5
6CF8
  8
1
 10
250.0
 20
80.003171479705685
 30
0.0
 40
24.0
 50
62.746146882639643
 51
117.25385311736029
  0
ARC
  5
6CF9
  8
1
 10
250.00000000000011
 20
382.00000196695339
 30
0.0
 40
24.0
 50
242.74614688263961
 51
297.25385311736028
  0
ARC
  5
6CFA
  8
1
 10
250.00000000000011
 20
382.00000196695339
 30
0.0
 40
24.0
 50
62.746146882639657
 51
117.25385311736029
  0
LINE
  5
6D01
  8
1
 10
395.84999999999991
 20
295.50000107288378
 30
0.0
 11
404.14999999999998
 21
295.50000107288378
 31
0.0
  0
LINE
  5
6D02
  8
1
 10
394.15000000000038
 20
220.500001072884
 30
0.0
 11
385.85000000000019
 21
220.50000107288429
 31
0.0
  0
LINE
  5
6D03
  8
1
 10
390.00000000000028
 20
216.35000107288411
 30
0.0
 11
390.00000000000051
 21
224.65000107288429
 31
0.0
  0
LINE
  5
6D95
  8
1
 10
75.999999999999773
 20
229.5000011771925
 30
0.0
 11
75.999999999999773
 21
211.50000107288429
 31
0.0
  0
LINE
  5
6D96
  8
1
 10
123.9999999999997
 20
229.5000011771925
 30
0.0
 11
123.9999999999997
 21
211.50000107288429
 31
0.0
  0
LINE
  5
6D97
  8
1
 10
375.99999999999977
 20
229.5000011771925
 30
0.0
 11
375.99999999999977
 21
211.50000107288429
 31
0.0
  0
LINE
  5
6D98
  8
1
 10
423.99999999999972
 20
229.5000011771925
 30
0.0
 11
423.99999999999972
 21
211.50000107288429
 31
0.0
  0
POLYLINE
  5
7CBF
  8
0
 10
109.0
 20
180.8000010728839
 30
0.0
 66
     1
 70
     8
  0
VERTEX
  8
0
  5
815B
 10
109.000
 20
180.800
 30
0.000000
  70
    32
  0
VERTEX
  8
0
  5
815C
 10
109.025
 20
180.800
 30
0.000000
  70
    32
  0
VERTEX
  8
0
  5
815D
 10
109.049
 20
180.802
 30
0.000000
  70
    32
  0
VERTEX
  8
0
  5
815E
 10
109.074
 20
180.804
 30
0.000000
  70
    32
  0
VERTEX
  8
0
  5
815F
 10
109.098
 20
180.808
 30
0.000000
  70
    32
  0
VERTEX
  8
0
  5
8160
 10
109.122
 20
180.812
 30
0.000000
  70
    32
  0
VERTEX
  8
0
  5
8161
 10
109.147
 20
180.817
 30
0.000000
  70
    32
  0
VERTEX
  8
0
  5
8162
 10
109.171
 20
180.824
 30
0.000000
  70
    32
  0
VERTEX
  8
0
  5
8163
 10
109.195
 20
180.831
 30
0.000000
  70
    32
  0
VERTEX
  8
0
  5
8164
 10
109.219
 20
180.839
 30
0.000000
  70
    32
  0
VERTEX
  8
0
  5
8165
 10
109.243
 20
180.848
 30
0.000000
  70
    32
  0
VERTEX
  8
0
  5
8166
 10
109.267
 20
180.858
 30
0.000000
  70
    32
  0
VERTEX
  8
0
  5
8167
 10
109.290
 20
180.869
 30
0.000000
  70
    32
  0
VERTEX
  8
0
  5
8168
 10
109.314
 20
180.881
 30
0.000000
  70
    32
  0
VERTEX
  8
0
  5
8169
 10
109.337
 20
180.894
 30
0.000000
  70
    32
  0
VERTEX
  8
0
  5
816A
 10
109.360
 20
180.907
 30
0.000000
  70
    32
  0
VERTEX
  8
0
  5
816B
 10
109.383
 20
180.922
 30
0.000000
  70
    32
  0
VERTEX
  8
0
  5
816C
 10
109.405
 20
180.937
 30
0.000000
  70
    32
  0
VERTEX
  8
0
  5
816D
 10
109.428
 20
180.954
 30
0.000000
  70
    32
  0
VERTEX
  8
0
  5
816E
 10
109.450
 20
180.971
 30
0.000000
  70
    32
  0
VERTEX
  8
0
  5
816F
 10
109.471
 20
180.989
 30
0.000000
  70
    32
  0
VERTEX
  8
0
  5
8170
 10
109.493
 20
181.008
 30
0.000000
  70
    32
  0
VERTEX
  8
0
  5
8171
 10
109.514
 20
181.028
 30
0.000000
  70
    32
  0
VERTEX
  8
0
  5
8172
 10
109.535
 20
181.048
 30
0.000000
  70
    32
  0
VERTEX
  8
0
  5
8173
 10
109.556
 20
181.070
 30
0.000000
  70
    32
  0
VERTEX
  8
0
  5
8174
 10
109.576
 20
181.092
 30
0.000000
  70
    32
  0
VERTEX
  8
0
  5
8175
 10
109.596
 20
181.115
 30
0.000000
  70
    32
  0
VERTEX
  8
0
  5
8176
 10
109.615
 20
181.139
 30
0.000000
  70
    32
  0
VERTEX
  8
0
  5
8177
 10
109.634
 20
181.163
 30
0.000000
  70
    32
  0
VERTEX
  8
0
  5
8178
 10
109.653
 20
181.188
 30
0.000000
  70
    32
  0
VERTEX
  8
0
  5
8179
 10
109.672
 20
181.214
 30
0.000000
  70
    32
  0
VERTEX
  8
0
  5
817A
 10
109.690
 20
181.241
 30
0.000000
  70
    32
  0
VERTEX
  8
0
  5
817B
 10
109.707
 20
181.269
 30
0.000000
  70
    32
  0
VERTEX
  8
0
  5
817C
 10
109.724
 20
181.297
 30
0.000000
  70
    32
  0
VERTEX
  8
0
  5
817D
 10
109.741
 20
181.326
 30
0.000000
  70
    32
  0
VERTEX
  8
0
  5
817E
 10
109.757
 20
181.355
 30
0.000000
  70
    32
  0
VERTEX
  8
0
  5
817F
 10
109.773
 20
181.385
 30
0.000000
  70
    32
  0
VERTEX
  8
0
  5
8180
 10
109.788
 20
181.416
 30
0.000000
  70
    32
  0
VERTEX
  8
0
  5
8181
 10
109.803
 20
181.447
 30
0.000000
  70
    32
  0
VERTEX
  8
0
  5
8182
 10
109.818
 20
181.479
 30
0.000000
  70
    32
  0
VERTEX
  8
0
  5
8183
 10
109.831
 20
181.511
 30
0.000000
  70
    32
  0
VERTEX
  8
0
  5
8184
 10
109.845
 20
181.544
 30
0.000000
  70
    32
  0
VERTEX
  8
0
  5
8185
 10
109.858
 20
181.577
 30
0.000000
  70
    32
  0
VERTEX
  8
0
  5
8186
 10
109.870
 20
181.611
 30
0.000000
  70
    32
  0
VERTEX
  8
0
  5
8187
 10
109.882
 20
181.646
 30
0.000000
  70
    32
  0
VERTEX
  8
0
  5
8188
 10
109.893
 20
181.681
 30
0.000000
  70
    32
  0
VERTEX
  8
0
  5
8189
 10
109.904
 20
181.716
 30
0.000000
  70
    32
  0
VERTEX
  8
0
  5
818A
 10
109.914
 20
181.752
 30
0.000000
  70
    32
  0
VERTEX
  8
0
  5
818B
 10
109.924
 20
181.788
 30
0.000000
  70
    32
  0
VERTEX
  8
0
  5
818C
 10
109.933
 20
181.824
 30
0.000000
  70
    32
  0
VERTEX
  8
0
  5
818D
 10
109.942
 20
181.861
 30
0.000000
  70
    32
  0
VERTEX
  8
0
  5
818E
 10
109.950
 20
181.898
 30
0.000000
  70
    32
  0
VERTEX
  8
0
  5
818F
 10
109.957
 20
181.936
 30
0.000000
  70
    32
  0
VERTEX
  8
0
  5
8190
 10
109.964
 20
181.973
 30
0.000000
  70
    32
  0
VERTEX
  8
0
  5
8191
 10
109.970
 20
182.011
 30
0.000000
  70
    32
  0
VERTEX
  8
0
  5
8192
 10
109.976
 20
182.049
 30
0.000000
  70
    32
  0
VERTEX
  8
0
  5
8193
 10
109.981
 20
182.088
 30
0.000000
  70
    32
  0
VERTEX
  8
0
  5
8194
 10
109.985
 20
182.126
 30
0.000000
  70
    32
  0
VERTEX
  8
0
  5
8195
 10
109.989
 20
182.165
 30
0.000000
  70
    32
  0
VERTEX
  8
0
  5
8196
 10
109.992
 20
182.204
 30
0.000000
  70
    32
  0
VERTEX
  8
0
  5
8197
 10
109.995
 20
182.243
 30
0.000000
  70
    32
  0
VERTEX
  8
0
  5
8198
 10
109.997
 20
182.282
 30
0.000000
  70
    32
  0
VERTEX
  8
0
  5
8199
 10
109.999
 20
182.321
 30
0.000000
  70
    32
  0
VERTEX
  8
0
  5
819A
 10
110.000
 20
182.361
 30
0.000000
  70
    32
  0
VERTEX
  8
0
  5
819B
 10
110.000
 20
182.400
 30
0.000000
  70
    32
  0
VERTEX
  8
0
  5
819C
 10
110.000
 20
182.439
 30
0.000000
  70
    32
  0
VERTEX
  8
0
  5
819D
 10
109.999
 20
182.479
 30
0.000000
  70
    32
  0
VERTEX
  8
0
  5
819E
 10
109.997
 20
182.518
 30
0.000000
  70
    32
  0
VERTEX
  8
0
  5
819F
 10
109.995
 20
182.557
 30
0.000000
  70
    32
  0
VERTEX
  8
0
  5
81A0
 10
109.992
 20
182.596
 30
0.000000
  70
    32
  0
VERTEX
  8
0
  5
81A1
 10
109.989
 20
182.635
 30
0.000000
  70
    32
  0
VERTEX
  8
0
  5
81A2
 10
109.985
 20
182.674
 30
0.000000
  70
    32
  0
VERTEX
  8
0
  5
81A3
 10
109.981
 20
182.712
 30
0.000000
  70
    32
  0
VERTEX
  8
0
  5
81A4
 10
109.976
 20
182.751
 30
0.000000
  70
    32
  0
VERTEX
  8
0
  5
81A5
 10
109.970
 20
182.789
 30
0.000000
  70
    32
  0
VERTEX
  8
0
  5
81A6
 10
109.964
 20
182.827
 30
0.000000
  70
    32
  0
VERTEX
  8
0
  5
81A7
 10
109.957
 20
182.864
 30
0.000000
  70
    32
  0
VERTEX
  8
0
  5
81A8
 10
109.950
 20
182.902
 30
0.000000
  70
    32
  0
VERTEX
  8
0
  5
81A9
 10
109.942
 20
182.939
 30
0.000000
  70
    32
  0
VERTEX
  8
0
  5
81AA
 10
109.933
 20
182.976
 30
0.000000
  70
    32
  0
VERTEX
  8
0
  5
81AB
 10
109.924
 20
183.012
 30
0.000000
  70
    32
  0
VERTEX
  8
0
  5
81AC
 10
109.914
 20
183.048
 30
0.000000
  70
    32
  0
VERTEX
  8
0
  5
81AD
 10
109.904
 20
183.084
 30
0.000000
  70
    32
  0
VERTEX
  8
0
  5
81AE
 10
109.893
 20
183.119
 30
0.000000
  70
    32
  0
VERTEX
  8
0
  5
81AF
 10
109.882
 20
183.154
 30
0.000000
  70
    32
  0
VERTEX
  8
0
  5
81B0
 10
109.870
 20
183.189
 30
0.000000
  70
    32
  0
VERTEX
  8
0
  5
81B1
 10
109.858
 20
183.223
 30
0.000000
  70
    32
  0
VERTEX
  8
0
  5
81B2
 10
109.845
 20
183.256
 30
0.000000
  70
    32
  0
VERTEX
  8
0
  5
81B3
 10
109.831
 20
183.289
 30
0.000000
  70
    32
  0
VERTEX
  8
0
  5
81B4
 10
109.818
 20
183.321
 30
0.000000
  70
    32
  0
VERTEX
  8
0
  5
81B5
 10
109.803
 20
183.353
 30
0.000000
  70
    32
  0
VERTEX
  8
0
  5
81B6
 10
109.788
 20
183.384
 30
0.000000
  70
    32
  0
VERTEX
  8
0
  5
81B7
 10
109.773
 20
183.415
 30
0.000000
  70
    32
  0
VERTEX
  8
0
  5
81B8
 10
109.757
 20
183.445
 30
0.000000
  70
    32
  0
VERTEX
  8
0
  5
81B9
 10
109.741
 20
183.474
 30
0.000000
  70
    32
  0
VERTEX
  8
0
  5
81BA
 10
109.724
 20
183.503
 30
0.000000
  70
    32
  0
VERTEX
  8
0
  5
81BB
 10
109.707
 20
183.531
 30
0.000000
  70
    32
  0
VERTEX
  8
0
  5
81BC
 10
109.690
 20
183.559
 30
0.000000
  70
    32
  0
VERTEX
  8
0
  5
81BD
 10
109.672
 20
183.586
 30
0.000000
  70
    32
  0
VERTEX
  8
0
  5
81BE
 10
109.653
 20
183.612
 30
0.000000
  70
    32
  0
VERTEX
  8
0
  5
81BF
 10
109.634
 20
183.637
 30
0.000000
  70
    32
  0
VERTEX
  8
0
  5
81C0
 10
109.615
 20
183.661
 30
0.000000
  70
    32
  0
VERTEX
  8
0
  5
81C1
 10
109.596
 20
183.685
 30
0.000000
  70
    32
  0
VERTEX
  8
0
  5
81C2
 10
109.576
 20
183.708
 30
0.000000
  70
    32
  0
VERTEX
  8
0
  5
81C3
 10
109.556
 20
183.730
 30
0.000000
  70
    32
  0
VERTEX
  8
0
  5
81C4
 10
109.535
 20
183.752
 30
0.000000
  70
    32
  0
VERTEX
  8
0
  5
81C5
 10
109.514
 20
183.772
 30
0.000000
  70
    32
  0
VERTEX
  8
0
  5
81C6
 10
109.493
 20
183.792
 30
0.000000
  70
    32
  0
VERTEX
  8
0
  5
81C7
 10
109.471
 20
183.811
 30
0.000000
  70
    32
  0
VERTEX
  8
0
  5
81C8
 10
109.450
 20
183.829
 30
0.000000
  70
    32
  0
VERTEX
  8
0
  5
81C9
 10
109.428
 20
183.846
 30
0.000000
  70
    32
  0
VERTEX
  8
0
  5
81CA
 10
109.405
 20
183.863
 30
0.000000
  70
    32
  0
VERTEX
  8
0
  5
81CB
 10
109.383
 20
183.878
 30
0.000000
  70
    32
  0
VERTEX
  8
0
  5
81CC
 10
109.360
 20
183.893
 30
0.000000
  70
    32
  0
VERTEX
  8
0
  5
81CD
 10
109.337
 20
183.906
 30
0.000000
  70
    32
  0
VERTEX
  8
0
  5
81CE
 10
109.314
 20
183.919
 30
0.000000
  70
    32
  0
VERTEX
  8
0
  5
81CF
 10
109.290
 20
183.931
 30
0.000000
  70
    32
  0
VERTEX
  8
0
  5
81D0
 10
109.267
 20
183.942
 30
0.000000
  70
    32
  0
VERTEX
  8
0
  5
81D1
 10
109.243
 20
183.952
 30
0.000000
  70
    32
  0
VERTEX
  8
0
  5
81D2
 10
109.219
 20
183.961
 30
0.000000
  70
    32
  0
VERTEX
  8
0
  5
81D3
 10
109.195
 20
183.969
 30
0.000000
  70
    32
  0
VERTEX
  8
0
  5
81D4
 10
109.171
 20
183.976
 30
0.000000
  70
    32
  0
VERTEX
  8
0
  5
81D5
 10
109.147
 20
183.983
 30
0.000000
  70
    32
  0
VERTEX
  8
0
  5
81D6
 10
109.122
 20
183.988
 30
0.000000
  70
    32
  0
VERTEX
  8
0
  5
81D7
 10
109.098
 20
183.992
 30
0.000000
  70
    32
  0
VERTEX
  8
0
  5
81D8
 10
109.074
 20
183.996
 30
0.000000
  70
    32
  0
VERTEX
  8
0
  5
81D9
 10
109.049
 20
183.998
 30
0.000000
  70
    32
  0
VERTEX
  8
0
  5
81DA
 10
109.025
 20
184.000
 30
0.000000
  70
    32
  0
VERTEX
  8
0
  5
81DB
 10
109.000
 20
184.000
 30
0.000000
  70
    32
  0
SEQEND
  8
0
  5
81DC
  0
POLYLINE
  5
7CC0
  8
0
 10
90.999999999999886
 20
184.00000107288383
 30
0.0
 66
     1
 70
     8
  0
VERTEX
  8
0
  5
81DD
 10
91.0000
 20
184.000
 30
0.000000
  70
    32
  0
VERTEX
  8
0
  5
81DE
 10
90.9755
 20
184.000
 30
0.000000
  70
    32
  0
VERTEX
  8
0
  5
81DF
 10
90.9509
 20
183.998
 30
0.000000
  70
    32
  0
VERTEX
  8
0
  5
81E0
 10
90.9264
 20
183.996
 30
0.000000
  70
    32
  0
VERTEX
  8
0
  5
81E1
 10
90.9020
 20
183.992
 30
0.000000
  70
    32
  0
VERTEX
  8
0
  5
81E2
 10
90.8776
 20
183.988
 30
0.000000
  70
    32
  0
VERTEX
  8
0
  5
81E3
 10
90.8533
 20
183.983
 30
0.000000
  70
    32
  0
VERTEX
  8
0
  5
81E4
 10
90.8290
 20
183.976
 30
0.000000
  70
    32
  0
VERTEX
  8
0
  5
81E5
 10
90.8049
 20
183.969
 30
0.000000
  70
    32
  0
VERTEX
  8
0
  5
81E6
 10
90.7809
 20
183.961
 30
0.000000
  70
    32
  0
VERTEX
  8
0
  5
81E7
 10
90.7570
 20
183.952
 30
0.000000
  70
    32
  0
VERTEX
  8
0
  5
81E8
 10
90.7333
 20
183.942
 30
0.000000
  70
    32
  0
VERTEX
  8
0
  5
81E9
 10
90.7097
 20
183.931
 30
0.000000
  70
    32
  0
VERTEX
  8
0
  5
81EA
 10
90.6863
 20
183.919
 30
0.000000
  70
    32
  0
VERTEX
  8
0
  5
81EB
 10
90.6631
 20
183.906
 30
0.000000
  70
    32
  0
VERTEX
  8
0
  5
81EC
 10
90.6401
 20
183.893
 30
0.000000
  70
    32
  0
VERTEX
  8
0
  5
81ED
 10
90.6173
 20
183.878
 30
0.000000
  70
    32
  0
VERTEX
  8
0
  5
81EE
 10
90.5948
 20
183.863
 30
0.000000
  70
    32
  0
VERTEX
  8
0
  5
81EF
 10
90.5724
 20
183.846
 30
0.000000
  70
    32
  0
VERTEX
  8
0
  5
81F0
 10
90.5504
 20
183.829
 30
0.000000
  70
    32
  0
VERTEX
  8
0
  5
81F1
 10
90.5286
 20
183.811
 30
0.000000
  70
    32
  0
VERTEX
  8
0
  5
81F2
 10
90.5071
 20
183.792
 30
0.000000
  70
    32
  0
VERTEX
  8
0
  5
81F3
 10
90.4859
 20
183.772
 30
0.000000
  70
    32
  0
VERTEX
  8
0
  5
81F4
 10
90.4650
 20
183.752
 30
0.000000
  70
    32
  0
VERTEX
  8
0
  5
81F5
 10
90.4444
 20
183.730
 30
0.000000
  70
    32
  0
VERTEX
  8
0
  5
81F6
 10
90.4242
 20
183.708
 30
0.000000
  70
    32
  0
VERTEX
  8
0
  5
81F7
 10
90.4043
 20
183.685
 30
0.000000
  70
    32
  0
VERTEX
  8
0
  5
81F8
 10
90.3848
 20
183.661
 30
0.000000
  70
    32
  0
VERTEX
  8
0
  5
81F9
 10
90.3656
 20
183.637
 30
0.000000
  70
    32
  0
VERTEX
  8
0
  5
81FA
 10
90.3468
 20
183.612
 30
0.000000
  70
    32
  0
VERTEX
  8
0
  5
81FB
 10
90.3284
 20
183.586
 30
0.000000
  70
    32
  0
VERTEX
  8
0
  5
81FC
 10
90.3105
 20
183.559
 30
0.000000
  70
    32
  0
VERTEX
  8
0
  5
81FD
 10
90.2929
 20
183.531
 30
0.000000
  70
    32
  0
VERTEX
  8
0
  5
81FE
 10
90.2758
 20
183.503
 30
0.000000
  70
    32
  0
VERTEX
  8
0
  5
81FF
 10
90.2590
 20
183.474
 30
0.000000
  70
    32
  0
VERTEX
  8
0
  5
8200
 10
90.2428
 20
183.445
 30
0.000000
  70
    32
  0
VERTEX
  8
0
  5
8201
 10
90.2270
 20
183.415
 30
0.000000
  70
    32
  0
VERTEX
  8
0
  5
8202
 10
90.2117
 20
183.384
 30
0.000000
  70
    32
  0
VERTEX
  8
0
  5
8203
 10
90.1968
 20
183.353
 30
0.000000
  70
    32
  0
VERTEX
  8
0
  5
8204
 10
90.1824
 20
183.321
 30
0.000000
  70
    32
  0
VERTEX
  8
0
  5
8205
 10
90.1685
 20
183.289
 30
0.000000
  70
    32
  0
VERTEX
  8
0
  5
8206
 10
90.1551
 20
183.256
 30
0.000000
  70
    32
  0
VERTEX
  8
0
  5
8207
 10
90.1423
 20
183.223
 30
0.000000
  70
    32
  0
VERTEX
  8
0
  5
8208
 10
90.1299
 20
183.189
 30
0.000000
  70
    32
  0
VERTEX
  8
0
  5
8209
 10
90.1181
 20
183.154
 30
0.000000
  70
    32
  0
VERTEX
  8
0
  5
820A
 10
90.1068
 20
183.119
 30
0.000000
  70
    32
  0
VERTEX
  8
0
  5
820B
 10
90.0960
 20
183.084
 30
0.000000
  70
    32
  0
VERTEX
  8
0
  5
820C
 10
90.0858
 20
183.048
 30
0.000000
  70
    32
  0
VERTEX
  8
0
  5
820D
 10
90.0761
 20
183.012
 30
0.000000
  70
    32
  0
VERTEX
  8
0
  5
820E
 10
90.0670
 20
182.976
 30
0.000000
  70
    32
  0
VERTEX
  8
0
  5
820F
 10
90.0585
 20
182.939
 30
0.000000
  70
    32
  0
VERTEX
  8
0
  5
8210
 10
90.0505
 20
182.902
 30
0.000000
  70
    32
  0
VERTEX
  8
0
  5
8211
 10
90.0431
 20
182.864
 30
0.000000
  70
    32
  0
VERTEX
  8
0
  5
8212
 10
90.0362
 20
182.827
 30
0.000000
  70
    32
  0
VERTEX
  8
0
  5
8213
 10
90.0300
 20
182.789
 30
0.000000
  70
    32
  0
VERTEX
  8
0
  5
8214
 10
90.0243
 20
182.751
 30
0.000000
  70
    32
  0
VERTEX
  8
0
  5
8215
 10
90.0192
 20
182.712
 30
0.000000
  70
    32
  0
VERTEX
  8
0
  5
8216
 10
90.0147
 20
182.674
 30
0.000000
  70
    32
  0
VERTEX
  8
0
  5
8217
 10
90.0108
 20
182.635
 30
0.000000
  70
    32
  0
VERTEX
  8
0
  5
8218
 10
90.0075
 20
182.596
 30
0.000000
  70
    32
  0
VERTEX
  8
0
  5
8219
 10
90.0048
 20
182.557
 30
0.000000
  70
    32
  0
VERTEX
  8
0
  5
821A
 10
90.0027
 20
182.518
 30
0.000000
  70
    32
  0
VERTEX
  8
0
  5
821B
 10
90.0012
 20
182.479
 30
0.000000
  70
    32
  0
VERTEX
  8
0
  5
821C
 10
90.0003
 20
182.439
 30
0.000000
  70
    32
  0
VERTEX
  8
0
  5
821D
 10
90.0000
 20
182.400
 30
0.000000
  70
    32
  0
VERTEX
  8
0
  5
821E
 10
90.0003
 20
182.361
 30
0.000000
  70
    32
  0
VERTEX
  8
0
  5
821F
 10
90.0012
 20
182.321
 30
0.000000
  70
    32
  0
VERTEX
  8
0
  5
8220
 10
90.0027
 20
182.282
 30
0.000000
  70
    32
  0
VERTEX
  8
0
  5
8221
 10
90.0048
 20
182.243
 30
0.000000
  70
    32
  0
VERTEX
  8
0
  5
8222
 10
90.0075
 20
182.204
 30
0.000000
  70
    32
  0
VERTEX
  8
0
  5
8223
 10
90.0108
 20
182.165
 30
0.000000
  70
    32
  0
VERTEX
  8
0
  5
8224
 10
90.0147
 20
182.126
 30
0.000000
  70
    32
  0
VERTEX
  8
0
  5
8225
 10
90.0192
 20
182.088
 30
0.000000
  70
    32
  0
VERTEX
  8
0
  5
8226
 10
90.0243
 20
182.049
 30
0.000000
  70
    32
  0
VERTEX
  8
0
  5
8227
 10
90.0300
 20
182.011
 30
0.000000
  70
    32
  0
VERTEX
  8
0
  5
8228
 10
90.0362
 20
181.973
 30
0.000000
  70
    32
  0
VERTEX
  8
0
  5
8229
 10
90.0431
 20
181.936
 30
0.000000
  70
    32
  0
VERTEX
  8
0
  5
822A
 10
90.0505
 20
181.898
 30
0.000000
  70
    32
  0
VERTEX
  8
0
  5
822B
 10
90.0585
 20
181.861
 30
0.000000
  70
    32
  0
VERTEX
  8
0
  5
822C
 10
90.0670
 20
181.824
 30
0.000000
  70
    32
  0
VERTEX
  8
0
  5
822D
 10
90.0761
 20
181.788
 30
0.000000
  70
    32
  0
VERTEX
  8
0
  5
822E
 10
90.0858
 20
181.752
 30
0.000000
  70
    32
  0
VERTEX
  8
0
  5
822F
 10
90.0960
 20
181.716
 30
0.000000
  70
    32
  0
VERTEX
  8
0
  5
8230
 10
90.1068
 20
181.681
 30
0.000000
  70
    32
  0
VERTEX
  8
0
  5
8231
 10
90.1181
 20
181.646
 30
0.000000
  70
    32
  0
VERTEX
  8
0
  5
8232
 10
90.1299
 20
181.611
 30
0.000000
  70
    32
  0
VERTEX
  8
0
  5
8233
 10
90.1423
 20
181.577
 30
0.000000
  70
    32
  0
VERTEX
  8
0
  5
8234
 10
90.1551
 20
181.544
 30
0.000000
  70
    32
  0
VERTEX
  8
0
  5
8235
 10
90.1685
 20
181.511
 30
0.000000
  70
    32
  0
VERTEX
  8
0
  5
8236
 10
90.1824
 20
181.479
 30
0.000000
  70
    32
  0
VERTEX
  8
0
  5
8237
 10
90.1968
 20
181.447
 30
0.000000
  70
    32
  0
VERTEX
  8
0
  5
8238
 10
90.2117
 20
181.416
 30
0.000000
  70
    32
  0
VERTEX
  8
0
  5
8239
 10
90.2270
 20
181.385
 30
0.000000
  70
    32
  0
VERTEX
  8
0
  5
823A
 10
90.2428
 20
181.355
 30
0.000000
  70
    32
  0
VERTEX
  8
0
  5
823B
 10
90.2590
 20
181.326
 30
0.000000
  70
    32
  0
VERTEX
  8
0
  5
823C
 10
90.2758
 20
181.297
 30
0.000000
  70
    32
  0
VERTEX
  8
0
  5
823D
 10
90.2929
 20
181.269
 30
0.000000
  70
    32
  0
VERTEX
  8
0
  5
823E
 10
90.3105
 20
181.241
 30
0.000000
  70
    32
  0
VERTEX
  8
0
  5
823F
 10
90.3284
 20
181.214
 30
0.000000
  70
    32
  0
VERTEX
  8
0
  5
8240
 10
90.3468
 20
181.188
 30
0.000000
  70
    32
  0
VERTEX
  8
0
  5
8241
 10
90.3656
 20
181.163
 30
0.000000
  70
    32
  0
VERTEX
  8
0
  5
8242
 10
90.3848
 20
181.139
 30
0.000000
  70
    32
  0
VERTEX
  8
0
  5
8243
 10
90.4043
 20
181.115
 30
0.000000
  70
    32
  0
VERTEX
  8
0
  5
8244
 10
90.4242
 20
181.092
 30
0.000000
  70
    32
  0
VERTEX
  8
0
  5
8245
 10
90.4444
 20
181.070
 30
0.000000
  70
    32
  0
VERTEX
  8
0
  5
8246
 10
90.4650
 20
181.048
 30
0.000000
  70
    32
  0
VERTEX
  8
0
  5
8247
 10
90.4859
 20
181.028
 30
0.000000
  70
    32
  0
VERTEX
  8
0
  5
8248
 10
90.5071
 20
181.008
 30
0.000000
  70
    32
  0
VERTEX
  8
0
  5
8249
 10
90.5286
 20
180.989
 30
0.000000
  70
    32
  0
VERTEX
  8
0
  5
824A
 10
90.5504
 20
180.971
 30
0.000000
  70
    32
  0
VERTEX
  8
0
  5
824B
 10
90.5724
 20
180.954
 30
0.000000
  70
    32
  0
VERTEX
  8
0
  5
824C
 10
90.5948
 20
180.937
 30
0.000000
  70
    32
  0
VERTEX
  8
0
  5
824D
 10
90.6173
 20
180.922
 30
0.000000
  70
    32
  0
VERTEX
  8
0
  5
824E
 10
90.6401
 20
180.907
 30
0.000000
  70
    32
  0
VERTEX
  8
0
  5
824F
 10
90.6631
 20
180.894
 30
0.000000
  70
    32
  0
VERTEX
  8
0
  5
8250
 10
90.6863
 20
180.881
 30
0.000000
  70
    32
  0
VERTEX
  8
0
  5
8251
 10
90.7097
 20
180.869
 30
0.000000
  70
    32
  0
VERTEX
  8
0
  5
8252
 10
90.7333
 20
180.858
 30
0.000000
  70
    32
  0
VERTEX
  8
0
  5
8253
 10
90.7570
 20
180.848
 30
0.000000
  70
    32
  0
VERTEX
  8
0
  5
8254
 10
90.7809
 20
180.839
 30
0.000000
  70
    32
  0
VERTEX
  8
0
  5
8255
 10
90.8049
 20
180.831
 30
0.000000
  70
    32
  0
VERTEX
  8
0
  5
8256
 10
90.8290
 20
180.824
 30
0.000000
  70
    32
  0
VERTEX
  8
0
  5
8257
 10
90.8533
 20
180.817
 30
0.000000
  70
    32
  0
VERTEX
  8
0
  5
8258
 10
90.8776
 20
180.812
 30
0.000000
  70
    32
  0
VERTEX
  8
0
  5
8259
 10
90.9020
 20
180.808
 30
0.000000
  70
    32
  0
VERTEX
  8
0
  5
825A
 10
90.9264
 20
180.804
 30
0.000000
  70
    32
  0
VERTEX
  8
0
  5
825B
 10
90.9509
 20
180.802
 30
0.000000
  70
    32
  0
VERTEX
  8
0
  5
825C
 10
90.9755
 20
180.800
 30
0.000000
  70
    32
  0
VERTEX
  8
0
  5
825D
 10
91.0000
 20
180.800
 30
0.000000
  70
    32
  0
SEQEND
  8
0
  5
825E
  0
POLYLINE
  5
7CC1
  8
0
 10
109.0
 20
192.80000107288382
 30
0.0
 66
     1
 70
     8
  0
VERTEX
  8
0
  5
825F
 10
109.000
 20
192.800
 30
0.000000
  70
    32
  0
VERTEX
  8
0
  5
8260
 10
109.025
 20
192.800
 30
0.000000
  70
    32
  0
VERTEX
  8
0
  5
8261
 10
109.049
 20
192.802
 30
0.000000
  70
    32
  0
VERTEX
  8
0
  5
8262
 10
109.074
 20
192.804
 30
0.000000
  70
    32
  0
VERTEX
  8
0
  5
8263
 10
109.098
 20
192.808
 30
0.000000
  70
    32
  0
VERTEX
  8
0
  5
8264
 10
109.122
 20
192.812
 30
0.000000
  70
    32
  0
VERTEX
  8
0
  5
8265
 10
109.147
 20
192.817
 30
0.000000
  70
    32
  0
VERTEX
  8
0
  5
8266
 10
109.171
 20
192.824
 30
0.000000
  70
    32
  0
VERTEX
  8
0
  5
8267
 10
109.195
 20
192.831
 30
0.000000
  70
    32
  0
VERTEX
  8
0
  5
8268
 10
109.219
 20
192.839
 30
0.000000
  70
    32
  0
VERTEX
  8
0
  5
8269
 10
109.243
 20
192.848
 30
0.000000
  70
    32
  0
VERTEX
  8
0
  5
826A
 10
109.267
 20
192.858
 30
0.000000
  70
    32
  0
VERTEX
  8
0
  5
826B
 10
109.290
 20
192.869
 30
0.000000
  70
    32
  0
VERTEX
  8
0
  5
826C
 10
109.314
 20
192.881
 30
0.000000
  70
    32
  0
VERTEX
  8
0
  5
826D
 10
109.337
 20
192.894
 30
0.000000
  70
    32
  0
VERTEX
  8
0
  5
826E
 10
109.360
 20
192.907
 30
0.000000
  70
    32
  0
VERTEX
  8
0
  5
826F
 10
109.383
 20
192.922
 30
0.000000
  70
    32
  0
VERTEX
  8
0
  5
8270
 10
109.405
 20
192.937
 30
0.000000
  70
    32
  0
VERTEX
  8
0
  5
8271
 10
109.428
 20
192.954
 30
0.000000
  70
    32
  0
VERTEX
  8
0
  5
8272
 10
109.450
 20
192.971
 30
0.000000
  70
    32
  0
VERTEX
  8
0
  5
8273
 10
109.471
 20
192.989
 30
0.000000
  70
    32
  0
VERTEX
  8
0
  5
8274
 10
109.493
 20
193.008
 30
0.000000
  70
    32
  0
VERTEX
  8
0
  5
8275
 10
109.514
 20
193.028
 30
0.000000
  70
    32
  0
VERTEX
  8
0
  5
8276
 10
109.535
 20
193.048
 30
0.000000
  70
    32
  0
VERTEX
  8
0
  5
8277
 10
109.556
 20
193.070
 30
0.000000
  70
    32
  0
VERTEX
  8
0
  5
8278
 10
109.576
 20
193.092
 30
0.000000
  70
    32
  0
VERTEX
  8
0
  5
8279
 10
109.596
 20
193.115
 30
0.000000
  70
    32
  0
VERTEX
  8
0
  5
827A
 10
109.615
 20
193.139
 30
0.000000
  70
    32
  0
VERTEX
  8
0
  5
827B
 10
109.634
 20
193.163
 30
0.000000
  70
    32
  0
VERTEX
  8
0
  5
827C
 10
109.653
 20
193.188
 30
0.000000
  70
    32
  0
VERTEX
  8
0
  5
827D
 10
109.672
 20
193.214
 30
0.000000
  70
    32
  0
VERTEX
  8
0
  5
827E
 10
109.690
 20
193.241
 30
0.000000
  70
    32
  0
VERTEX
  8
0
  5
827F
 10
109.707
 20
193.269
 30
0.000000
  70
    32
  0
VERTEX
  8
0
  5
8280
 10
109.724
 20
193.297
 30
0.000000
  70
    32
  0
VERTEX
  8
0
  5
8281
 10
109.741
 20
193.326
 30
0.000000
  70
    32
  0
VERTEX
  8
0
  5
8282
 10
109.757
 20
193.355
 30
0.000000
  70
    32
  0
VERTEX
  8
0
  5
8283
 10
109.773
 20
193.385
 30
0.000000
  70
    32
  0
VERTEX
  8
0
  5
8284
 10
109.788
 20
193.416
 30
0.000000
  70
    32
  0
VERTEX
  8
0
  5
8285
 10
109.803
 20
193.447
 30
0.000000
  70
    32
  0
VERTEX
  8
0
  5
8286
 10
109.818
 20
193.479
 30
0.000000
  70
    32
  0
VERTEX
  8
0
  5
8287
 10
109.831
 20
193.511
 30
0.000000
  70
    32
  0
VERTEX
  8
0
  5
8288
 10
109.845
 20
193.544
 30
0.000000
  70
    32
  0
VERTEX
  8
0
  5
8289
 10
109.858
 20
193.577
 30
0.000000
  70
    32
  0
VERTEX
  8
0
  5
828A
 10
109.870
 20
193.611
 30
0.000000
  70
    32
  0
VERTEX
  8
0
  5
828B
 10
109.882
 20
193.646
 30
0.000000
  70
    32
  0
VERTEX
  8
0
  5
828C
 10
109.893
 20
193.681
 30
0.000000
  70
    32
  0
VERTEX
  8
0
  5
828D
 10
109.904
 20
193.716
 30
0.000000
  70
    32
  0
VERTEX
  8
0
  5
828E
 10
109.914
 20
193.752
 30
0.000000
  70
    32
  0
VERTEX
  8
0
  5
828F
 10
109.924
 20
193.788
 30
0.000000
  70
    32
  0
VERTEX
  8
0
  5
8290
 10
109.933
 20
193.824
 30
0.000000
  70
    32
  0
VERTEX
  8
0
  5
8291
 10
109.942
 20
193.861
 30
0.000000
  70
    32
  0
VERTEX
  8
0
  5
8292
 10
109.950
 20
193.898
 30
0.000000
  70
    32
  0
VERTEX
  8
0
  5
8293
 10
109.957
 20
193.936
 30
0.000000
  70
    32
  0
VERTEX
  8
0
  5
8294
 10
109.964
 20
193.973
 30
0.000000
  70
    32
  0
VERTEX
  8
0
  5
8295
 10
109.970
 20
194.011
 30
0.000000
  70
    32
  0
VERTEX
  8
0
  5
8296
 10
109.976
 20
194.049
 30
0.000000
  70
    32
  0
VERTEX
  8
0
  5
8297
 10
109.981
 20
194.088
 30
0.000000
  70
    32
  0
VERTEX
  8
0
  5
8298
 10
109.985
 20
194.126
 30
0.000000
  70
    32
  0
VERTEX
  8
0
  5
8299
 10
109.989
 20
194.165
 30
0.000000
  70
    32
  0
VERTEX
  8
0
  5
829A
 10
109.992
 20
194.204
 30
0.000000
  70
    32
  0
VERTEX
  8
0
  5
829B
 10
109.995
 20
194.243
 30
0.000000
  70
    32
  0
VERTEX
  8
0
  5
829C
 10
109.997
 20
194.282
 30
0.000000
  70
    32
  0
VERTEX
  8
0
  5
829D
 10
109.999
 20
194.321
 30
0.000000
  70
    32
  0
VERTEX
  8
0
  5
829E
 10
110.000
 20
194.361
 30
0.000000
  70
    32
  0
VERTEX
  8
0
  5
829F
 10
110.000
 20
194.400
 30
0.000000
  70
    32
  0
VERTEX
  8
0
  5
82A0
 10
110.000
 20
194.439
 30
0.000000
  70
    32
  0
VERTEX
  8
0
  5
82A1
 10
109.999
 20
194.479
 30
0.000000
  70
    32
  0
VERTEX
  8
0
  5
82A2
 10
109.997
 20
194.518
 30
0.000000
  70
    32
  0
VERTEX
  8
0
  5
82A3
 10
109.995
 20
194.557
 30
0.000000
  70
    32
  0
VERTEX
  8
0
  5
82A4
 10
109.992
 20
194.596
 30
0.000000
  70
    32
  0
VERTEX
  8
0
  5
82A5
 10
109.989
 20
194.635
 30
0.000000
  70
    32
  0
VERTEX
  8
0
  5
82A6
 10
109.985
 20
194.674
 30
0.000000
  70
    32
  0
VERTEX
  8
0
  5
82A7
 10
109.981
 20
194.712
 30
0.000000
  70
    32
  0
VERTEX
  8
0
  5
82A8
 10
109.976
 20
194.751
 30
0.000000
  70
    32
  0
VERTEX
  8
0
  5
82A9
 10
109.970
 20
194.789
 30
0.000000
  70
    32
  0
VERTEX
  8
0
  5
82AA
 10
109.964
 20
194.827
 30
0.000000
  70
    32
  0
VERTEX
  8
0
  5
82AB
 10
109.957
 20
194.864
 30
0.000000
  70
    32
  0
VERTEX
  8
0
  5
82AC
 10
109.950
 20
194.902
 30
0.000000
  70
    32
  0
VERTEX
  8
0
  5
82AD
 10
109.942
 20
194.939
 30
0.000000
  70
    32
  0
VERTEX
  8
0
  5
82AE
 10
109.933
 20
194.976
 30
0.000000
  70
    32
  0
VERTEX
  8
0
  5
82AF
 10
109.924
 20
195.012
 30
0.000000
  70
    32
  0
VERTEX
  8
0
  5
82B0
 10
109.914
 20
195.048
 30
0.000000
  70
    32
  0
VERTEX
  8
0
  5
82B1
 10
109.904
 20
195.084
 30
0.000000
  70
    32
  0
VERTEX
  8
0
  5
82B2
 10
109.893
 20
195.119
 30
0.000000
  70
    32
  0
VERTEX
  8
0
  5
82B3
 10
109.882
 20
195.154
 30
0.000000
  70
    32
  0
VERTEX
  8
0
  5
82B4
 10
109.870
 20
195.189
 30
0.000000
  70
    32
  0
VERTEX
  8
0
  5
82B5
 10
109.858
 20
195.223
 30
0.000000
  70
    32
  0
VERTEX
  8
0
  5
82B6
 10
109.845
 20
195.256
 30
0.000000
  70
    32
  0
VERTEX
  8
0
  5
82B7
 10
109.831
 20
195.289
 30
0.000000
  70
    32
  0
VERTEX
  8
0
  5
82B8
 10
109.818
 20
195.321
 30
0.000000
  70
    32
  0
VERTEX
  8
0
  5
82B9
 10
109.803
 20
195.353
 30
0.000000
  70
    32
  0
VERTEX
  8
0
  5
82BA
 10
109.788
 20
195.384
 30
0.000000
  70
    32
  0
VERTEX
  8
0
  5
82BB
 10
109.773
 20
195.415
 30
0.000000
  70
    32
  0
VERTEX
  8
0
  5
82BC
 10
109.757
 20
195.445
 30
0.000000
  70
    32
  0
VERTEX
  8
0
  5
82BD
 10
109.741
 20
195.474
 30
0.000000
  70
    32
  0
VERTEX
  8
0
  5
82BE
 10
109.724
 20
195.503
 30
0.000000
  70
    32
  0
VERTEX
  8
0
  5
82BF
 10
109.707
 20
195.531
 30
0.000000
  70
    32
  0
VERTEX
  8
0
  5
82C0
 10
109.690
 20
195.559
 30
0.000000
  70
    32
  0
VERTEX
  8
0
  5
82C1
 10
109.672
 20
195.586
 30
0.000000
  70
    32
  0
VERTEX
  8
0
  5
82C2
 10
109.653
 20
195.612
 30
0.000000
  70
    32
  0
VERTEX
  8
0
  5
82C3
 10
109.634
 20
195.637
 30
0.000000
  70
    32
  0
VERTEX
  8
0
  5
82C4
 10
109.615
 20
195.661
 30
0.000000
  70
    32
  0
VERTEX
  8
0
  5
82C5
 10
109.596
 20
195.685
 30
0.000000
  70
    32
  0
VERTEX
  8
0
  5
82C6
 10
109.576
 20
195.708
 30
0.000000
  70
    32
  0
VERTEX
  8
0
  5
82C7
 10
109.556
 20
195.730
 30
0.000000
  70
    32
  0
VERTEX
  8
0
  5
82C8
 10
109.535
 20
195.752
 30
0.000000
  70
    32
  0
VERTEX
  8
0
  5
82C9
 10
109.514
 20
195.772
 30
0.000000
  70
    32
  0
VERTEX
  8
0
  5
82CA
 10
109.493
 20
195.792
 30
0.000000
  70
    32
  0
VERTEX
  8
0
  5
82CB
 10
109.471
 20
195.811
 30
0.000000
  70
    32
  0
VERTEX
  8
0
  5
82CC
 10
109.450
 20
195.829
 30
0.000000
  70
    32
  0
VERTEX
  8
0
  5
82CD
 10
109.428
 20
195.846
 30
0.000000
  70
    32
  0
VERTEX
  8
0
  5
82CE
 10
109.405
 20
195.863
 30
0.000000
  70
    32
  0
VERTEX
  8
0
  5
82CF
 10
109.383
 20
195.878
 30
0.000000
  70
    32
  0
VERTEX
  8
0
  5
82D0
 10
109.360
 20
195.893
 30
0.000000
  70
    32
  0
VERTEX
  8
0
  5
82D1
 10
109.337
 20
195.906
 30
0.000000
  70
    32
  0
VERTEX
  8
0
  5
82D2
 10
109.314
 20
195.919
 30
0.000000
  70
    32
  0
VERTEX
  8
0
  5
82D3
 10
109.290
 20
195.931
 30
0.000000
  70
    32
  0
VERTEX
  8
0
  5
82D4
 10
109.267
 20
195.942
 30
0.000000
  70
    32
  0
VERTEX
  8
0
  5
82D5
 10
109.243
 20
195.952
 30
0.000000
  70
    32
  0
VERTEX
  8
0
  5
82D6
 10
109.219
 20
195.961
 30
0.000000
  70
    32
  0
VERTEX
  8
0
  5
82D7
 10
109.195
 20
195.969
 30
0.000000
  70
    32
  0
VERTEX
  8
0
  5
82D8
 10
109.171
 20
195.976
 30
0.000000
  70
    32
  0
VERTEX
  8
0
  5
82D9
 10
109.147
 20
195.983
 30
0.000000
  70
    32
  0
VERTEX
  8
0
  5
82DA
 10
109.122
 20
195.988
 30
0.000000
  70
    32
  0
VERTEX
  8
0
  5
82DB
 10
109.098
 20
195.992
 30
0.000000
  70
    32
  0
VERTEX
  8
0
  5
82DC
 10
109.074
 20
195.996
 30
0.000000
  70
    32
  0
VERTEX
  8
0
  5
82DD
 10
109.049
 20
195.998
 30
0.000000
  70
    32
  0
VERTEX
  8
0
  5
82DE
 10
109.025
 20
196.000
 30
0.000000
  70
    32
  0
VERTEX
  8
0
  5
82DF
 10
109.000
 20
196.000
 30
0.000000
  70
    32
  0
SEQEND
  8
0
  5
82E0
  0
POLYLINE
  5
7CC2
  8
0
 10
90.999999999999886
 20
196.0000010728838
 30
0.0
 66
     1
 70
     8
  0
VERTEX
  8
0
  5
82E1
 10
91.0000
 20
196.000
 30
0.000000
  70
    32
  0
VERTEX
  8
0
  5
82E2
 10
90.9755
 20
196.000
 30
0.000000
  70
    32
  0
VERTEX
  8
0
  5
82E3
 10
90.9509
 20
195.998
 30
0.000000
  70
    32
  0
VERTEX
  8
0
  5
82E4
 10
90.9264
 20
195.996
 30
0.000000
  70
    32
  0
VERTEX
  8
0
  5
82E5
 10
90.9020
 20
195.992
 30
0.000000
  70
    32
  0
VERTEX
  8
0
  5
82E6
 10
90.8776
 20
195.988
 30
0.000000
  70
    32
  0
VERTEX
  8
0
  5
82E7
 10
90.8533
 20
195.983
 30
0.000000
  70
    32
  0
VERTEX
  8
0
  5
82E8
 10
90.8290
 20
195.976
 30
0.000000
  70
    32
  0
VERTEX
  8
0
  5
82E9
 10
90.8049
 20
195.969
 30
0.000000
  70
    32
  0
VERTEX
  8
0
  5
82EA
 10
90.7809
 20
195.961
 30
0.000000
  70
    32
  0
VERTEX
  8
0
  5
82EB
 10
90.7570
 20
195.952
 30
0.000000
  70
    32
  0
VERTEX
  8
0
  5
82EC
 10
90.7333
 20
195.942
 30
0.000000
  70
    32
  0
VERTEX
  8
0
  5
82ED
 10
90.7097
 20
195.931
 30
0.000000
  70
    32
  0
VERTEX
  8
0
  5
82EE
 10
90.6863
 20
195.919
 30
0.000000
  70
    32
  0
VERTEX
  8
0
  5
82EF
 10
90.6631
 20
195.906
 30
0.000000
  70
    32
  0
VERTEX
  8
0
  5
82F0
 10
90.6401
 20
195.893
 30
0.000000
  70
    32
  0
VERTEX
  8
0
  5
82F1
 10
90.6173
 20
195.878
 30
0.000000
  70
    32
  0
VERTEX
  8
0
  5
82F2
 10
90.5948
 20
195.863
 30
0.000000
  70
    32
  0
VERTEX
  8
0
  5
82F3
 10
90.5724
 20
195.846
 30
0.000000
  70
    32
  0
VERTEX
  8
0
  5
82F4
 10
90.5504
 20
195.829
 30
0.000000
  70
    32
  0
VERTEX
  8
0
  5
82F5
 10
90.5286
 20
195.811
 30
0.000000
  70
    32
  0
VERTEX
  8
0
  5
82F6
 10
90.5071
 20
195.792
 30
0.000000
  70
    32
  0
VERTEX
  8
0
  5
82F7
 10
90.4859
 20
195.772
 30
0.000000
  70
    32
  0
VERTEX
  8
0
  5
82F8
 10
90.4650
 20
195.752
 30
0.000000
  70
    32
  0
VERTEX
  8
0
  5
82F9
 10
90.4444
 20
195.730
 30
0.000000
  70
    32
  0
VERTEX
  8
0
  5
82FA
 10
90.4242
 20
195.708
 30
0.000000
  70
    32
  0
VERTEX
  8
0
  5
82FB
 10
90.4043
 20
195.685
 30
0.000000
  70
    32
  0
VERTEX
  8
0
  5
82FC
 10
90.3848
 20
195.661
 30
0.000000
  70
    32
  0
VERTEX
  8
0
  5
82FD
 10
90.3656
 20
195.637
 30
0.000000
  70
    32
  0
VERTEX
  8
0
  5
82FE
 10
90.3468
 20
195.612
 30
0.000000
  70
    32
  0
VERTEX
  8
0
  5
82FF
 10
90.3284
 20
195.586
 30
0.000000
  70
    32
  0
VERTEX
  8
0
  5
8300
 10
90.3105
 20
195.559
 30
0.000000
  70
    32
  0
VERTEX
  8
0
  5
8301
 10
90.2929
 20
195.531
 30
0.000000
  70
    32
  0
VERTEX
  8
0
  5
8302
 10
90.2758
 20
195.503
 30
0.000000
  70
    32
  0
VERTEX
  8
0
  5
8303
 10
90.2590
 20
195.474
 30
0.000000
  70
    32
  0
VERTEX
  8
0
  5
8304
 10
90.2428
 20
195.445
 30
0.000000
  70
    32
  0
VERTEX
  8
0
  5
8305
 10
90.2270
 20
195.415
 30
0.000000
  70
    32
  0
VERTEX
  8
0
  5
8306
 10
90.2117
 20
195.384
 30
0.000000
  70
    32
  0
VERTEX
  8
0
  5
8307
 10
90.1968
 20
195.353
 30
0.000000
  70
    32
  0
VERTEX
  8
0
  5
8308
 10
90.1824
 20
195.321
 30
0.000000
  70
    32
  0
VERTEX
  8
0
  5
8309
 10
90.1685
 20
195.289
 30
0.000000
  70
    32
  0
VERTEX
  8
0
  5
830A
 10
90.1551
 20
195.256
 30
0.000000
  70
    32
  0
VERTEX
  8
0
  5
830B
 10
90.1423
 20
195.223
 30
0.000000
  70
    32
  0
VERTEX
  8
0
  5
830C
 10
90.1299
 20
195.189
 30
0.000000
  70
    32
  0
VERTEX
  8
0
  5
830D
 10
90.1181
 20
195.154
 30
0.000000
  70
    32
  0
VERTEX
  8
0
  5
830E
 10
90.1068
 20
195.119
 30
0.000000
  70
    32
  0
VERTEX
  8
0
  5
830F
 10
90.0960
 20
195.084
 30
0.000000
  70
    32
  0
VERTEX
  8
0
  5
8310
 10
90.0858
 20
195.048
 30
0.000000
  70
    32
  0
VERTEX
  8
0
  5
8311
 10
90.0761
 20
195.012
 30
0.000000
  70
    32
  0
VERTEX
  8
0
  5
8312
 10
90.0670
 20
194.976
 30
0.000000
  70
    32
  0
VERTEX
  8
0
  5
8313
 10
90.0585
 20
194.939
 30
0.000000
  70
    32
  0
VERTEX
  8
0
  5
8314
 10
90.0505
 20
194.902
 30
0.000000
  70
    32
  0
VERTEX
  8
0
  5
8315
 10
90.0431
 20
194.864
 30
0.000000
  70
    32
  0
VERTEX
  8
0
  5
8316
 10
90.0362
 20
194.827
 30
0.000000
  70
    32
  0
VERTEX
  8
0
  5
8317
 10
90.0300
 20
194.789
 30
0.000000
  70
    32
  0
VERTEX
  8
0
  5
8318
 10
90.0243
 20
194.751
 30
0.000000
  70
    32
  0
VERTEX
  8
0
  5
8319
 10
90.0192
 20
194.712
 30
0.000000
  70
    32
  0
VERTEX
  8
0
  5
831A
 10
90.0147
 20
194.674
 30
0.000000
  70
    32
  0
VERTEX
  8
0
  5
831B
 10
90.0108
 20
194.635
 30
0.000000
  70
    32
  0
VERTEX
  8
0
  5
831C
 10
90.0075
 20
194.596
 30
0.000000
  70
    32
  0
VERTEX
  8
0
  5
831D
 10
90.0048
 20
194.557
 30
0.000000
  70
    32
  0
VERTEX
  8
0
  5
831E
 10
90.0027
 20
194.518
 30
0.000000
  70
    32
  0
VERTEX
  8
0
  5
831F
 10
90.0012
 20
194.479
 30
0.000000
  70
    32
  0
VERTEX
  8
0
  5
8320
 10
90.0003
 20
194.439
 30
0.000000
  70
    32
  0
VERTEX
  8
0
  5
8321
 10
90.0000
 20
194.400
 30
0.000000
  70
    32
  0
VERTEX
  8
0
  5
8322
 10
90.0003
 20
194.361
 30
0.000000
  70
    32
  0
VERTEX
  8
0
  5
8323
 10
90.0012
 20
194.321
 30
0.000000
  70
    32
  0
VERTEX
  8
0
  5
8324
 10
90.0027
 20
194.282
 30
0.000000
  70
    32
  0
VERTEX
  8
0
  5
8325
 10
90.0048
 20
194.243
 30
0.000000
  70
    32
  0
VERTEX
  8
0
  5
8326
 10
90.0075
 20
194.204
 30
0.000000
  70
    32
  0
VERTEX
  8
0
  5
8327
 10
90.0108
 20
194.165
 30
0.000000
  70
    32
  0
VERTEX
  8
0
  5
8328
 10
90.0147
 20
194.126
 30
0.000000
  70
    32
  0
VERTEX
  8
0
  5
8329
 10
90.0192
 20
194.088
 30
0.000000
  70
    32
  0
VERTEX
  8
0
  5
832A
 10
90.0243
 20
194.049
 30
0.000000
  70
    32
  0
VERTEX
  8
0
  5
832B
 10
90.0300
 20
194.011
 30
0.000000
  70
    32
  0
VERTEX
  8
0
  5
832C
 10
90.0362
 20
193.973
 30
0.000000
  70
    32
  0
VERTEX
  8
0
  5
832D
 10
90.0431
 20
193.936
 30
0.000000
  70
    32
  0
VERTEX
  8
0
  5
832E
 10
90.0505
 20
193.898
 30
0.000000
  70
    32
  0
VERTEX
  8
0
  5
832F
 10
90.0585
 20
193.861
 30
0.000000
  70
    32
  0
VERTEX
  8
0
  5
8330
 10
90.0670
 20
193.824
 30
0.000000
  70
    32
  0
VERTEX
  8
0
  5
8331
 10
90.0761
 20
193.788
 30
0.000000
  70
    32
  0
VERTEX
  8
0
  5
8332
 10
90.0858
 20
193.752
 30
0.000000
  70
    32
  0
VERTEX
  8
0
  5
8333
 10
90.0960
 20
193.716
 30
0.000000
  70
    32
  0
VERTEX
  8
0
  5
8334
 10
90.1068
 20
193.681
 30
0.000000
  70
    32
  0
VERTEX
  8
0
  5
8335
 10
90.1181
 20
193.646
 30
0.000000
  70
    32
  0
VERTEX
  8
0
  5
8336
 10
90.1299
 20
193.611
 30
0.000000
  70
    32
  0
VERTEX
  8
0
  5
8337
 10
90.1423
 20
193.577
 30
0.000000
  70
    32
  0
VERTEX
  8
0
  5
8338
 10
90.1551
 20
193.544
 30
0.000000
  70
    32
  0
VERTEX
  8
0
  5
8339
 10
90.1685
 20
193.511
 30
0.000000
  70
    32
  0
VERTEX
  8
0
  5
833A
 10
90.1824
 20
193.479
 30
0.000000
  70
    32
  0
VERTEX
  8
0
  5
833B
 10
90.1968
 20
193.447
 30
0.000000
  70
    32
  0
VERTEX
  8
0
  5
833C
 10
90.2117
 20
193.416
 30
0.000000
  70
    32
  0
VERTEX
  8
0
  5
833D
 10
90.2270
 20
193.385
 30
0.000000
  70
    32
  0
VERTEX
  8
0
  5
833E
 10
90.2428
 20
193.355
 30
0.000000
  70
    32
  0
VERTEX
  8
0
  5
833F
 10
90.2590
 20
193.326
 30
0.000000
  70
    32
  0
VERTEX
  8
0
  5
8340
 10
90.2758
 20
193.297
 30
0.000000
  70
    32
  0
VERTEX
  8
0
  5
8341
 10
90.2929
 20
193.269
 30
0.000000
  70
    32
  0
VERTEX
  8
0
  5
8342
 10
90.3105
 20
193.241
 30
0.000000
  70
    32
  0
VERTEX
  8
0
  5
8343
 10
90.3284
 20
193.214
 30
0.000000
  70
    32
  0
VERTEX
  8
0
  5
8344
 10
90.3468
 20
193.188
 30
0.000000
  70
    32
  0
VERTEX
  8
0
  5
8345
 10
90.3656
 20
193.163
 30
0.000000
  70
    32
  0
VERTEX
  8
0
  5
8346
 10
90.3848
 20
193.139
 30
0.000000
  70
    32
  0
VERTEX
  8
0
  5
8347
 10
90.4043
 20
193.115
 30
0.000000
  70
    32
  0
VERTEX
  8
0
  5
8348
 10
90.4242
 20
193.092
 30
0.000000
  70
    32
  0
VERTEX
  8
0
  5
8349
 10
90.4444
 20
193.070
 30
0.000000
  70
    32
  0
VERTEX
  8
0
  5
834A
 10
90.4650
 20
193.048
 30
0.000000
  70
    32
  0
VERTEX
  8
0
  5
834B
 10
90.4859
 20
193.028
 30
0.000000
  70
    32
  0
VERTEX
  8
0
  5
834C
 10
90.5071
 20
193.008
 30
0.000000
  70
    32
  0
VERTEX
  8
0
  5
834D
 10
90.5286
 20
192.989
 30
0.000000
  70
    32
  0
VERTEX
  8
0
  5
834E
 10
90.5504
 20
192.971
 30
0.000000
  70
    32
  0
VERTEX
  8
0
  5
834F
 10
90.5724
 20
192.954
 30
0.000000
  70
    32
  0
VERTEX
  8
0
  5
8350
 10
90.5948
 20
192.937
 30
0.000000
  70
    32
  0
VERTEX
  8
0
  5
8351
 10
90.6173
 20
192.922
 30
0.000000
  70
    32
  0
VERTEX
  8
0
  5
8352
 10
90.6401
 20
192.907
 30
0.000000
  70
    32
  0
VERTEX
  8
0
  5
8353
 10
90.6631
 20
192.894
 30
0.000000
  70
    32
  0
VERTEX
  8
0
  5
8354
 10
90.6863
 20
192.881
 30
0.000000
  70
    32
  0
VERTEX
  8
0
  5
8355
 10
90.7097
 20
192.869
 30
0.000000
  70
    32
  0
VERTEX
  8
0
  5
8356
 10
90.7333
 20
192.858
 30
0.000000
  70
    32
  0
VERTEX
  8
0
  5
8357
 10
90.7570
 20
192.848
 30
0.000000
  70
    32
  0
VERTEX
  8
0
  5
8358
 10
90.7809
 20
192.839
 30
0.000000
  70
    32
  0
VERTEX
  8
0
  5
8359
 10
90.8049
 20
192.831
 30
0.000000
  70
    32
  0
VERTEX
  8
0
  5
835A
 10
90.8290
 20
192.824
 30
0.000000
  70
    32
  0
VERTEX
  8
0
  5
835B
 10
90.8533
 20
192.817
 30
0.000000
  70
    32
  0
VERTEX
  8
0
  5
835C
 10
90.8776
 20
192.812
 30
0.000000
  70
    32
  0
VERTEX
  8
0
  5
835D
 10
90.9020
 20
192.808
 30
0.000000
  70
    32
  0
VERTEX
  8
0
  5
835E
 10
90.9264
 20
192.804
 30
0.000000
  70
    32
  0
VERTEX
  8
0
  5
835F
 10
90.9509
 20
192.802
 30
0.000000
  70
    32
  0
VERTEX
  8
0
  5
8360
 10
90.9755
 20
192.800
 30
0.000000
  70
    32
  0
VERTEX
  8
0
  5
8361
 10
91.0000
 20
192.800
 30
0.000000
  70
    32
  0
SEQEND
  8
0
  5
8362
  0
POLYLINE
  5
7CC3
  8
0
 10
109.0
 20
168.80000107288393
 30
0.0
 66
     1
 70
     8
  0
VERTEX
  8
0
  5
8363
 10
109.000
 20
168.800
 30
0.000000
  70
    32
  0
VERTEX
  8
0
  5
8364
 10
109.025
 20
168.800
 30
0.000000
  70
    32
  0
VERTEX
  8
0
  5
8365
 10
109.049
 20
168.802
 30
0.000000
  70
    32
  0
VERTEX
  8
0
  5
8366
 10
109.074
 20
168.804
 30
0.000000
  70
    32
  0
VERTEX
  8
0
  5
8367
 10
109.098
 20
168.808
 30
0.000000
  70
    32
  0
VERTEX
  8
0
  5
8368
 10
109.122
 20
168.812
 30
0.000000
  70
    32
  0
VERTEX
  8
0
  5
8369
 10
109.147
 20
168.817
 30
0.000000
  70
    32
  0
VERTEX
  8
0
  5
836A
 10
109.171
 20
168.824
 30
0.000000
  70
    32
  0
VERTEX
  8
0
  5
836B
 10
109.195
 20
168.831
 30
0.000000
  70
    32
  0
VERTEX
  8
0
  5
836C
 10
109.219
 20
168.839
 30
0.000000
  70
    32
  0
VERTEX
  8
0
  5
836D
 10
109.243
 20
168.848
 30
0.000000
  70
    32
  0
VERTEX
  8
0
  5
836E
 10
109.267
 20
168.858
 30
0.000000
  70
    32
  0
VERTEX
  8
0
  5
836F
 10
109.290
 20
168.869
 30
0.000000
  70
    32
  0
VERTEX
  8
0
  5
8370
 10
109.314
 20
168.881
 30
0.000000
  70
    32
  0
VERTEX
  8
0
  5
8371
 10
109.337
 20
168.894
 30
0.000000
  70
    32
  0
VERTEX
  8
0
  5
8372
 10
109.360
 20
168.907
 30
0.000000
  70
    32
  0
VERTEX
  8
0
  5
8373
 10
109.383
 20
168.922
 30
0.000000
  70
    32
  0
VERTEX
  8
0
  5
8374
 10
109.405
 20
168.937
 30
0.000000
  70
    32
  0
VERTEX
  8
0
  5
8375
 10
109.428
 20
168.954
 30
0.000000
  70
    32
  0
VERTEX
  8
0
  5
8376
 10
109.450
 20
168.971
 30
0.000000
  70
    32
  0
VERTEX
  8
0
  5
8377
 10
109.471
 20
168.989
 30
0.000000
  70
    32
  0
VERTEX
  8
0
  5
8378
 10
109.493
 20
169.008
 30
0.000000
  70
    32
  0
VERTEX
  8
0
  5
8379
 10
109.514
 20
169.028
 30
0.000000
  70
    32
  0
VERTEX
  8
0
  5
837A
 10
109.535
 20
169.048
 30
0.000000
  70
    32
  0
VERTEX
  8
0
  5
837B
 10
109.556
 20
169.070
 30
0.000000
  70
    32
  0
VERTEX
  8
0
  5
837C
 10
109.576
 20
169.092
 30
0.000000
  70
    32
  0
VERTEX
  8
0
  5
837D
 10
109.596
 20
169.115
 30
0.000000
  70
    32
  0
VERTEX
  8
0
  5
837E
 10
109.615
 20
169.139
 30
0.000000
  70
    32
  0
VERTEX
  8
0
  5
837F
 10
109.634
 20
169.163
 30
0.000000
  70
    32
  0
VERTEX
  8
0
  5
8380
 10
109.653
 20
169.188
 30
0.000000
  70
    32
  0
VERTEX
  8
0
  5
8381
 10
109.672
 20
169.214
 30
0.000000
  70
    32
  0
VERTEX
  8
0
  5
8382
 10
109.690
 20
169.241
 30
0.000000
  70
    32
  0
VERTEX
  8
0
  5
8383
 10
109.707
 20
169.269
 30
0.000000
  70
    32
  0
VERTEX
  8
0
  5
8384
 10
109.724
 20
169.297
 30
0.000000
  70
    32
  0
VERTEX
  8
0
  5
8385
 10
109.741
 20
169.326
 30
0.000000
  70
    32
  0
VERTEX
  8
0
  5
8386
 10
109.757
 20
169.355
 30
0.000000
  70
    32
  0
VERTEX
  8
0
  5
8387
 10
109.773
 20
169.385
 30
0.000000
  70
    32
  0
VERTEX
  8
0
  5
8388
 10
109.788
 20
169.416
 30
0.000000
  70
    32
  0
VERTEX
  8
0
  5
8389
 10
109.803
 20
169.447
 30
0.000000
  70
    32
  0
VERTEX
  8
0
  5
838A
 10
109.818
 20
169.479
 30
0.000000
  70
    32
  0
VERTEX
  8
0
  5
838B
 10
109.831
 20
169.511
 30
0.000000
  70
    32
  0
VERTEX
  8
0
  5
838C
 10
109.845
 20
169.544
 30
0.000000
  70
    32
  0
VERTEX
  8
0
  5
838D
 10
109.858
 20
169.577
 30
0.000000
  70
    32
  0
VERTEX
  8
0
  5
838E
 10
109.870
 20
169.611
 30
0.000000
  70
    32
  0
VERTEX
  8
0
  5
838F
 10
109.882
 20
169.646
 30
0.000000
  70
    32
  0
VERTEX
  8
0
  5
8390
 10
109.893
 20
169.681
 30
0.000000
  70
    32
  0
VERTEX
  8
0
  5
8391
 10
109.904
 20
169.716
 30
0.000000
  70
    32
  0
VERTEX
  8
0
  5
8392
 10
109.914
 20
169.752
 30
0.000000
  70
    32
  0
VERTEX
  8
0
  5
8393
 10
109.924
 20
169.788
 30
0.000000
  70
    32
  0
VERTEX
  8
0
  5
8394
 10
109.933
 20
169.824
 30
0.000000
  70
    32
  0
VERTEX
  8
0
  5
8395
 10
109.942
 20
169.861
 30
0.000000
  70
    32
  0
VERTEX
  8
0
  5
8396
 10
109.950
 20
169.898
 30
0.000000
  70
    32
  0
VERTEX
  8
0
  5
8397
 10
109.957
 20
169.936
 30
0.000000
  70
    32
  0
VERTEX
  8
0
  5
8398
 10
109.964
 20
169.973
 30
0.000000
  70
    32
  0
VERTEX
  8
0
  5
8399
 10
109.970
 20
170.011
 30
0.000000
  70
    32
  0
VERTEX
  8
0
  5
839A
 10
109.976
 20
170.049
 30
0.000000
  70
    32
  0
VERTEX
  8
0
  5
839B
 10
109.981
 20
170.088
 30
0.000000
  70
    32
  0
VERTEX
  8
0
  5
839C
 10
109.985
 20
170.126
 30
0.000000
  70
    32
  0
VERTEX
  8
0
  5
839D
 10
109.989
 20
170.165
 30
0.000000
  70
    32
  0
VERTEX
  8
0
  5
839E
 10
109.992
 20
170.204
 30
0.000000
  70
    32
  0
VERTEX
  8
0
  5
839F
 10
109.995
 20
170.243
 30
0.000000
  70
    32
  0
VERTEX
  8
0
  5
83A0
 10
109.997
 20
170.282
 30
0.000000
  70
    32
  0
VERTEX
  8
0
  5
83A1
 10
109.999
 20
170.321
 30
0.000000
  70
    32
  0
VERTEX
  8
0
  5
83A2
 10
110.000
 20
170.361
 30
0.000000
  70
    32
  0
VERTEX
  8
0
  5
83A3
 10
110.000
 20
170.400
 30
0.000000
  70
    32
  0
VERTEX
  8
0
  5
83A4
 10
110.000
 20
170.439
 30
0.000000
  70
    32
  0
VERTEX
  8
0
  5
83A5
 10
109.999
 20
170.479
 30
0.000000
  70
    32
  0
VERTEX
  8
0
  5
83A6
 10
109.997
 20
170.518
 30
0.000000
  70
    32
  0
VERTEX
  8
0
  5
83A7
 10
109.995
 20
170.557
 30
0.000000
  70
    32
  0
VERTEX
  8
0
  5
83A8
 10
109.992
 20
170.596
 30
0.000000
  70
    32
  0
VERTEX
  8
0
  5
83A9
 10
109.989
 20
170.635
 30
0.000000
  70
    32
  0
VERTEX
  8
0
  5
83AA
 10
109.985
 20
170.674
 30
0.000000
  70
    32
  0
VERTEX
  8
0
  5
83AB
 10
109.981
 20
170.712
 30
0.000000
  70
    32
  0
VERTEX
  8
0
  5
83AC
 10
109.976
 20
170.751
 30
0.000000
  70
    32
  0
VERTEX
  8
0
  5
83AD
 10
109.970
 20
170.789
 30
0.000000
  70
    32
  0
VERTEX
  8
0
  5
83AE
 10
109.964
 20
170.827
 30
0.000000
  70
    32
  0
VERTEX
  8
0
  5
83AF
 10
109.957
 20
170.864
 30
0.000000
  70
    32
  0
VERTEX
  8
0
  5
83B0
 10
109.950
 20
170.902
 30
0.000000
  70
    32
  0
VERTEX
  8
0
  5
83B1
 10
109.942
 20
170.939
 30
0.000000
  70
    32
  0
VERTEX
  8
0
  5
83B2
 10
109.933
 20
170.976
 30
0.000000
  70
    32
  0
VERTEX
  8
0
  5
83B3
 10
109.924
 20
171.012
 30
0.000000
  70
    32
  0
VERTEX
  8
0
  5
83B4
 10
109.914
 20
171.048
 30
0.000000
  70
    32
  0
VERTEX
  8
0
  5
83B5
 10
109.904
 20
171.084
 30
0.000000
  70
    32
  0
VERTEX
  8
0
  5
83B6
 10
109.893
 20
171.119
 30
0.000000
  70
    32
  0
VERTEX
  8
0
  5
83B7
 10
109.882
 20
171.154
 30
0.000000
  70
    32
  0
VERTEX
  8
0
  5
83B8
 10
109.870
 20
171.189
 30
0.000000
  70
    32
  0
VERTEX
  8
0
  5
83B9
 10
109.858
 20
171.223
 30
0.000000
  70
    32
  0
VERTEX
  8
0
  5
83BA
 10
109.845
 20
171.256
 30
0.000000
  70
    32
  0
VERTEX
  8
0
  5
83BB
 10
109.831
 20
171.289
 30
0.000000
  70
    32
  0
VERTEX
  8
0
  5
83BC
 10
109.818
 20
171.321
 30
0.000000
  70
    32
  0
VERTEX
  8
0
  5
83BD
 10
109.803
 20
171.353
 30
0.000000
  70
    32
  0
VERTEX
  8
0
  5
83BE
 10
109.788
 20
171.384
 30
0.000000
  70
    32
  0
VERTEX
  8
0
  5
83BF
 10
109.773
 20
171.415
 30
0.000000
  70
    32
  0
VERTEX
  8
0
  5
83C0
 10
109.757
 20
171.445
 30
0.000000
  70
    32
  0
VERTEX
  8
0
  5
83C1
 10
109.741
 20
171.474
 30
0.000000
  70
    32
  0
VERTEX
  8
0
  5
83C2
 10
109.724
 20
171.503
 30
0.000000
  70
    32
  0
VERTEX
  8
0
  5
83C3
 10
109.707
 20
171.531
 30
0.000000
  70
    32
  0
VERTEX
  8
0
  5
83C4
 10
109.690
 20
171.559
 30
0.000000
  70
    32
  0
VERTEX
  8
0
  5
83C5
 10
109.672
 20
171.586
 30
0.000000
  70
    32
  0
VERTEX
  8
0
  5
83C6
 10
109.653
 20
171.612
 30
0.000000
  70
    32
  0
VERTEX
  8
0
  5
83C7
 10
109.634
 20
171.637
 30
0.000000
  70
    32
  0
VERTEX
  8
0
  5
83C8
 10
109.615
 20
171.661
 30
0.000000
  70
    32
  0
VERTEX
  8
0
  5
83C9
 10
109.596
 20
171.685
 30
0.000000
  70
    32
  0
VERTEX
  8
0
  5
83CA
 10
109.576
 20
171.708
 30
0.000000
  70
    32
  0
VERTEX
  8
0
  5
83CB
 10
109.556
 20
171.730
 30
0.000000
  70
    32
  0
VERTEX
  8
0
  5
83CC
 10
109.535
 20
171.752
 30
0.000000
  70
    32
  0
VERTEX
  8
0
  5
83CD
 10
109.514
 20
171.772
 30
0.000000
  70
    32
  0
VERTEX
  8
0
  5
83CE
 10
109.493
 20
171.792
 30
0.000000
  70
    32
  0
VERTEX
  8
0
  5
83CF
 10
109.471
 20
171.811
 30
0.000000
  70
    32
  0
VERTEX
  8
0
  5
83D0
 10
109.450
 20
171.829
 30
0.000000
  70
    32
  0
VERTEX
  8
0
  5
83D1
 10
109.428
 20
171.846
 30
0.000000
  70
    32
  0
VERTEX
  8
0
  5
83D2
 10
109.405
 20
171.863
 30
0.000000
  70
    32
  0
VERTEX
  8
0
  5
83D3
 10
109.383
 20
171.878
 30
0.000000
  70
    32
  0
VERTEX
  8
0
  5
83D4
 10
109.360
 20
171.893
 30
0.000000
  70
    32
  0
VERTEX
  8
0
  5
83D5
 10
109.337
 20
171.906
 30
0.000000
  70
    32
  0
VERTEX
  8
0
  5
83D6
 10
109.314
 20
171.919
 30
0.000000
  70
    32
  0
VERTEX
  8
0
  5
83D7
 10
109.290
 20
171.931
 30
0.000000
  70
    32
  0
VERTEX
  8
0
  5
83D8
 10
109.267
 20
171.942
 30
0.000000
  70
    32
  0
VERTEX
  8
0
  5
83D9
 10
109.243
 20
171.952
 30
0.000000
  70
    32
  0
VERTEX
  8
0
  5
83DA
 10
109.219
 20
171.961
 30
0.000000
  70
    32
  0
VERTEX
  8
0
  5
83DB
 10
109.195
 20
171.969
 30
0.000000
  70
    32
  0
VERTEX
  8
0
  5
83DC
 10
109.171
 20
171.976
 30
0.000000
  70
    32
  0
VERTEX
  8
0
  5
83DD
 10
109.147
 20
171.983
 30
0.000000
  70
    32
  0
VERTEX
  8
0
  5
83DE
 10
109.122
 20
171.988
 30
0.000000
  70
    32
  0
VERTEX
  8
0
  5
83DF
 10
109.098
 20
171.992
 30
0.000000
  70
    32
  0
VERTEX
  8
0
  5
83E0
 10
109.074
 20
171.996
 30
0.000000
  70
    32
  0
VERTEX
  8
0
  5
83E1
 10
109.049
 20
171.998
 30
0.000000
  70
    32
  0
VERTEX
  8
0
  5
83E2
 10
109.025
 20
172.000
 30
0.000000
  70
    32
  0
VERTEX
  8
0
  5
83E3
 10
109.000
 20
172.000
 30
0.000000
  70
    32
  0
SEQEND
  8
0
  5
83E4
  0
POLYLINE
  5
7CC4
  8
0
 10
90.999999999999886
 20
172.00000107288386
 30
0.0
 66
     1
 70
     8
  0
VERTEX
  8
0
  5
83E5
 10
91.0000
 20
172.000
 30
0.000000
  70
    32
  0
VERTEX
  8
0
  5
83E6
 10
90.9755
 20
172.000
 30
0.000000
  70
    32
  0
VERTEX
  8
0
  5
83E7
 10
90.9509
 20
171.998
 30
0.000000
  70
    32
  0
VERTEX
  8
0
  5
83E8
 10
90.9264
 20
171.996
 30
0.000000
  70
    32
  0
VERTEX
  8
0
  5
83E9
 10
90.9020
 20
171.992
 30
0.000000
  70
    32
  0
VERTEX
  8
0
  5
83EA
 10
90.8776
 20
171.988
 30
0.000000
  70
    32
  0
VERTEX
  8
0
  5
83EB
 10
90.8533
 20
171.983
 30
0.000000
  70
    32
  0
VERTEX
  8
0
  5
83EC
 10
90.8290
 20
171.976
 30
0.000000
  70
    32
  0
VERTEX
  8
0
  5
83ED
 10
90.8049
 20
171.969
 30
0.000000
  70
    32
  0
VERTEX
  8
0
  5
83EE
 10
90.7809
 20
171.961
 30
0.000000
  70
    32
  0
VERTEX
  8
0
  5
83EF
 10
90.7570
 20
171.952
 30
0.000000
  70
    32
  0
VERTEX
  8
0
  5
83F0
 10
90.7333
 20
171.942
 30
0.000000
  70
    32
  0
VERTEX
  8
0
  5
83F1
 10
90.7097
 20
171.931
 30
0.000000
  70
    32
  0
VERTEX
  8
0
  5
83F2
 10
90.6863
 20
171.919
 30
0.000000
  70
    32
  0
VERTEX
  8
0
  5
83F3
 10
90.6631
 20
171.906
 30
0.000000
  70
    32
  0
VERTEX
  8
0
  5
83F4
 10
90.6401
 20
171.893
 30
0.000000
  70
    32
  0
VERTEX
  8
0
  5
83F5
 10
90.6173
 20
171.878
 30
0.000000
  70
    32
  0
VERTEX
  8
0
  5
83F6
 10
90.5948
 20
171.863
 30
0.000000
  70
    32
  0
VERTEX
  8
0
  5
83F7
 10
90.5724
 20
171.846
 30
0.000000
  70
    32
  0
VERTEX
  8
0
  5
83F8
 10
90.5504
 20
171.829
 30
0.000000
  70
    32
  0
VERTEX
  8
0
  5
83F9
 10
90.5286
 20
171.811
 30
0.000000
  70
    32
  0
VERTEX
  8
0
  5
83FA
 10
90.5071
 20
171.792
 30
0.000000
  70
    32
  0
VERTEX
  8
0
  5
83FB
 10
90.4859
 20
171.772
 30
0.000000
  70
    32
  0
VERTEX
  8
0
  5
83FC
 10
90.4650
 20
171.752
 30
0.000000
  70
    32
  0
VERTEX
  8
0
  5
83FD
 10
90.4444
 20
171.730
 30
0.000000
  70
    32
  0
VERTEX
  8
0
  5
83FE
 10
90.4242
 20
171.708
 30
0.000000
  70
    32
  0
VERTEX
  8
0
  5
83FF
 10
90.4043
 20
171.685
 30
0.000000
  70
    32
  0
VERTEX
  8
0
  5
8400
 10
90.3848
 20
171.661
 30
0.000000
  70
    32
  0
VERTEX
  8
0
  5
8401
 10
90.3656
 20
171.637
 30
0.000000
  70
    32
  0
VERTEX
  8
0
  5
8402
 10
90.3468
 20
171.612
 30
0.000000
  70
    32
  0
VERTEX
  8
0
  5
8403
 10
90.3284
 20
171.586
 30
0.000000
  70
    32
  0
VERTEX
  8
0
  5
8404
 10
90.3105
 20
171.559
 30
0.000000
  70
    32
  0
VERTEX
  8
0
  5
8405
 10
90.2929
 20
171.531
 30
0.000000
  70
    32
  0
VERTEX
  8
0
  5
8406
 10
90.2758
 20
171.503
 30
0.000000
  70
    32
  0
VERTEX
  8
0
  5
8407
 10
90.2590
 20
171.474
 30
0.000000
  70
    32
  0
VERTEX
  8
0
  5
8408
 10
90.2428
 20
171.445
 30
0.000000
  70
    32
  0
VERTEX
  8
0
  5
8409
 10
90.2270
 20
171.415
 30
0.000000
  70
    32
  0
VERTEX
  8
0
  5
840A
 10
90.2117
 20
171.384
 30
0.000000
  70
    32
  0
VERTEX
  8
0
  5
840B
 10
90.1968
 20
171.353
 30
0.000000
  70
    32
  0
VERTEX
  8
0
  5
840C
 10
90.1824
 20
171.321
 30
0.000000
  70
    32
  0
VERTEX
  8
0
  5
840D
 10
90.1685
 20
171.289
 30
0.000000
  70
    32
  0
VERTEX
  8
0
  5
840E
 10
90.1551
 20
171.256
 30
0.000000
  70
    32
  0
VERTEX
  8
0
  5
840F
 10
90.1423
 20
171.223
 30
0.000000
  70
    32
  0
VERTEX
  8
0
  5
8410
 10
90.1299
 20
171.189
 30
0.000000
  70
    32
  0
VERTEX
  8
0
  5
8411
 10
90.1181
 20
171.154
 30
0.000000
  70
    32
  0
VERTEX
  8
0
  5
8412
 10
90.1068
 20
171.119
 30
0.000000
  70
    32
  0
VERTEX
  8
0
  5
8413
 10
90.0960
 20
171.084
 30
0.000000
  70
    32
  0
VERTEX
  8
0
  5
8414
 10
90.0858
 20
171.048
 30
0.000000
  70
    32
  0
VERTEX
  8
0
  5
8415
 10
90.0761
 20
171.012
 30
0.000000
  70
    32
  0
VERTEX
  8
0
  5
8416
 10
90.0670
 20
170.976
 30
0.000000
  70
    32
  0
VERTEX
  8
0
  5
8417
 10
90.0585
 20
170.939
 30
0.000000
  70
    32
  0
VERTEX
  8
0
  5
8418
 10
90.0505
 20
170.902
 30
0.000000
  70
    32
  0
VERTEX
  8
0
  5
8419
 10
90.0431
 20
170.864
 30
0.000000
  70
    32
  0
VERTEX
  8
0
  5
841A
 10
90.0362
 20
170.827
 30
0.000000
  70
    32
  0
VERTEX
  8
0
  5
841B
 10
90.0300
 20
170.789
 30
0.000000
  70
    32
  0
VERTEX
  8
0
  5
841C
 10
90.0243
 20
170.751
 30
0.000000
  70
    32
  0
VERTEX
  8
0
  5
841D
 10
90.0192
 20
170.712
 30
0.000000
  70
    32
  0
VERTEX
  8
0
  5
841E
 10
90.0147
 20
170.674
 30
0.000000
  70
    32
  0
VERTEX
  8
0
  5
841F
 10
90.0108
 20
170.635
 30
0.000000
  70
    32
  0
VERTEX
  8
0
  5
8420
 10
90.0075
 20
170.596
 30
0.000000
  70
    32
  0
VERTEX
  8
0
  5
8421
 10
90.0048
 20
170.557
 30
0.000000
  70
    32
  0
VERTEX
  8
0
  5
8422
 10
90.0027
 20
170.518
 30
0.000000
  70
    32
  0
VERTEX
  8
0
  5
8423
 10
90.0012
 20
170.479
 30
0.000000
  70
    32
  0
VERTEX
  8
0
  5
8424
 10
90.0003
 20
170.439
 30
0.000000
  70
    32
  0
VERTEX
  8
0
  5
8425
 10
90.0000
 20
170.400
 30
0.000000
  70
    32
  0
VERTEX
  8
0
  5
8426
 10
90.0003
 20
170.361
 30
0.000000
  70
    32
  0
VERTEX
  8
0
  5
8427
 10
90.0012
 20
170.321
 30
0.000000
  70
    32
  0
VERTEX
  8
0
  5
8428
 10
90.0027
 20
170.282
 30
0.000000
  70
    32
  0
VERTEX
  8
0
  5
8429
 10
90.0048
 20
170.243
 30
0.000000
  70
    32
  0
VERTEX
  8
0
  5
842A
 10
90.0075
 20
170.204
 30
0.000000
  70
    32
  0
VERTEX
  8
0
  5
842B
 10
90.0108
 20
170.165
 30
0.000000
  70
    32
  0
VERTEX
  8
0
  5
842C
 10
90.0147
 20
170.126
 30
0.000000
  70
    32
  0
VERTEX
  8
0
  5
842D
 10
90.0192
 20
170.088
 30
0.000000
  70
    32
  0
VERTEX
  8
0
  5
842E
 10
90.0243
 20
170.049
 30
0.000000
  70
    32
  0
VERTEX
  8
0
  5
842F
 10
90.0300
 20
170.011
 30
0.000000
  70
    32
  0
VERTEX
  8
0
  5
8430
 10
90.0362
 20
169.973
 30
0.000000
  70
    32
  0
VERTEX
  8
0
  5
8431
 10
90.0431
 20
169.936
 30
0.000000
  70
    32
  0
VERTEX
  8
0
  5
8432
 10
90.0505
 20
169.898
 30
0.000000
  70
    32
  0
VERTEX
  8
0
  5
8433
 10
90.0585
 20
169.861
 30
0.000000
  70
    32
  0
VERTEX
  8
0
  5
8434
 10
90.0670
 20
169.824
 30
0.000000
  70
    32
  0
VERTEX
  8
0
  5
8435
 10
90.0761
 20
169.788
 30
0.000000
  70
    32
  0
VERTEX
  8
0
  5
8436
 10
90.0858
 20
169.752
 30
0.000000
  70
    32
  0
VERTEX
  8
0
  5
8437
 10
90.0960
 20
169.716
 30
0.000000
  70
    32
  0
VERTEX
  8
0
  5
8438
 10
90.1068
 20
169.681
 30
0.000000
  70
    32
  0
VERTEX
  8
0
  5
8439
 10
90.1181
 20
169.646
 30
0.000000
  70
    32
  0
VERTEX
  8
0
  5
843A
 10
90.1299
 20
169.611
 30
0.000000
  70
    32
  0
VERTEX
  8
0
  5
843B
 10
90.1423
 20
169.577
 30
0.000000
  70
    32
  0
VERTEX
  8
0
  5
843C
 10
90.1551
 20
169.544
 30
0.000000
  70
    32
  0
VERTEX
  8
0
  5
843D
 10
90.1685
 20
169.511
 30
0.000000
  70
    32
  0
VERTEX
  8
0
  5
843E
 10
90.1824
 20
169.479
 30
0.000000
  70
    32
  0
VERTEX
  8
0
  5
843F
 10
90.1968
 20
169.447
 30
0.000000
  70
    32
  0
VERTEX
  8
0
  5
8440
 10
90.2117
 20
169.416
 30
0.000000
  70
    32
  0
VERTEX
  8
0
  5
8441
 10
90.2270
 20
169.385
 30
0.000000
  70
    32
  0
VERTEX
  8
0
  5
8442
 10
90.2428
 20
169.355
 30
0.000000
  70
    32
  0
VERTEX
  8
0
  5
8443
 10
90.2590
 20
169.326
 30
0.000000
  70
    32
  0
VERTEX
  8
0
  5
8444
 10
90.2758
 20
169.297
 30
0.000000
  70
    32
  0
VERTEX
  8
0
  5
8445
 10
90.2929
 20
169.269
 30
0.000000
  70
    32
  0
VERTEX
  8
0
  5
8446
 10
90.3105
 20
169.241
 30
0.000000
  70
    32
  0
VERTEX
  8
0
  5
8447
 10
90.3284
 20
169.214
 30
0.000000
  70
    32
  0
VERTEX
  8
0
  5
8448
 10
90.3468
 20
169.188
 30
0.000000
  70
    32
  0
VERTEX
  8
0
  5
8449
 10
90.3656
 20
169.163
 30
0.000000
  70
    32
  0
VERTEX
  8
0
  5
844A
 10
90.3848
 20
169.139
 30
0.000000
  70
    32
  0
VERTEX
  8
0
  5
844B
 10
90.4043
 20
169.115
 30
0.000000
  70
    32
  0
VERTEX
  8
0
  5
844C
 10
90.4242
 20
169.092
 30
0.000000
  70
    32
  0
VERTEX
  8
0
  5
844D
 10
90.4444
 20
169.070
 30
0.000000
  70
    32
  0
VERTEX
  8
0
  5
844E
 10
90.4650
 20
169.048
 30
0.000000
  70
    32
  0
VERTEX
  8
0
  5
844F
 10
90.4859
 20
169.028
 30
0.000000
  70
    32
  0
VERTEX
  8
0
  5
8450
 10
90.5071
 20
169.008
 30
0.000000
  70
    32
  0
VERTEX
  8
0
  5
8451
 10
90.5286
 20
168.989
 30
0.000000
  70
    32
  0
VERTEX
  8
0
  5
8452
 10
90.5504
 20
168.971
 30
0.000000
  70
    32
  0
VERTEX
  8
0
  5
8453
 10
90.5724
 20
168.954
 30
0.000000
  70
    32
  0
VERTEX
  8
0
  5
8454
 10
90.5948
 20
168.937
 30
0.000000
  70
    32
  0
VERTEX
  8
0
  5
8455
 10
90.6173
 20
168.922
 30
0.000000
  70
    32
  0
VERTEX
  8
0
  5
8456
 10
90.6401
 20
168.907
 30
0.000000
  70
    32
  0
VERTEX
  8
0
  5
8457
 10
90.6631
 20
168.894
 30
0.000000
  70
    32
  0
VERTEX
  8
0
  5
8458
 10
90.6863
 20
168.881
 30
0.000000
  70
    32
  0
VERTEX
  8
0
  5
8459
 10
90.7097
 20
168.869
 30
0.000000
  70
    32
  0
VERTEX
  8
0
  5
845A
 10
90.7333
 20
168.858
 30
0.000000
  70
    32
  0
VERTEX
  8
0
  5
845B
 10
90.7570
 20
168.848
 30
0.000000
  70
    32
  0
VERTEX
  8
0
  5
845C
 10
90.7809
 20
168.839
 30
0.000000
  70
    32
  0
VERTEX
  8
0
  5
845D
 10
90.8049
 20
168.831
 30
0.000000
  70
    32
  0
VERTEX
  8
0
  5
845E
 10
90.8290
 20
168.824
 30
0.000000
  70
    32
  0
VERTEX
  8
0
  5
845F
 10
90.8533
 20
168.817
 30
0.000000
  70
    32
  0
VERTEX
  8
0
  5
8460
 10
90.8776
 20
168.812
 30
0.000000
  70
    32
  0
VERTEX
  8
0
  5
8461
 10
90.9020
 20
168.808
 30
0.000000
  70
    32
  0
VERTEX
  8
0
  5
8462
 10
90.9264
 20
168.804
 30
0.000000
  70
    32
  0
VERTEX
  8
0
  5
8463
 10
90.9509
 20
168.802
 30
0.000000
  70
    32
  0
VERTEX
  8
0
  5
8464
 10
90.9755
 20
168.800
 30
0.000000
  70
    32
  0
VERTEX
  8
0
  5
8465
 10
91.0000
 20
168.800
 30
0.000000
  70
    32
  0
SEQEND
  8
0
  5
8466
  0
LINE
  5
7CC5
  8
0
 10
90.000000223517304
 20
192.80000068247341
 30
0.0
 11
90.000000223517304
 21
191.80000051856061
 31
0.0
  0
LINE
  5
7CC6
  8
0
 10
109.9999997764826
 20
191.80000051856061
 30
0.0
 11
109.9999997764826
 21
192.80000068247341
 31
0.0
  0
LINE
  5
7CC7
  8
0
 10
90.000000223517304
 20
168.8000023365023
 30
0.0
 11
90.000000223517304
 21
166.35000184178381
 31
0.0
  0
LINE
  5
7CC8
  8
0
 10
109.9999997764826
 20
166.35000184178381
 30
0.0
 11
109.9999997764826
 21
168.8000023365023
 31
0.0
  0
LINE
  5
7CC9
  8
0
 10
90.000000223517304
 20
185.0000008940699
 30
0.0
 11
90.000000223517304
 21
184.0000007301571
 31
0.0
  0
LINE
  5
7CCA
  8
0
 10
109.9999997764826
 20
184.0000007301571
 30
0.0
 11
109.9999997764826
 21
185.0000008940699
 31
0.0
  0
LINE
  5
7CCB
  8
0
 10
90.000000223517304
 20
191.80000051856061
 30
0.0
 11
90.299999713897591
 21
191.50000102818041
 31
0.0
  0
LINE
  5
7CCC
  8
0
 10
109.70000028610229
 20
191.50000102818041
 30
0.0
 11
109.9999997764826
 21
191.80000051856061
 31
0.0
  0
LINE
  5
7CCD
  8
0
 10
90.000000223517304
 20
197.000000998378
 30
0.0
 11
90.000000223517304
 21
196.0000008344652
 31
0.0
  0
LINE
  5
7CCE
  8
0
 10
109.9999997764826
 20
196.0000008344652
 30
0.0
 11
109.9999997764826
 21
197.000000998378
 31
0.0
  0
LINE
  5
7CCF
  8
0
 10
90.000000223517304
 20
179.80000227689769
 30
0.0
 11
90.299999713897591
 21
179.50000092387219
 31
0.0
  0
LINE
  5
7CD0
  8
0
 10
109.70000028610229
 20
179.50000092387219
 30
0.0
 11
109.9999997764826
 21
179.80000227689769
 31
0.0
  0
LINE
  5
7CD1
  8
0
 10
90.000000223517304
 20
163.79999965429329
 30
0.0
 11
90.299999713897591
 21
163.50000202655821
 31
0.0
  0
LINE
  5
7CD2
  8
0
 10
109.70000028610229
 20
163.50000202655821
 30
0.0
 11
109.9999997764826
 21
163.79999965429329
 31
0.0
  0
LINE
  5
7CD3
  8
0
 10
109.9999997764826
 20
197.000000998378
 30
0.0
 11
109.70000028610229
 21
197.30000048875829
 31
0.0
  0
LINE
  5
7CD4
  8
0
 10
90.299999713897591
 20
197.30000048875829
 30
0.0
 11
90.000000223517304
 21
197.000000998378
 31
0.0
  0
LINE
  5
7CD5
  8
0
 10
90.000000223517304
 20
165.00000134110471
 30
0.0
 11
90.000000223517304
 21
163.79999965429329
 31
0.0
  0
LINE
  5
7CD6
  8
0
 10
109.9999997764826
 20
163.79999965429329
 30
0.0
 11
109.9999997764826
 21
165.00000134110471
 31
0.0
  0
LINE
  5
7CD7
  8
0
 10
90.000000223517304
 20
173.00000265240689
 30
0.0
 11
90.000000223517304
 21
172.000000625849
 31
0.0
  0
LINE
  5
7CD8
  8
0
 10
109.9999997764826
 20
172.000000625849
 30
0.0
 11
109.9999997764826
 21
173.00000265240689
 31
0.0
  0
LINE
  5
7CD9
  8
0
 10
109.9999997764826
 20
173.00000265240689
 30
0.0
 11
109.70000028610229
 21
173.30000028014209
 31
0.0
  0
LINE
  5
7CDA
  8
0
 10
90.299999713897591
 20
173.30000028014209
 30
0.0
 11
90.000000223517304
 21
173.00000265240689
 31
0.0
  0
LINE
  5
7CDB
  8
0
 10
109.9999997764826
 20
185.0000008940699
 30
0.0
 11
109.70000028610229
 21
185.30000038445019
 31
0.0
  0
LINE
  5
7CDC
  8
0
 10
90.299999713897591
 20
185.30000038445019
 30
0.0
 11
90.000000223517304
 21
185.0000008940699
 31
0.0
  0
LINE
  5
7CDD
  8
0
 10
90.000000223517304
 20
180.80000057816531
 30
0.0
 11
90.000000223517304
 21
179.80000227689769
 31
0.0
  0
LINE
  5
7CDE
  8
0
 10
109.9999997764826
 20
179.80000227689769
 30
0.0
 11
109.9999997764826
 21
180.80000057816531
 31
0.0
  0
LINE
  5
7CDF
  8
0
 10
90.299999713897591
 20
162.69999966025381
 30
0.0
 11
90.500000305473691
 21
162.5000000000002
 31
0.0
  0
LINE
  5
7CE0
  8
0
 10
109.4999996945262
 20
162.5000000000002
 30
0.0
 11
109.70000028610229
 21
162.69999966025381
 31
0.0
  0
LINE
  5
7CE1
  8
0
 10
90.299999713897591
 20
163.50000202655821
 30
0.0
 11
90.299999713897591
 21
162.69999966025381
 31
0.0
  0
LINE
  5
7CE2
  8
0
 10
109.70000028610229
 20
162.69999966025381
 30
0.0
 11
109.70000028610229
 21
163.50000202655821
 31
0.0
  0
LINE
  5
7CE3
  8
0
 10
90.299999713897591
 20
179.50000092387219
 30
0.0
 11
90.299999713897591
 21
173.30000028014209
 31
0.0
  0
LINE
  5
7CE4
  8
0
 10
109.70000028610229
 20
173.30000028014209
 30
0.0
 11
109.70000028610229
 21
179.50000092387219
 31
0.0
  0
LINE
  5
7CE5
  8
0
 10
90.299999713897591
 20
191.50000102818041
 30
0.0
 11
90.299999713897591
 21
185.30000038445019
 31
0.0
  0
LINE
  5
7CE6
  8
0
 10
109.70000028610229
 20
185.30000038445019
 30
0.0
 11
109.70000028610229
 21
191.50000102818041
 31
0.0
  0
LINE
  5
7CE7
  8
0
 10
90.299999713897591
 20
205.500001460314
 30
0.0
 11
90.299999713897591
 21
197.30000048875829
 31
0.0
  0
LINE
  5
7CE8
  8
0
 10
109.70000028610229
 20
197.30000048875829
 30
0.0
 11
109.70000028610229
 21
205.500001460314
 31
0.0
  0
LINE
  5
7CE9
  8
0
 10
90.500000305473691
 20
166.35000184178381
 30
0.0
 11
90.500000305473691
 21
165.00000134110471
 31
0.0
  0
LINE
  5
7CEA
  8
0
 10
109.4999996945262
 20
165.00000134110471
 30
0.0
 11
109.4999996945262
 21
166.35000184178381
 31
0.0
  0
LINE
  5
7CEB
  8
0
 10
90.000000223517304
 20
192.80000068247341
 30
0.0
 11
109.9999997764826
 21
192.80000068247341
 31
0.0
  0
LINE
  5
7CEC
  8
0
 10
90.000000223517304
 20
166.35000184178381
 30
0.0
 11
109.9999997764826
 21
166.35000184178381
 31
0.0
  0
LINE
  5
7CED
  8
0
 10
90.000000223517304
 20
168.8000023365023
 30
0.0
 11
109.9999997764826
 21
168.8000023365023
 31
0.0
  0
LINE
  5
7CEE
  8
0
 10
90.000000223517304
 20
184.0000007301571
 30
0.0
 11
109.9999997764826
 21
184.0000007301571
 31
0.0
  0
LINE
  5
7CEF
  8
0
 10
90.000000223517304
 20
196.0000008344652
 30
0.0
 11
109.9999997764826
 21
196.0000008344652
 31
0.0
  0
LINE
  5
7CF0
  8
0
 10
90.000000223517304
 20
165.00000134110479
 30
0.0
 11
109.9999997764826
 21
165.00000134110471
 31
0.0
  0
LINE
  5
7CF1
  8
0
 10
90.000000223517404
 20
172.000000625849
 30
0.0
 11
109.9999997764826
 21
172.000000625849
 31
0.0
  0
LINE
  5
7CF2
  8
0
 10
90.000000223517304
 20
180.80000057816531
 30
0.0
 11
109.9999997764826
 21
180.80000057816531
 31
0.0
  0
LINE
  5
7CF3
  8
0
 10
109.4999996945262
 20
162.5000000000002
 30
0.0
 11
90.500000305473691
 21
162.5000000000002
 31
0.0
  0
POLYLINE
  5
7CF4
  8
0
 10
259.0
 20
180.80000107288379
 30
0.0000000000000002
 66
     1
 70
     8
  0
VERTEX
  8
0
  5
8467
 10
259.000
 20
180.800
 30
2.00000e-016
  70
    32
  0
VERTEX
  8
0
  5
8468
 10
259.025
 20
180.800
 30
2.02394e-016
  70
    32
  0
VERTEX
  8
0
  5
8469
 10
259.049
 20
180.802
 30
2.04666e-016
  70
    32
  0
VERTEX
  8
0
  5
846A
 10
259.074
 20
180.804
 30
2.06815e-016
  70
    32
  0
VERTEX
  8
0
  5
846B
 10
259.098
 20
180.808
 30
2.08839e-016
  70
    32
  0
VERTEX
  8
0
  5
846C
 10
259.122
 20
180.812
 30
2.10737e-016
  70
    32
  0
VERTEX
  8
0
  5
846D
 10
259.147
 20
180.817
 30
2.12508e-016
  70
    32
  0
VERTEX
  8
0
  5
846E
 10
259.171
 20
180.824
 30
2.14152e-016
  70
    32
  0
VERTEX
  8
0
  5
846F
 10
259.195
 20
180.831
 30
2.15666e-016
  70
    32
  0
VERTEX
  8
0
  5
8470
 10
259.219
 20
180.839
 30
2.17051e-016
  70
    32
  0
VERTEX
  8
0
  5
8471
 10
259.243
 20
180.848
 30
2.18304e-016
  70
    32
  0
VERTEX
  8
0
  5
8472
 10
259.267
 20
180.858
 30
2.19426e-016
  70
    32
  0
VERTEX
  8
0
  5
8473
 10
259.290
 20
180.869
 30
2.20417e-016
  70
    32
  0
VERTEX
  8
0
  5
8474
 10
259.314
 20
180.881
 30
2.21274e-016
  70
    32
  0
VERTEX
  8
0
  5
8475
 10
259.337
 20
180.894
 30
2.21998e-016
  70
    32
  0
VERTEX
  8
0
  5
8476
 10
259.360
 20
180.907
 30
2.22588e-016
  70
    32
  0
VERTEX
  8
0
  5
8477
 10
259.383
 20
180.922
 30
2.23044e-016
  70
    32
  0
VERTEX
  8
0
  5
8478
 10
259.405
 20
180.937
 30
2.23366e-016
  70
    32
  0
VERTEX
  8
0
  5
8479
 10
259.428
 20
180.954
 30
2.23553e-016
  70
    32
  0
VERTEX
  8
0
  5
847A
 10
259.450
 20
180.971
 30
2.23606e-016
  70
    32
  0
VERTEX
  8
0
  5
847B
 10
259.471
 20
180.989
 30
2.23524e-016
  70
    32
  0
VERTEX
  8
0
  5
847C
 10
259.493
 20
181.008
 30
2.23307e-016
  70
    32
  0
VERTEX
  8
0
  5
847D
 10
259.514
 20
181.028
 30
2.22956e-016
  70
    32
  0
VERTEX
  8
0
  5
847E
 10
259.535
 20
181.048
 30
2.22470e-016
  70
    32
  0
VERTEX
  8
0
  5
847F
 10
259.556
 20
181.070
 30
2.21851e-016
  70
    32
  0
VERTEX
  8
0
  5
8480
 10
259.576
 20
181.092
 30
2.21098e-016
  70
    32
  0
VERTEX
  8
0
  5
8481
 10
259.596
 20
181.115
 30
2.20211e-016
  70
    32
  0
VERTEX
  8
0
  5
8482
 10
259.615
 20
181.139
 30
2.19192e-016
  70
    32
  0
VERTEX
  8
0
  5
8483
 10
259.634
 20
181.163
 30
2.18041e-016
  70
    32
  0
VERTEX
  8
0
  5
8484
 10
259.653
 20
181.188
 30
2.16759e-016
  70
    32
  0
VERTEX
  8
0
  5
8485
 10
259.672
 20
181.214
 30
2.15346e-016
  70
    32
  0
VERTEX
  8
0
  5
8486
 10
259.690
 20
181.241
 30
2.13803e-016
  70
    32
  0
VERTEX
  8
0
  5
8487
 10
259.707
 20
181.269
 30
2.12132e-016
  70
    32
  0
VERTEX
  8
0
  5
8488
 10
259.724
 20
181.297
 30
2.10333e-016
  70
    32
  0
VERTEX
  8
0
  5
8489
 10
259.741
 20
181.326
 30
2.08407e-016
  70
    32
  0
VERTEX
  8
0
  5
848A
 10
259.757
 20
181.355
 30
2.06355e-016
  70
    32
  0
VERTEX
  8
0
  5
848B
 10
259.773
 20
181.385
 30
2.04180e-016
  70
    32
  0
VERTEX
  8
0
  5
848C
 10
259.788
 20
181.416
 30
2.01881e-016
  70
    32
  0
VERTEX
  8
0
  5
848D
 10
259.803
 20
181.447
 30
1.99461e-016
  70
    32
  0
VERTEX
  8
0
  5
848E
 10
259.818
 20
181.479
 30
1.96920e-016
  70
    32
  0
VERTEX
  8
0
  5
848F
 10
259.831
 20
181.511
 30
1.94261e-016
  70
    32
  0
VERTEX
  8
0
  5
8490
 10
259.845
 20
181.544
 30
1.91485e-016
  70
    32
  0
VERTEX
  8
0
  5
8491
 10
259.858
 20
181.577
 30
1.88593e-016
  70
    32
  0
VERTEX
  8
0
  5
8492
 10
259.870
 20
181.611
 30
1.85588e-016
  70
    32
  0
VERTEX
  8
0
  5
8493
 10
259.882
 20
181.646
 30
1.82471e-016
  70
    32
  0
VERTEX
  8
0
  5
8494
 10
259.893
 20
181.681
 30
1.79245e-016
  70
    32
  0
VERTEX
  8
0
  5
8495
 10
259.904
 20
181.716
 30
1.75910e-016
  70
    32
  0
VERTEX
  8
0
  5
8496
 10
259.914
 20
181.752
 30
1.72469e-016
  70
    32
  0
VERTEX
  8
0
  5
8497
 10
259.924
 20
181.788
 30
1.68925e-016
  70
    32
  0
VERTEX
  8
0
  5
8498
 10
259.933
 20
181.824
 30
1.65278e-016
  70
    32
  0
VERTEX
  8
0
  5
8499
 10
259.942
 20
181.861
 30
1.61532e-016
  70
    32
  0
VERTEX
  8
0
  5
849A
 10
259.950
 20
181.898
 30
1.57689e-016
  70
    32
  0
VERTEX
  8
0
  5
849B
 10
259.957
 20
181.936
 30
1.53751e-016
  70
    32
  0
VERTEX
  8
0
  5
849C
 10
259.964
 20
181.973
 30
1.49720e-016
  70
    32
  0
VERTEX
  8
0
  5
849D
 10
259.970
 20
182.011
 30
1.45599e-016
  70
    32
  0
VERTEX
  8
0
  5
849E
 10
259.976
 20
182.049
 30
1.41390e-016
  70
    32
  0
VERTEX
  8
0
  5
849F
 10
259.981
 20
182.088
 30
1.37097e-016
  70
    32
  0
VERTEX
  8
0
  5
84A0
 10
259.985
 20
182.126
 30
1.32720e-016
  70
    32
  0
VERTEX
  8
0
  5
84A1
 10
259.989
 20
182.165
 30
1.28264e-016
  70
    32
  0
VERTEX
  8
0
  5
84A2
 10
259.992
 20
182.204
 30
1.23730e-016
  70
    32
  0
VERTEX
  8
0
  5
84A3
 10
259.995
 20
182.243
 30
1.19122e-016
  70
    32
  0
VERTEX
  8
0
  5
84A4
 10
259.997
 20
182.282
 30
1.14442e-016
  70
    32
  0
VERTEX
  8
0
  5
84A5
 10
259.999
 20
182.321
 30
1.09693e-016
  70
    32
  0
VERTEX
  8
0
  5
84A6
 10
260.000
 20
182.361
 30
1.04878e-016
  70
    32
  0
VERTEX
  8
0
  5
84A7
 10
260.000
 20
182.400
 30
1.00000e-016
  70
    32
  0
VERTEX
  8
0
  5
84A8
 10
260.000
 20
182.439
 30
9.50616e-017
  70
    32
  0
VERTEX
  8
0
  5
84A9
 10
259.999
 20
182.479
 30
9.00660e-017
  70
    32
  0
VERTEX
  8
0
  5
84AA
 10
259.997
 20
182.518
 30
8.50161e-017
  70
    32
  0
VERTEX
  8
0
  5
84AB
 10
259.995
 20
182.557
 30
7.99150e-017
  70
    32
  0
VERTEX
  8
0
  5
84AC
 10
259.992
 20
182.596
 30
7.47658e-017
  70
    32
  0
VERTEX
  8
0
  5
84AD
 10
259.989
 20
182.635
 30
6.95716e-017
  70
    32
  0
VERTEX
  8
0
  5
84AE
 10
259.985
 20
182.674
 30
6.43354e-017
  70
    32
  0
VERTEX
  8
0
  5
84AF
 10
259.981
 20
182.712
 30
5.90605e-017
  70
    32
  0
VERTEX
  8
0
  5
84B0
 10
259.976
 20
182.751
 30
5.37500e-017
  70
    32
  0
VERTEX
  8
0
  5
84B1
 10
259.970
 20
182.789
 30
4.84071e-017
  70
    32
  0
VERTEX
  8
0
  5
84B2
 10
259.964
 20
182.827
 30
4.30351e-017
  70
    32
  0
VERTEX
  8
0
  5
84B3
 10
259.957
 20
182.864
 30
3.76371e-017
  70
    32
  0
VERTEX
  8
0
  5
84B4
 10
259.950
 20
182.902
 30
3.22165e-017
  70
    32
  0
VERTEX
  8
0
  5
84B5
 10
259.942
 20
182.939
 30
2.67764e-017
  70
    32
  0
VERTEX
  8
0
  5
84B6
 10
259.933
 20
182.976
 30
2.13203e-017
  70
    32
  0
VERTEX
  8
0
  5
84B7
 10
259.924
 20
183.012
 30
1.58513e-017
  70
    32
  0
VERTEX
  8
0
  5
84B8
 10
259.914
 20
183.048
 30
1.03727e-017
  70
    32
  0
VERTEX
  8
0
  5
84B9
 10
259.904
 20
183.084
 30
4.88791e-018
  70
    32
  0
VERTEX
  8
0
  5
84BA
 10
259.893
 20
183.119
 30
-5.99836e-019
  70
    32
  0
VERTEX
  8
0
  5
84BB
 10
259.882
 20
183.154
 30
-6.08722e-018
  70
    32
  0
VERTEX
  8
0
  5
84BC
 10
259.870
 20
183.189
 30
-1.15709e-017
  70
    32
  0
VERTEX
  8
0
  5
84BD
 10
259.858
 20
183.223
 30
-1.70477e-017
  70
    32
  0
VERTEX
  8
0
  5
84BE
 10
259.845
 20
183.256
 30
-2.25142e-017
  70
    32
  0
VERTEX
  8
0
  5
84BF
 10
259.831
 20
183.289
 30
-2.79671e-017
  70
    32
  0
VERTEX
  8
0
  5
84C0
 10
259.818
 20
183.321
 30
-3.34032e-017
  70
    32
  0
VERTEX
  8
0
  5
84C1
 10
259.803
 20
183.353
 30
-3.88191e-017
  70
    32
  0
VERTEX
  8
0
  5
84C2
 10
259.788
 20
183.384
 30
-4.42117e-017
  70
    32
  0
VERTEX
  8
0
  5
84C3
 10
259.773
 20
183.415
 30
-4.95776e-017
  70
    32
  0
VERTEX
  8
0
  5
84C4
 10
259.757
 20
183.445
 30
-5.49137e-017
  70
    32
  0
VERTEX
  8
0
  5
84C5
 10
259.741
 20
183.474
 30
-6.02167e-017
  70
    32
  0
VERTEX
  8
0
  5
84C6
 10
259.724
 20
183.503
 30
-6.54834e-017
  70
    32
  0
VERTEX
  8
0
  5
84C7
 10
259.707
 20
183.531
 30
-7.07107e-017
  70
    32
  0
VERTEX
  8
0
  5
84C8
 10
259.690
 20
183.559
 30
-7.58954e-017
  70
    32
  0
VERTEX
  8
0
  5
84C9
 10
259.672
 20
183.586
 30
-8.10343e-017
  70
    32
  0
VERTEX
  8
0
  5
84CA
 10
259.653
 20
183.612
 30
-8.61245e-017
  70
    32
  0
VERTEX
  8
0
  5
84CB
 10
259.634
 20
183.637
 30
-9.11628e-017
  70
    32
  0
VERTEX
  8
0
  5
84CC
 10
259.615
 20
183.661
 30
-9.61461e-017
  70
    32
  0
VERTEX
  8
0
  5
84CD
 10
259.596
 20
183.685
 30
-1.01072e-016
  70
    32
  0
VERTEX
  8
0
  5
84CE
 10
259.576
 20
183.708
 30
-1.05936e-016
  70
    32
  0
VERTEX
  8
0
  5
84CF
 10
259.556
 20
183.730
 30
-1.10737e-016
  70
    32
  0
VERTEX
  8
0
  5
84D0
 10
259.535
 20
183.752
 30
-1.15471e-016
  70
    32
  0
VERTEX
  8
0
  5
84D1
 10
259.514
 20
183.772
 30
-1.20135e-016
  70
    32
  0
VERTEX
  8
0
  5
84D2
 10
259.493
 20
183.792
 30
-1.24728e-016
  70
    32
  0
VERTEX
  8
0
  5
84D3
 10
259.471
 20
183.811
 30
-1.29245e-016
  70
    32
  0
VERTEX
  8
0
  5
84D4
 10
259.450
 20
183.829
 30
-1.33684e-016
  70
    32
  0
VERTEX
  8
0
  5
84D5
 10
259.428
 20
183.846
 30
-1.38042e-016
  70
    32
  0
VERTEX
  8
0
  5
84D6
 10
259.405
 20
183.863
 30
-1.42318e-016
  70
    32
  0
VERTEX
  8
0
  5
84D7
 10
259.383
 20
183.878
 30
-1.46508e-016
  70
    32
  0
VERTEX
  8
0
  5
84D8
 10
259.360
 20
183.893
 30
-1.50609e-016
  70
    32
  0
VERTEX
  8
0
  5
84D9
 10
259.337
 20
183.906
 30
-1.54620e-016
  70
    32
  0
VERTEX
  8
0
  5
84DA
 10
259.314
 20
183.919
 30
-1.58537e-016
  70
    32
  0
VERTEX
  8
0
  5
84DB
 10
259.290
 20
183.931
 30
-1.62360e-016
  70
    32
  0
VERTEX
  8
0
  5
84DC
 10
259.267
 20
183.942
 30
-1.66084e-016
  70
    32
  0
VERTEX
  8
0
  5
84DD
 10
259.243
 20
183.952
 30
-1.69708e-016
  70
    32
  0
VERTEX
  8
0
  5
84DE
 10
259.219
 20
183.961
 30
-1.73230e-016
  70
    32
  0
VERTEX
  8
0
  5
84DF
 10
259.195
 20
183.969
 30
-1.76648e-016
  70
    32
  0
VERTEX
  8
0
  5
84E0
 10
259.171
 20
183.976
 30
-1.79959e-016
  70
    32
  0
VERTEX
  8
0
  5
84E1
 10
259.147
 20
183.983
 30
-1.83162e-016
  70
    32
  0
VERTEX
  8
0
  5
84E2
 10
259.122
 20
183.988
 30
-1.86255e-016
  70
    32
  0
VERTEX
  8
0
  5
84E3
 10
259.098
 20
183.992
 30
-1.89235e-016
  70
    32
  0
VERTEX
  8
0
  5
84E4
 10
259.074
 20
183.996
 30
-1.92102e-016
  70
    32
  0
VERTEX
  8
0
  5
84E5
 10
259.049
 20
183.998
 30
-1.94852e-016
  70
    32
  0
VERTEX
  8
0
  5
84E6
 10
259.025
 20
184.000
 30
-1.97486e-016
  70
    32
  0
VERTEX
  8
0
  5
84E7
 10
259.000
 20
184.000
 30
-2.00000e-016
  70
    32
  0
SEQEND
  8
0
  5
84E8
  0
POLYLINE
  5
7CF5
  8
0
 10
241.0
 20
184.00000107288383
 30
-0.0000000000000002
 66
     1
 70
     8
  0
VERTEX
  8
0
  5
84E9
 10
241.000
 20
184.000
 30
-2.00000e-016
  70
    32
  0
VERTEX
  8
0
  5
84EA
 10
240.975
 20
184.000
 30
-1.99940e-016
  70
    32
  0
VERTEX
  8
0
  5
84EB
 10
240.951
 20
183.998
 30
-1.99759e-016
  70
    32
  0
VERTEX
  8
0
  5
84EC
 10
240.926
 20
183.996
 30
-1.99458e-016
  70
    32
  0
VERTEX
  8
0
  5
84ED
 10
240.902
 20
183.992
 30
-1.99037e-016
  70
    32
  0
VERTEX
  8
0
  5
84EE
 10
240.878
 20
183.988
 30
-1.98496e-016
  70
    32
  0
VERTEX
  8
0
  5
84EF
 10
240.853
 20
183.983
 30
-1.97835e-016
  70
    32
  0
VERTEX
  8
0
  5
84F0
 10
240.829
 20
183.976
 30
-1.97056e-016
  70
    32
  0
VERTEX
  8
0
  5
84F1
 10
240.805
 20
183.969
 30
-1.96157e-016
  70
    32
  0
VERTEX
  8
0
  5
84F2
 10
240.781
 20
183.961
 30
-1.95140e-016
  70
    32
  0
VERTEX
  8
0
  5
84F3
 10
240.757
 20
183.952
 30
-1.94006e-016
  70
    32
  0
VERTEX
  8
0
  5
84F4
 10
240.733
 20
183.942
 30
-1.92755e-016
  70
    32
  0
VERTEX
  8
0
  5
84F5
 10
240.710
 20
183.931
 30
-1.91388e-016
  70
    32
  0
VERTEX
  8
0
  5
84F6
 10
240.686
 20
183.919
 30
-1.89906e-016
  70
    32
  0
VERTEX
  8
0
  5
84F7
 10
240.663
 20
183.906
 30
-1.88309e-016
  70
    32
  0
VERTEX
  8
0
  5
84F8
 10
240.640
 20
183.893
 30
-1.86599e-016
  70
    32
  0
VERTEX
  8
0
  5
84F9
 10
240.617
 20
183.878
 30
-1.84776e-016
  70
    32
  0
VERTEX
  8
0
  5
84FA
 10
240.595
 20
183.863
 30
-1.82842e-016
  70
    32
  0
VERTEX
  8
0
  5
84FB
 10
240.572
 20
183.846
 30
-1.80798e-016
  70
    32
  0
VERTEX
  8
0
  5
84FC
 10
240.550
 20
183.829
 30
-1.78645e-016
  70
    32
  0
VERTEX
  8
0
  5
84FD
 10
240.529
 20
183.811
 30
-1.76384e-016
  70
    32
  0
VERTEX
  8
0
  5
84FE
 10
240.507
 20
183.792
 30
-1.74017e-016
  70
    32
  0
VERTEX
  8
0
  5
84FF
 10
240.486
 20
183.772
 30
-1.71546e-016
  70
    32
  0
VERTEX
  8
0
  5
8500
 10
240.465
 20
183.752
 30
-1.68971e-016
  70
    32
  0
VERTEX
  8
0
  5
8501
 10
240.444
 20
183.730
 30
-1.66294e-016
  70
    32
  0
VERTEX
  8
0
  5
8502
 10
240.424
 20
183.708
 30
-1.63517e-016
  70
    32
  0
VERTEX
  8
0
  5
8503
 10
240.404
 20
183.685
 30
-1.60642e-016
  70
    32
  0
VERTEX
  8
0
  5
8504
 10
240.385
 20
183.661
 30
-1.57669e-016
  70
    32
  0
VERTEX
  8
0
  5
8505
 10
240.366
 20
183.637
 30
-1.54602e-016
  70
    32
  0
VERTEX
  8
0
  5
8506
 10
240.347
 20
183.612
 30
-1.51442e-016
  70
    32
  0
VERTEX
  8
0
  5
8507
 10
240.328
 20
183.586
 30
-1.48190e-016
  70
    32
  0
VERTEX
  8
0
  5
8508
 10
240.310
 20
183.559
 30
-1.44849e-016
  70
    32
  0
VERTEX
  8
0
  5
8509
 10
240.293
 20
183.531
 30
-1.41421e-016
  70
    32
  0
VERTEX
  8
0
  5
850A
 10
240.276
 20
183.503
 30
-1.37908e-016
  70
    32
  0
VERTEX
  8
0
  5
850B
 10
240.259
 20
183.474
 30
-1.34312e-016
  70
    32
  0
VERTEX
  8
0
  5
850C
 10
240.243
 20
183.445
 30
-1.30635e-016
  70
    32
  0
VERTEX
  8
0
  5
850D
 10
240.227
 20
183.415
 30
-1.26879e-016
  70
    32
  0
VERTEX
  8
0
  5
850E
 10
240.212
 20
183.384
 30
-1.23046e-016
  70
    32
  0
VERTEX
  8
0
  5
850F
 10
240.197
 20
183.353
 30
-1.19140e-016
  70
    32
  0
VERTEX
  8
0
  5
8510
 10
240.182
 20
183.321
 30
-1.15162e-016
  70
    32
  0
VERTEX
  8
0
  5
8511
 10
240.169
 20
183.289
 30
-1.11114e-016
  70
    32
  0
VERTEX
  8
0
  5
8512
 10
240.155
 20
183.256
 30
-1.07000e-016
  70
    32
  0
VERTEX
  8
0
  5
8513
 10
240.142
 20
183.223
 30
-1.02821e-016
  70
    32
  0
VERTEX
  8
0
  5
8514
 10
240.130
 20
183.189
 30
-9.85796e-017
  70
    32
  0
VERTEX
  8
0
  5
8515
 10
240.118
 20
183.154
 30
-9.42793e-017
  70
    32
  0
VERTEX
  8
0
  5
8516
 10
240.107
 20
183.119
 30
-8.99223e-017
  70
    32
  0
VERTEX
  8
0
  5
8517
 10
240.096
 20
183.084
 30
-8.55110e-017
  70
    32
  0
VERTEX
  8
0
  5
8518
 10
240.086
 20
183.048
 30
-8.10483e-017
  70
    32
  0
VERTEX
  8
0
  5
8519
 10
240.076
 20
183.012
 30
-7.65367e-017
  70
    32
  0
VERTEX
  8
0
  5
851A
 10
240.067
 20
182.976
 30
-7.19790e-017
  70
    32
  0
VERTEX
  8
0
  5
851B
 10
240.058
 20
182.939
 30
-6.73780e-017
  70
    32
  0
VERTEX
  8
0
  5
851C
 10
240.050
 20
182.902
 30
-6.27363e-017
  70
    32
  0
VERTEX
  8
0
  5
851D
 10
240.043
 20
182.864
 30
-5.80569e-017
  70
    32
  0
VERTEX
  8
0
  5
851E
 10
240.036
 20
182.827
 30
-5.33426e-017
  70
    32
  0
VERTEX
  8
0
  5
851F
 10
240.030
 20
182.789
 30
-4.85960e-017
  70
    32
  0
VERTEX
  8
0
  5
8520
 10
240.024
 20
182.751
 30
-4.38202e-017
  70
    32
  0
VERTEX
  8
0
  5
8521
 10
240.019
 20
182.712
 30
-3.90181e-017
  70
    32
  0
VERTEX
  8
0
  5
8522
 10
240.015
 20
182.674
 30
-3.41924e-017
  70
    32
  0
VERTEX
  8
0
  5
8523
 10
240.011
 20
182.635
 30
-2.93461e-017
  70
    32
  0
VERTEX
  8
0
  5
8524
 10
240.008
 20
182.596
 30
-2.44821e-017
  70
    32
  0
VERTEX
  8
0
  5
8525
 10
240.005
 20
182.557
 30
-1.96034e-017
  70
    32
  0
VERTEX
  8
0
  5
8526
 10
240.003
 20
182.518
 30
-1.47129e-017
  70
    32
  0
VERTEX
  8
0
  5
8527
 10
240.001
 20
182.479
 30
-9.81353e-018
  70
    32
  0
VERTEX
  8
0
  5
8528
 10
240.000
 20
182.439
 30
-4.90825e-018
  70
    32
  0
VERTEX
  8
0
  5
8529
 10
240.000
 20
182.400
 30
-1.22465e-032
  70
    32
  0
VERTEX
  8
0
  5
852A
 10
240.000
 20
182.361
 30
4.90825e-018
  70
    32
  0
VERTEX
  8
0
  5
852B
 10
240.001
 20
182.321
 30
9.81353e-018
  70
    32
  0
VERTEX
  8
0
  5
852C
 10
240.003
 20
182.282
 30
1.47129e-017
  70
    32
  0
VERTEX
  8
0
  5
852D
 10
240.005
 20
182.243
 30
1.96034e-017
  70
    32
  0
VERTEX
  8
0
  5
852E
 10
240.008
 20
182.204
 30
2.44821e-017
  70
    32
  0
VERTEX
  8
0
  5
852F
 10
240.011
 20
182.165
 30
2.93461e-017
  70
    32
  0
VERTEX
  8
0
  5
8530
 10
240.015
 20
182.126
 30
3.41924e-017
  70
    32
  0
VERTEX
  8
0
  5
8531
 10
240.019
 20
182.088
 30
3.90181e-017
  70
    32
  0
VERTEX
  8
0
  5
8532
 10
240.024
 20
182.049
 30
4.38202e-017
  70
    32
  0
VERTEX
  8
0
  5
8533
 10
240.030
 20
182.011
 30
4.85960e-017
  70
    32
  0
VERTEX
  8
0
  5
8534
 10
240.036
 20
181.973
 30
5.33426e-017
  70
    32
  0
VERTEX
  8
0
  5
8535
 10
240.043
 20
181.936
 30
5.80569e-017
  70
    32
  0
VERTEX
  8
0
  5
8536
 10
240.050
 20
181.898
 30
6.27363e-017
  70
    32
  0
VERTEX
  8
0
  5
8537
 10
240.058
 20
181.861
 30
6.73780e-017
  70
    32
  0
VERTEX
  8
0
  5
8538
 10
240.067
 20
181.824
 30
7.19790e-017
  70
    32
  0
VERTEX
  8
0
  5
8539
 10
240.076
 20
181.788
 30
7.65367e-017
  70
    32
  0
VERTEX
  8
0
  5
853A
 10
240.086
 20
181.752
 30
8.10483e-017
  70
    32
  0
VERTEX
  8
0
  5
853B
 10
240.096
 20
181.716
 30
8.55110e-017
  70
    32
  0
VERTEX
  8
0
  5
853C
 10
240.107
 20
181.681
 30
8.99223e-017
  70
    32
  0
VERTEX
  8
0
  5
853D
 10
240.118
 20
181.646
 30
9.42793e-017
  70
    32
  0
VERTEX
  8
0
  5
853E
 10
240.130
 20
181.611
 30
9.85796e-017
  70
    32
  0
VERTEX
  8
0
  5
853F
 10
240.142
 20
181.577
 30
1.02821e-016
  70
    32
  0
VERTEX
  8
0
  5
8540
 10
240.155
 20
181.544
 30
1.07000e-016
  70
    32
  0
VERTEX
  8
0
  5
8541
 10
240.169
 20
181.511
 30
1.11114e-016
  70
    32
  0
VERTEX
  8
0
  5
8542
 10
240.182
 20
181.479
 30
1.15162e-016
  70
    32
  0
VERTEX
  8
0
  5
8543
 10
240.197
 20
181.447
 30
1.19140e-016
  70
    32
  0
VERTEX
  8
0
  5
8544
 10
240.212
 20
181.416
 30
1.23046e-016
  70
    32
  0
VERTEX
  8
0
  5
8545
 10
240.227
 20
181.385
 30
1.26879e-016
  70
    32
  0
VERTEX
  8
0
  5
8546
 10
240.243
 20
181.355
 30
1.30635e-016
  70
    32
  0
VERTEX
  8
0
  5
8547
 10
240.259
 20
181.326
 30
1.34312e-016
  70
    32
  0
VERTEX
  8
0
  5
8548
 10
240.276
 20
181.297
 30
1.37908e-016
  70
    32
  0
VERTEX
  8
0
  5
8549
 10
240.293
 20
181.269
 30
1.41421e-016
  70
    32
  0
VERTEX
  8
0
  5
854A
 10
240.310
 20
181.241
 30
1.44849e-016
  70
    32
  0
VERTEX
  8
0
  5
854B
 10
240.328
 20
181.214
 30
1.48190e-016
  70
    32
  0
VERTEX
  8
0
  5
854C
 10
240.347
 20
181.188
 30
1.51442e-016
  70
    32
  0
VERTEX
  8
0
  5
854D
 10
240.366
 20
181.163
 30
1.54602e-016
  70
    32
  0
VERTEX
  8
0
  5
854E
 10
240.385
 20
181.139
 30
1.57669e-016
  70
    32
  0
VERTEX
  8
0
  5
854F
 10
240.404
 20
181.115
 30
1.60642e-016
  70
    32
  0
VERTEX
  8
0
  5
8550
 10
240.424
 20
181.092
 30
1.63517e-016
  70
    32
  0
VERTEX
  8
0
  5
8551
 10
240.444
 20
181.070
 30
1.66294e-016
  70
    32
  0
VERTEX
  8
0
  5
8552
 10
240.465
 20
181.048
 30
1.68971e-016
  70
    32
  0
VERTEX
  8
0
  5
8553
 10
240.486
 20
181.028
 30
1.71546e-016
  70
    32
  0
VERTEX
  8
0
  5
8554
 10
240.507
 20
181.008
 30
1.74017e-016
  70
    32
  0
VERTEX
  8
0
  5
8555
 10
240.529
 20
180.989
 30
1.76384e-016
  70
    32
  0
VERTEX
  8
0
  5
8556
 10
240.550
 20
180.971
 30
1.78645e-016
  70
    32
  0
VERTEX
  8
0
  5
8557
 10
240.572
 20
180.954
 30
1.80798e-016
  70
    32
  0
VERTEX
  8
0
  5
8558
 10
240.595
 20
180.937
 30
1.82842e-016
  70
    32
  0
VERTEX
  8
0
  5
8559
 10
240.617
 20
180.922
 30
1.84776e-016
  70
    32
  0
VERTEX
  8
0
  5
855A
 10
240.640
 20
180.907
 30
1.86599e-016
  70
    32
  0
VERTEX
  8
0
  5
855B
 10
240.663
 20
180.894
 30
1.88309e-016
  70
    32
  0
VERTEX
  8
0
  5
855C
 10
240.686
 20
180.881
 30
1.89906e-016
  70
    32
  0
VERTEX
  8
0
  5
855D
 10
240.710
 20
180.869
 30
1.91388e-016
  70
    32
  0
VERTEX
  8
0
  5
855E
 10
240.733
 20
180.858
 30
1.92755e-016
  70
    32
  0
VERTEX
  8
0
  5
855F
 10
240.757
 20
180.848
 30
1.94006e-016
  70
    32
  0
VERTEX
  8
0
  5
8560
 10
240.781
 20
180.839
 30
1.95140e-016
  70
    32
  0
VERTEX
  8
0
  5
8561
 10
240.805
 20
180.831
 30
1.96157e-016
  70
    32
  0
VERTEX
  8
0
  5
8562
 10
240.829
 20
180.824
 30
1.97056e-016
  70
    32
  0
VERTEX
  8
0
  5
8563
 10
240.853
 20
180.817
 30
1.97835e-016
  70
    32
  0
VERTEX
  8
0
  5
8564
 10
240.878
 20
180.812
 30
1.98496e-016
  70
    32
  0
VERTEX
  8
0
  5
8565
 10
240.902
 20
180.808
 30
1.99037e-016
  70
    32
  0
VERTEX
  8
0
  5
8566
 10
240.926
 20
180.804
 30
1.99458e-016
  70
    32
  0
VERTEX
  8
0
  5
8567
 10
240.951
 20
180.802
 30
1.99759e-016
  70
    32
  0
VERTEX
  8
0
  5
8568
 10
240.975
 20
180.800
 30
1.99940e-016
  70
    32
  0
VERTEX
  8
0
  5
8569
 10
241.000
 20
180.800
 30
2.00000e-016
  70
    32
  0
SEQEND
  8
0
  5
856A
  0
POLYLINE
  5
7CF6
  8
0
 10
259.0
 20
192.80000107288382
 30
0.0000000000000002
 66
     1
 70
     8
  0
VERTEX
  8
0
  5
856B
 10
259.000
 20
192.800
 30
2.00000e-016
  70
    32
  0
VERTEX
  8
0
  5
856C
 10
259.025
 20
192.800
 30
2.02394e-016
  70
    32
  0
VERTEX
  8
0
  5
856D
 10
259.049
 20
192.802
 30
2.04666e-016
  70
    32
  0
VERTEX
  8
0
  5
856E
 10
259.074
 20
192.804
 30
2.06815e-016
  70
    32
  0
VERTEX
  8
0
  5
856F
 10
259.098
 20
192.808
 30
2.08839e-016
  70
    32
  0
VERTEX
  8
0
  5
8570
 10
259.122
 20
192.812
 30
2.10737e-016
  70
    32
  0
VERTEX
  8
0
  5
8571
 10
259.147
 20
192.817
 30
2.12508e-016
  70
    32
  0
VERTEX
  8
0
  5
8572
 10
259.171
 20
192.824
 30
2.14152e-016
  70
    32
  0
VERTEX
  8
0
  5
8573
 10
259.195
 20
192.831
 30
2.15666e-016
  70
    32
  0
VERTEX
  8
0
  5
8574
 10
259.219
 20
192.839
 30
2.17051e-016
  70
    32
  0
VERTEX
  8
0
  5
8575
 10
259.243
 20
192.848
 30
2.18304e-016
  70
    32
  0
VERTEX
  8
0
  5
8576
 10
259.267
 20
192.858
 30
2.19426e-016
  70
    32
  0
VERTEX
  8
0
  5
8577
 10
259.290
 20
192.869
 30
2.20417e-016
  70
    32
  0
VERTEX
  8
0
  5
8578
 10
259.314
 20
192.881
 30
2.21274e-016
  70
    32
  0
VERTEX
  8
0
  5
8579
 10
259.337
 20
192.894
 30
2.21998e-016
  70
    32
  0
VERTEX
  8
0
  5
857A
 10
259.360
 20
192.907
 30
2.22588e-016
  70
    32
  0
VERTEX
  8
0
  5
857B
 10
259.383
 20
192.922
 30
2.23044e-016
  70
    32
  0
VERTEX
  8
0
  5
857C
 10
259.405
 20
192.937
 30
2.23366e-016
  70
    32
  0
VERTEX
  8
0
  5
857D
 10
259.428
 20
192.954
 30
2.23553e-016
  70
    32
  0
VERTEX
  8
0
  5
857E
 10
259.450
 20
192.971
 30
2.23606e-016
  70
    32
  0
VERTEX
  8
0
  5
857F
 10
259.471
 20
192.989
 30
2.23524e-016
  70
    32
  0
VERTEX
  8
0
  5
8580
 10
259.493
 20
193.008
 30
2.23307e-016
  70
    32
  0
VERTEX
  8
0
  5
8581
 10
259.514
 20
193.028
 30
2.22956e-016
  70
    32
  0
VERTEX
  8
0
  5
8582
 10
259.535
 20
193.048
 30
2.22470e-016
  70
    32
  0
VERTEX
  8
0
  5
8583
 10
259.556
 20
193.070
 30
2.21851e-016
  70
    32
  0
VERTEX
  8
0
  5
8584
 10
259.576
 20
193.092
 30
2.21098e-016
  70
    32
  0
VERTEX
  8
0
  5
8585
 10
259.596
 20
193.115
 30
2.20211e-016
  70
    32
  0
VERTEX
  8
0
  5
8586
 10
259.615
 20
193.139
 30
2.19192e-016
  70
    32
  0
VERTEX
  8
0
  5
8587
 10
259.634
 20
193.163
 30
2.18041e-016
  70
    32
  0
VERTEX
  8
0
  5
8588
 10
259.653
 20
193.188
 30
2.16759e-016
  70
    32
  0
VERTEX
  8
0
  5
8589
 10
259.672
 20
193.214
 30
2.15346e-016
  70
    32
  0
VERTEX
  8
0
  5
858A
 10
259.690
 20
193.241
 30
2.13803e-016
  70
    32
  0
VERTEX
  8
0
  5
858B
 10
259.707
 20
193.269
 30
2.12132e-016
  70
    32
  0
VERTEX
  8
0
  5
858C
 10
259.724
 20
193.297
 30
2.10333e-016
  70
    32
  0
VERTEX
  8
0
  5
858D
 10
259.741
 20
193.326
 30
2.08407e-016
  70
    32
  0
VERTEX
  8
0
  5
858E
 10
259.757
 20
193.355
 30
2.06355e-016
  70
    32
  0
VERTEX
  8
0
  5
858F
 10
259.773
 20
193.385
 30
2.04180e-016
  70
    32
  0
VERTEX
  8
0
  5
8590
 10
259.788
 20
193.416
 30
2.01881e-016
  70
    32
  0
VERTEX
  8
0
  5
8591
 10
259.803
 20
193.447
 30
1.99461e-016
  70
    32
  0
VERTEX
  8
0
  5
8592
 10
259.818
 20
193.479
 30
1.96920e-016
  70
    32
  0
VERTEX
  8
0
  5
8593
 10
259.831
 20
193.511
 30
1.94261e-016
  70
    32
  0
VERTEX
  8
0
  5
8594
 10
259.845
 20
193.544
 30
1.91485e-016
  70
    32
  0
VERTEX
  8
0
  5
8595
 10
259.858
 20
193.577
 30
1.88593e-016
  70
    32
  0
VERTEX
  8
0
  5
8596
 10
259.870
 20
193.611
 30
1.85588e-016
  70
    32
  0
VERTEX
  8
0
  5
8597
 10
259.882
 20
193.646
 30
1.82471e-016
  70
    32
  0
VERTEX
  8
0
  5
8598
 10
259.893
 20
193.681
 30
1.79245e-016
  70
    32
  0
VERTEX
  8
0
  5
8599
 10
259.904
 20
193.716
 30
1.75910e-016
  70
    32
  0
VERTEX
  8
0
  5
859A
 10
259.914
 20
193.752
 30
1.72469e-016
  70
    32
  0
VERTEX
  8
0
  5
859B
 10
259.924
 20
193.788
 30
1.68925e-016
  70
    32
  0
VERTEX
  8
0
  5
859C
 10
259.933
 20
193.824
 30
1.65278e-016
  70
    32
  0
VERTEX
  8
0
  5
859D
 10
259.942
 20
193.861
 30
1.61532e-016
  70
    32
  0
VERTEX
  8
0
  5
859E
 10
259.950
 20
193.898
 30
1.57689e-016
  70
    32
  0
VERTEX
  8
0
  5
859F
 10
259.957
 20
193.936
 30
1.53751e-016
  70
    32
  0
VERTEX
  8
0
  5
85A0
 10
259.964
 20
193.973
 30
1.49720e-016
  70
    32
  0
VERTEX
  8
0
  5
85A1
 10
259.970
 20
194.011
 30
1.45599e-016
  70
    32
  0
VERTEX
  8
0
  5
85A2
 10
259.976
 20
194.049
 30
1.41390e-016
  70
    32
  0
VERTEX
  8
0
  5
85A3
 10
259.981
 20
194.088
 30
1.37097e-016
  70
    32
  0
VERTEX
  8
0
  5
85A4
 10
259.985
 20
194.126
 30
1.32720e-016
  70
    32
  0
VERTEX
  8
0
  5
85A5
 10
259.989
 20
194.165
 30
1.28264e-016
  70
    32
  0
VERTEX
  8
0
  5
85A6
 10
259.992
 20
194.204
 30
1.23730e-016
  70
    32
  0
VERTEX
  8
0
  5
85A7
 10
259.995
 20
194.243
 30
1.19122e-016
  70
    32
  0
VERTEX
  8
0
  5
85A8
 10
259.997
 20
194.282
 30
1.14442e-016
  70
    32
  0
VERTEX
  8
0
  5
85A9
 10
259.999
 20
194.321
 30
1.09693e-016
  70
    32
  0
VERTEX
  8
0
  5
85AA
 10
260.000
 20
194.361
 30
1.04878e-016
  70
    32
  0
VERTEX
  8
0
  5
85AB
 10
260.000
 20
194.400
 30
1.00000e-016
  70
    32
  0
VERTEX
  8
0
  5
85AC
 10
260.000
 20
194.439
 30
9.50616e-017
  70
    32
  0
VERTEX
  8
0
  5
85AD
 10
259.999
 20
194.479
 30
9.00660e-017
  70
    32
  0
VERTEX
  8
0
  5
85AE
 10
259.997
 20
194.518
 30
8.50161e-017
  70
    32
  0
VERTEX
  8
0
  5
85AF
 10
259.995
 20
194.557
 30
7.99150e-017
  70
    32
  0
VERTEX
  8
0
  5
85B0
 10
259.992
 20
194.596
 30
7.47658e-017
  70
    32
  0
VERTEX
  8
0
  5
85B1
 10
259.989
 20
194.635
 30
6.95716e-017
  70
    32
  0
VERTEX
  8
0
  5
85B2
 10
259.985
 20
194.674
 30
6.43354e-017
  70
    32
  0
VERTEX
  8
0
  5
85B3
 10
259.981
 20
194.712
 30
5.90605e-017
  70
    32
  0
VERTEX
  8
0
  5
85B4
 10
259.976
 20
194.751
 30
5.37500e-017
  70
    32
  0
VERTEX
  8
0
  5
85B5
 10
259.970
 20
194.789
 30
4.84071e-017
  70
    32
  0
VERTEX
  8
0
  5
85B6
 10
259.964
 20
194.827
 30
4.30351e-017
  70
    32
  0
VERTEX
  8
0
  5
85B7
 10
259.957
 20
194.864
 30
3.76371e-017
  70
    32
  0
VERTEX
  8
0
  5
85B8
 10
259.950
 20
194.902
 30
3.22165e-017
  70
    32
  0
VERTEX
  8
0
  5
85B9
 10
259.942
 20
194.939
 30
2.67764e-017
  70
    32
  0
VERTEX
  8
0
  5
85BA
 10
259.933
 20
194.976
 30
2.13203e-017
  70
    32
  0
VERTEX
  8
0
  5
85BB
 10
259.924
 20
195.012
 30
1.58513e-017
  70
    32
  0
VERTEX
  8
0
  5
85BC
 10
259.914
 20
195.048
 30
1.03727e-017
  70
    32
  0
VERTEX
  8
0
  5
85BD
 10
259.904
 20
195.084
 30
4.88791e-018
  70
    32
  0
VERTEX
  8
0
  5
85BE
 10
259.893
 20
195.119
 30
-5.99836e-019
  70
    32
  0
VERTEX
  8
0
  5
85BF
 10
259.882
 20
195.154
 30
-6.08722e-018
  70
    32
  0
VERTEX
  8
0
  5
85C0
 10
259.870
 20
195.189
 30
-1.15709e-017
  70
    32
  0
VERTEX
  8
0
  5
85C1
 10
259.858
 20
195.223
 30
-1.70477e-017
  70
    32
  0
VERTEX
  8
0
  5
85C2
 10
259.845
 20
195.256
 30
-2.25142e-017
  70
    32
  0
VERTEX
  8
0
  5
85C3
 10
259.831
 20
195.289
 30
-2.79671e-017
  70
    32
  0
VERTEX
  8
0
  5
85C4
 10
259.818
 20
195.321
 30
-3.34032e-017
  70
    32
  0
VERTEX
  8
0
  5
85C5
 10
259.803
 20
195.353
 30
-3.88191e-017
  70
    32
  0
VERTEX
  8
0
  5
85C6
 10
259.788
 20
195.384
 30
-4.42117e-017
  70
    32
  0
VERTEX
  8
0
  5
85C7
 10
259.773
 20
195.415
 30
-4.95776e-017
  70
    32
  0
VERTEX
  8
0
  5
85C8
 10
259.757
 20
195.445
 30
-5.49137e-017
  70
    32
  0
VERTEX
  8
0
  5
85C9
 10
259.741
 20
195.474
 30
-6.02167e-017
  70
    32
  0
VERTEX
  8
0
  5
85CA
 10
259.724
 20
195.503
 30
-6.54834e-017
  70
    32
  0
VERTEX
  8
0
  5
85CB
 10
259.707
 20
195.531
 30
-7.07107e-017
  70
    32
  0
VERTEX
  8
0
  5
85CC
 10
259.690
 20
195.559
 30
-7.58954e-017
  70
    32
  0
VERTEX
  8
0
  5
85CD
 10
259.672
 20
195.586
 30
-8.10343e-017
  70
    32
  0
VERTEX
  8
0
  5
85CE
 10
259.653
 20
195.612
 30
-8.61245e-017
  70
    32
  0
VERTEX
  8
0
  5
85CF
 10
259.634
 20
195.637
 30
-9.11628e-017
  70
    32
  0
VERTEX
  8
0
  5
85D0
 10
259.615
 20
195.661
 30
-9.61461e-017
  70
    32
  0
VERTEX
  8
0
  5
85D1
 10
259.596
 20
195.685
 30
-1.01072e-016
  70
    32
  0
VERTEX
  8
0
  5
85D2
 10
259.576
 20
195.708
 30
-1.05936e-016
  70
    32
  0
VERTEX
  8
0
  5
85D3
 10
259.556
 20
195.730
 30
-1.10737e-016
  70
    32
  0
VERTEX
  8
0
  5
85D4
 10
259.535
 20
195.752
 30
-1.15471e-016
  70
    32
  0
VERTEX
  8
0
  5
85D5
 10
259.514
 20
195.772
 30
-1.20135e-016
  70
    32
  0
VERTEX
  8
0
  5
85D6
 10
259.493
 20
195.792
 30
-1.24728e-016
  70
    32
  0
VERTEX
  8
0
  5
85D7
 10
259.471
 20
195.811
 30
-1.29245e-016
  70
    32
  0
VERTEX
  8
0
  5
85D8
 10
259.450
 20
195.829
 30
-1.33684e-016
  70
    32
  0
VERTEX
  8
0
  5
85D9
 10
259.428
 20
195.846
 30
-1.38042e-016
  70
    32
  0
VERTEX
  8
0
  5
85DA
 10
259.405
 20
195.863
 30
-1.42318e-016
  70
    32
  0
VERTEX
  8
0
  5
85DB
 10
259.383
 20
195.878
 30
-1.46508e-016
  70
    32
  0
VERTEX
  8
0
  5
85DC
 10
259.360
 20
195.893
 30
-1.50609e-016
  70
    32
  0
VERTEX
  8
0
  5
85DD
 10
259.337
 20
195.906
 30
-1.54620e-016
  70
    32
  0
VERTEX
  8
0
  5
85DE
 10
259.314
 20
195.919
 30
-1.58537e-016
  70
    32
  0
VERTEX
  8
0
  5
85DF
 10
259.290
 20
195.931
 30
-1.62360e-016
  70
    32
  0
VERTEX
  8
0
  5
85E0
 10
259.267
 20
195.942
 30
-1.66084e-016
  70
    32
  0
VERTEX
  8
0
  5
85E1
 10
259.243
 20
195.952
 30
-1.69708e-016
  70
    32
  0
VERTEX
  8
0
  5
85E2
 10
259.219
 20
195.961
 30
-1.73230e-016
  70
    32
  0
VERTEX
  8
0
  5
85E3
 10
259.195
 20
195.969
 30
-1.76648e-016
  70
    32
  0
VERTEX
  8
0
  5
85E4
 10
259.171
 20
195.976
 30
-1.79959e-016
  70
    32
  0
VERTEX
  8
0
  5
85E5
 10
259.147
 20
195.983
 30
-1.83162e-016
  70
    32
  0
VERTEX
  8
0
  5
85E6
 10
259.122
 20
195.988
 30
-1.86255e-016
  70
    32
  0
VERTEX
  8
0
  5
85E7
 10
259.098
 20
195.992
 30
-1.89235e-016
  70
    32
  0
VERTEX
  8
0
  5
85E8
 10
259.074
 20
195.996
 30
-1.92102e-016
  70
    32
  0
VERTEX
  8
0
  5
85E9
 10
259.049
 20
195.998
 30
-1.94852e-016
  70
    32
  0
VERTEX
  8
0
  5
85EA
 10
259.025
 20
196.000
 30
-1.97486e-016
  70
    32
  0
VERTEX
  8
0
  5
85EB
 10
259.000
 20
196.000
 30
-2.00000e-016
  70
    32
  0
SEQEND
  8
0
  5
85EC
  0
POLYLINE
  5
7CF7
  8
0
 10
241.0
 20
196.0000010728838
 30
-0.0000000000000002
 66
     1
 70
     8
  0
VERTEX
  8
0
  5
85ED
 10
241.000
 20
196.000
 30
-2.00000e-016
  70
    32
  0
VERTEX
  8
0
  5
85EE
 10
240.975
 20
196.000
 30
-1.99940e-016
  70
    32
  0
VERTEX
  8
0
  5
85EF
 10
240.951
 20
195.998
 30
-1.99759e-016
  70
    32
  0
VERTEX
  8
0
  5
85F0
 10
240.926
 20
195.996
 30
-1.99458e-016
  70
    32
  0
VERTEX
  8
0
  5
85F1
 10
240.902
 20
195.992
 30
-1.99037e-016
  70
    32
  0
VERTEX
  8
0
  5
85F2
 10
240.878
 20
195.988
 30
-1.98496e-016
  70
    32
  0
VERTEX
  8
0
  5
85F3
 10
240.853
 20
195.983
 30
-1.97835e-016
  70
    32
  0
VERTEX
  8
0
  5
85F4
 10
240.829
 20
195.976
 30
-1.97056e-016
  70
    32
  0
VERTEX
  8
0
  5
85F5
 10
240.805
 20
195.969
 30
-1.96157e-016
  70
    32
  0
VERTEX
  8
0
  5
85F6
 10
240.781
 20
195.961
 30
-1.95140e-016
  70
    32
  0
VERTEX
  8
0
  5
85F7
 10
240.757
 20
195.952
 30
-1.94006e-016
  70
    32
  0
VERTEX
  8
0
  5
85F8
 10
240.733
 20
195.942
 30
-1.92755e-016
  70
    32
  0
VERTEX
  8
0
  5
85F9
 10
240.710
 20
195.931
 30
-1.91388e-016
  70
    32
  0
VERTEX
  8
0
  5
85FA
 10
240.686
 20
195.919
 30
-1.89906e-016
  70
    32
  0
VERTEX
  8
0
  5
85FB
 10
240.663
 20
195.906
 30
-1.88309e-016
  70
    32
  0
VERTEX
  8
0
  5
85FC
 10
240.640
 20
195.893
 30
-1.86599e-016
  70
    32
  0
VERTEX
  8
0
  5
85FD
 10
240.617
 20
195.878
 30
-1.84776e-016
  70
    32
  0
VERTEX
  8
0
  5
85FE
 10
240.595
 20
195.863
 30
-1.82842e-016
  70
    32
  0
VERTEX
  8
0
  5
85FF
 10
240.572
 20
195.846
 30
-1.80798e-016
  70
    32
  0
VERTEX
  8
0
  5
8600
 10
240.550
 20
195.829
 30
-1.78645e-016
  70
    32
  0
VERTEX
  8
0
  5
8601
 10
240.529
 20
195.811
 30
-1.76384e-016
  70
    32
  0
VERTEX
  8
0
  5
8602
 10
240.507
 20
195.792
 30
-1.74017e-016
  70
    32
  0
VERTEX
  8
0
  5
8603
 10
240.486
 20
195.772
 30
-1.71546e-016
  70
    32
  0
VERTEX
  8
0
  5
8604
 10
240.465
 20
195.752
 30
-1.68971e-016
  70
    32
  0
VERTEX
  8
0
  5
8605
 10
240.444
 20
195.730
 30
-1.66294e-016
  70
    32
  0
VERTEX
  8
0
  5
8606
 10
240.424
 20
195.708
 30
-1.63517e-016
  70
    32
  0
VERTEX
  8
0
  5
8607
 10
240.404
 20
195.685
 30
-1.60642e-016
  70
    32
  0
VERTEX
  8
0
  5
8608
 10
240.385
 20
195.661
 30
-1.57669e-016
  70
    32
  0
VERTEX
  8
0
  5
8609
 10
240.366
 20
195.637
 30
-1.54602e-016
  70
    32
  0
VERTEX
  8
0
  5
860A
 10
240.347
 20
195.612
 30
-1.51442e-016
  70
    32
  0
VERTEX
  8
0
  5
860B
 10
240.328
 20
195.586
 30
-1.48190e-016
  70
    32
  0
VERTEX
  8
0
  5
860C
 10
240.310
 20
195.559
 30
-1.44849e-016
  70
    32
  0
VERTEX
  8
0
  5
860D
 10
240.293
 20
195.531
 30
-1.41421e-016
  70
    32
  0
VERTEX
  8
0
  5
860E
 10
240.276
 20
195.503
 30
-1.37908e-016
  70
    32
  0
VERTEX
  8
0
  5
860F
 10
240.259
 20
195.474
 30
-1.34312e-016
  70
    32
  0
VERTEX
  8
0
  5
8610
 10
240.243
 20
195.445
 30
-1.30635e-016
  70
    32
  0
VERTEX
  8
0
  5
8611
 10
240.227
 20
195.415
 30
-1.26879e-016
  70
    32
  0
VERTEX
  8
0
  5
8612
 10
240.212
 20
195.384
 30
-1.23046e-016
  70
    32
  0
VERTEX
  8
0
  5
8613
 10
240.197
 20
195.353
 30
-1.19140e-016
  70
    32
  0
VERTEX
  8
0
  5
8614
 10
240.182
 20
195.321
 30
-1.15162e-016
  70
    32
  0
VERTEX
  8
0
  5
8615
 10
240.169
 20
195.289
 30
-1.11114e-016
  70
    32
  0
VERTEX
  8
0
  5
8616
 10
240.155
 20
195.256
 30
-1.07000e-016
  70
    32
  0
VERTEX
  8
0
  5
8617
 10
240.142
 20
195.223
 30
-1.02821e-016
  70
    32
  0
VERTEX
  8
0
  5
8618
 10
240.130
 20
195.189
 30
-9.85796e-017
  70
    32
  0
VERTEX
  8
0
  5
8619
 10
240.118
 20
195.154
 30
-9.42793e-017
  70
    32
  0
VERTEX
  8
0
  5
861A
 10
240.107
 20
195.119
 30
-8.99223e-017
  70
    32
  0
VERTEX
  8
0
  5
861B
 10
240.096
 20
195.084
 30
-8.55110e-017
  70
    32
  0
VERTEX
  8
0
  5
861C
 10
240.086
 20
195.048
 30
-8.10483e-017
  70
    32
  0
VERTEX
  8
0
  5
861D
 10
240.076
 20
195.012
 30
-7.65367e-017
  70
    32
  0
VERTEX
  8
0
  5
861E
 10
240.067
 20
194.976
 30
-7.19790e-017
  70
    32
  0
VERTEX
  8
0
  5
861F
 10
240.058
 20
194.939
 30
-6.73780e-017
  70
    32
  0
VERTEX
  8
0
  5
8620
 10
240.050
 20
194.902
 30
-6.27363e-017
  70
    32
  0
VERTEX
  8
0
  5
8621
 10
240.043
 20
194.864
 30
-5.80569e-017
  70
    32
  0
VERTEX
  8
0
  5
8622
 10
240.036
 20
194.827
 30
-5.33426e-017
  70
    32
  0
VERTEX
  8
0
  5
8623
 10
240.030
 20
194.789
 30
-4.85960e-017
  70
    32
  0
VERTEX
  8
0
  5
8624
 10
240.024
 20
194.751
 30
-4.38202e-017
  70
    32
  0
VERTEX
  8
0
  5
8625
 10
240.019
 20
194.712
 30
-3.90181e-017
  70
    32
  0
VERTEX
  8
0
  5
8626
 10
240.015
 20
194.674
 30
-3.41924e-017
  70
    32
  0
VERTEX
  8
0
  5
8627
 10
240.011
 20
194.635
 30
-2.93461e-017
  70
    32
  0
VERTEX
  8
0
  5
8628
 10
240.008
 20
194.596
 30
-2.44821e-017
  70
    32
  0
VERTEX
  8
0
  5
8629
 10
240.005
 20
194.557
 30
-1.96034e-017
  70
    32
  0
VERTEX
  8
0
  5
862A
 10
240.003
 20
194.518
 30
-1.47129e-017
  70
    32
  0
VERTEX
  8
0
  5
862B
 10
240.001
 20
194.479
 30
-9.81353e-018
  70
    32
  0
VERTEX
  8
0
  5
862C
 10
240.000
 20
194.439
 30
-4.90825e-018
  70
    32
  0
VERTEX
  8
0
  5
862D
 10
240.000
 20
194.400
 30
-1.22465e-032
  70
    32
  0
VERTEX
  8
0
  5
862E
 10
240.000
 20
194.361
 30
4.90825e-018
  70
    32
  0
VERTEX
  8
0
  5
862F
 10
240.001
 20
194.321
 30
9.81353e-018
  70
    32
  0
VERTEX
  8
0
  5
8630
 10
240.003
 20
194.282
 30
1.47129e-017
  70
    32
  0
VERTEX
  8
0
  5
8631
 10
240.005
 20
194.243
 30
1.96034e-017
  70
    32
  0
VERTEX
  8
0
  5
8632
 10
240.008
 20
194.204
 30
2.44821e-017
  70
    32
  0
VERTEX
  8
0
  5
8633
 10
240.011
 20
194.165
 30
2.93461e-017
  70
    32
  0
VERTEX
  8
0
  5
8634
 10
240.015
 20
194.126
 30
3.41924e-017
  70
    32
  0
VERTEX
  8
0
  5
8635
 10
240.019
 20
194.088
 30
3.90181e-017
  70
    32
  0
VERTEX
  8
0
  5
8636
 10
240.024
 20
194.049
 30
4.38202e-017
  70
    32
  0
VERTEX
  8
0
  5
8637
 10
240.030
 20
194.011
 30
4.85960e-017
  70
    32
  0
VERTEX
  8
0
  5
8638
 10
240.036
 20
193.973
 30
5.33426e-017
  70
    32
  0
VERTEX
  8
0
  5
8639
 10
240.043
 20
193.936
 30
5.80569e-017
  70
    32
  0
VERTEX
  8
0
  5
863A
 10
240.050
 20
193.898
 30
6.27363e-017
  70
    32
  0
VERTEX
  8
0
  5
863B
 10
240.058
 20
193.861
 30
6.73780e-017
  70
    32
  0
VERTEX
  8
0
  5
863C
 10
240.067
 20
193.824
 30
7.19790e-017
  70
    32
  0
VERTEX
  8
0
  5
863D
 10
240.076
 20
193.788
 30
7.65367e-017
  70
    32
  0
VERTEX
  8
0
  5
863E
 10
240.086
 20
193.752
 30
8.10483e-017
  70
    32
  0
VERTEX
  8
0
  5
863F
 10
240.096
 20
193.716
 30
8.55110e-017
  70
    32
  0
VERTEX
  8
0
  5
8640
 10
240.107
 20
193.681
 30
8.99223e-017
  70
    32
  0
VERTEX
  8
0
  5
8641
 10
240.118
 20
193.646
 30
9.42793e-017
  70
    32
  0
VERTEX
  8
0
  5
8642
 10
240.130
 20
193.611
 30
9.85796e-017
  70
    32
  0
VERTEX
  8
0
  5
8643
 10
240.142
 20
193.577
 30
1.02821e-016
  70
    32
  0
VERTEX
  8
0
  5
8644
 10
240.155
 20
193.544
 30
1.07000e-016
  70
    32
  0
VERTEX
  8
0
  5
8645
 10
240.169
 20
193.511
 30
1.11114e-016
  70
    32
  0
VERTEX
  8
0
  5
8646
 10
240.182
 20
193.479
 30
1.15162e-016
  70
    32
  0
VERTEX
  8
0
  5
8647
 10
240.197
 20
193.447
 30
1.19140e-016
  70
    32
  0
VERTEX
  8
0
  5
8648
 10
240.212
 20
193.416
 30
1.23046e-016
  70
    32
  0
VERTEX
  8
0
  5
8649
 10
240.227
 20
193.385
 30
1.26879e-016
  70
    32
  0
VERTEX
  8
0
  5
864A
 10
240.243
 20
193.355
 30
1.30635e-016
  70
    32
  0
VERTEX
  8
0
  5
864B
 10
240.259
 20
193.326
 30
1.34312e-016
  70
    32
  0
VERTEX
  8
0
  5
864C
 10
240.276
 20
193.297
 30
1.37908e-016
  70
    32
  0
VERTEX
  8
0
  5
864D
 10
240.293
 20
193.269
 30
1.41421e-016
  70
    32
  0
VERTEX
  8
0
  5
864E
 10
240.310
 20
193.241
 30
1.44849e-016
  70
    32
  0
VERTEX
  8
0
  5
864F
 10
240.328
 20
193.214
 30
1.48190e-016
  70
    32
  0
VERTEX
  8
0
  5
8650
 10
240.347
 20
193.188
 30
1.51442e-016
  70
    32
  0
VERTEX
  8
0
  5
8651
 10
240.366
 20
193.163
 30
1.54602e-016
  70
    32
  0
VERTEX
  8
0
  5
8652
 10
240.385
 20
193.139
 30
1.57669e-016
  70
    32
  0
VERTEX
  8
0
  5
8653
 10
240.404
 20
193.115
 30
1.60642e-016
  70
    32
  0
VERTEX
  8
0
  5
8654
 10
240.424
 20
193.092
 30
1.63517e-016
  70
    32
  0
VERTEX
  8
0
  5
8655
 10
240.444
 20
193.070
 30
1.66294e-016
  70
    32
  0
VERTEX
  8
0
  5
8656
 10
240.465
 20
193.048
 30
1.68971e-016
  70
    32
  0
VERTEX
  8
0
  5
8657
 10
240.486
 20
193.028
 30
1.71546e-016
  70
    32
  0
VERTEX
  8
0
  5
8658
 10
240.507
 20
193.008
 30
1.74017e-016
  70
    32
  0
VERTEX
  8
0
  5
8659
 10
240.529
 20
192.989
 30
1.76384e-016
  70
    32
  0
VERTEX
  8
0
  5
865A
 10
240.550
 20
192.971
 30
1.78645e-016
  70
    32
  0
VERTEX
  8
0
  5
865B
 10
240.572
 20
192.954
 30
1.80798e-016
  70
    32
  0
VERTEX
  8
0
  5
865C
 10
240.595
 20
192.937
 30
1.82842e-016
  70
    32
  0
VERTEX
  8
0
  5
865D
 10
240.617
 20
192.922
 30
1.84776e-016
  70
    32
  0
VERTEX
  8
0
  5
865E
 10
240.640
 20
192.907
 30
1.86599e-016
  70
    32
  0
VERTEX
  8
0
  5
865F
 10
240.663
 20
192.894
 30
1.88309e-016
  70
    32
  0
VERTEX
  8
0
  5
8660
 10
240.686
 20
192.881
 30
1.89906e-016
  70
    32
  0
VERTEX
  8
0
  5
8661
 10
240.710
 20
192.869
 30
1.91388e-016
  70
    32
  0
VERTEX
  8
0
  5
8662
 10
240.733
 20
192.858
 30
1.92755e-016
  70
    32
  0
VERTEX
  8
0
  5
8663
 10
240.757
 20
192.848
 30
1.94006e-016
  70
    32
  0
VERTEX
  8
0
  5
8664
 10
240.781
 20
192.839
 30
1.95140e-016
  70
    32
  0
VERTEX
  8
0
  5
8665
 10
240.805
 20
192.831
 30
1.96157e-016
  70
    32
  0
VERTEX
  8
0
  5
8666
 10
240.829
 20
192.824
 30
1.97056e-016
  70
    32
  0
VERTEX
  8
0
  5
8667
 10
240.853
 20
192.817
 30
1.97835e-016
  70
    32
  0
VERTEX
  8
0
  5
8668
 10
240.878
 20
192.812
 30
1.98496e-016
  70
    32
  0
VERTEX
  8
0
  5
8669
 10
240.902
 20
192.808
 30
1.99037e-016
  70
    32
  0
VERTEX
  8
0
  5
866A
 10
240.926
 20
192.804
 30
1.99458e-016
  70
    32
  0
VERTEX
  8
0
  5
866B
 10
240.951
 20
192.802
 30
1.99759e-016
  70
    32
  0
VERTEX
  8
0
  5
866C
 10
240.975
 20
192.800
 30
1.99940e-016
  70
    32
  0
VERTEX
  8
0
  5
866D
 10
241.000
 20
192.800
 30
2.00000e-016
  70
    32
  0
SEQEND
  8
0
  5
866E
  0
POLYLINE
  5
7CF8
  8
0
 10
259.0
 20
168.80000107288393
 30
0.0000000000000002
 66
     1
 70
     8
  0
VERTEX
  8
0
  5
866F
 10
259.000
 20
168.800
 30
2.00000e-016
  70
    32
  0
VERTEX
  8
0
  5
8670
 10
259.025
 20
168.800
 30
2.02394e-016
  70
    32
  0
VERTEX
  8
0
  5
8671
 10
259.049
 20
168.802
 30
2.04666e-016
  70
    32
  0
VERTEX
  8
0
  5
8672
 10
259.074
 20
168.804
 30
2.06815e-016
  70
    32
  0
VERTEX
  8
0
  5
8673
 10
259.098
 20
168.808
 30
2.08839e-016
  70
    32
  0
VERTEX
  8
0
  5
8674
 10
259.122
 20
168.812
 30
2.10737e-016
  70
    32
  0
VERTEX
  8
0
  5
8675
 10
259.147
 20
168.817
 30
2.12508e-016
  70
    32
  0
VERTEX
  8
0
  5
8676
 10
259.171
 20
168.824
 30
2.14152e-016
  70
    32
  0
VERTEX
  8
0
  5
8677
 10
259.195
 20
168.831
 30
2.15666e-016
  70
    32
  0
VERTEX
  8
0
  5
8678
 10
259.219
 20
168.839
 30
2.17051e-016
  70
    32
  0
VERTEX
  8
0
  5
8679
 10
259.243
 20
168.848
 30
2.18304e-016
  70
    32
  0
VERTEX
  8
0
  5
867A
 10
259.267
 20
168.858
 30
2.19426e-016
  70
    32
  0
VERTEX
  8
0
  5
867B
 10
259.290
 20
168.869
 30
2.20417e-016
  70
    32
  0
VERTEX
  8
0
  5
867C
 10
259.314
 20
168.881
 30
2.21274e-016
  70
    32
  0
VERTEX
  8
0
  5
867D
 10
259.337
 20
168.894
 30
2.21998e-016
  70
    32
  0
VERTEX
  8
0
  5
867E
 10
259.360
 20
168.907
 30
2.22588e-016
  70
    32
  0
VERTEX
  8
0
  5
867F
 10
259.383
 20
168.922
 30
2.23044e-016
  70
    32
  0
VERTEX
  8
0
  5
8680
 10
259.405
 20
168.937
 30
2.23366e-016
  70
    32
  0
VERTEX
  8
0
  5
8681
 10
259.428
 20
168.954
 30
2.23553e-016
  70
    32
  0
VERTEX
  8
0
  5
8682
 10
259.450
 20
168.971
 30
2.23606e-016
  70
    32
  0
VERTEX
  8
0
  5
8683
 10
259.471
 20
168.989
 30
2.23524e-016
  70
    32
  0
VERTEX
  8
0
  5
8684
 10
259.493
 20
169.008
 30
2.23307e-016
  70
    32
  0
VERTEX
  8
0
  5
8685
 10
259.514
 20
169.028
 30
2.22956e-016
  70
    32
  0
VERTEX
  8
0
  5
8686
 10
259.535
 20
169.048
 30
2.22470e-016
  70
    32
  0
VERTEX
  8
0
  5
8687
 10
259.556
 20
169.070
 30
2.21851e-016
  70
    32
  0
VERTEX
  8
0
  5
8688
 10
259.576
 20
169.092
 30
2.21098e-016
  70
    32
  0
VERTEX
  8
0
  5
8689
 10
259.596
 20
169.115
 30
2.20211e-016
  70
    32
  0
VERTEX
  8
0
  5
868A
 10
259.615
 20
169.139
 30
2.19192e-016
  70
    32
  0
VERTEX
  8
0
  5
868B
 10
259.634
 20
169.163
 30
2.18041e-016
  70
    32
  0
VERTEX
  8
0
  5
868C
 10
259.653
 20
169.188
 30
2.16759e-016
  70
    32
  0
VERTEX
  8
0
  5
868D
 10
259.672
 20
169.214
 30
2.15346e-016
  70
    32
  0
VERTEX
  8
0
  5
868E
 10
259.690
 20
169.241
 30
2.13803e-016
  70
    32
  0
VERTEX
  8
0
  5
868F
 10
259.707
 20
169.269
 30
2.12132e-016
  70
    32
  0
VERTEX
  8
0
  5
8690
 10
259.724
 20
169.297
 30
2.10333e-016
  70
    32
  0
VERTEX
  8
0
  5
8691
 10
259.741
 20
169.326
 30
2.08407e-016
  70
    32
  0
VERTEX
  8
0
  5
8692
 10
259.757
 20
169.355
 30
2.06355e-016
  70
    32
  0
VERTEX
  8
0
  5
8693
 10
259.773
 20
169.385
 30
2.04180e-016
  70
    32
  0
VERTEX
  8
0
  5
8694
 10
259.788
 20
169.416
 30
2.01881e-016
  70
    32
  0
VERTEX
  8
0
  5
8695
 10
259.803
 20
169.447
 30
1.99461e-016
  70
    32
  0
VERTEX
  8
0
  5
8696
 10
259.818
 20
169.479
 30
1.96920e-016
  70
    32
  0
VERTEX
  8
0
  5
8697
 10
259.831
 20
169.511
 30
1.94261e-016
  70
    32
  0
VERTEX
  8
0
  5
8698
 10
259.845
 20
169.544
 30
1.91485e-016
  70
    32
  0
VERTEX
  8
0
  5
8699
 10
259.858
 20
169.577
 30
1.88593e-016
  70
    32
  0
VERTEX
  8
0
  5
869A
 10
259.870
 20
169.611
 30
1.85588e-016
  70
    32
  0
VERTEX
  8
0
  5
869B
 10
259.882
 20
169.646
 30
1.82471e-016
  70
    32
  0
VERTEX
  8
0
  5
869C
 10
259.893
 20
169.681
 30
1.79245e-016
  70
    32
  0
VERTEX
  8
0
  5
869D
 10
259.904
 20
169.716
 30
1.75910e-016
  70
    32
  0
VERTEX
  8
0
  5
869E
 10
259.914
 20
169.752
 30
1.72469e-016
  70
    32
  0
VERTEX
  8
0
  5
869F
 10
259.924
 20
169.788
 30
1.68925e-016
  70
    32
  0
VERTEX
  8
0
  5
86A0
 10
259.933
 20
169.824
 30
1.65278e-016
  70
    32
  0
VERTEX
  8
0
  5
86A1
 10
259.942
 20
169.861
 30
1.61532e-016
  70
    32
  0
VERTEX
  8
0
  5
86A2
 10
259.950
 20
169.898
 30
1.57689e-016
  70
    32
  0
VERTEX
  8
0
  5
86A3
 10
259.957
 20
169.936
 30
1.53751e-016
  70
    32
  0
VERTEX
  8
0
  5
86A4
 10
259.964
 20
169.973
 30
1.49720e-016
  70
    32
  0
VERTEX
  8
0
  5
86A5
 10
259.970
 20
170.011
 30
1.45599e-016
  70
    32
  0
VERTEX
  8
0
  5
86A6
 10
259.976
 20
170.049
 30
1.41390e-016
  70
    32
  0
VERTEX
  8
0
  5
86A7
 10
259.981
 20
170.088
 30
1.37097e-016
  70
    32
  0
VERTEX
  8
0
  5
86A8
 10
259.985
 20
170.126
 30
1.32720e-016
  70
    32
  0
VERTEX
  8
0
  5
86A9
 10
259.989
 20
170.165
 30
1.28264e-016
  70
    32
  0
VERTEX
  8
0
  5
86AA
 10
259.992
 20
170.204
 30
1.23730e-016
  70
    32
  0
VERTEX
  8
0
  5
86AB
 10
259.995
 20
170.243
 30
1.19122e-016
  70
    32
  0
VERTEX
  8
0
  5
86AC
 10
259.997
 20
170.282
 30
1.14442e-016
  70
    32
  0
VERTEX
  8
0
  5
86AD
 10
259.999
 20
170.321
 30
1.09693e-016
  70
    32
  0
VERTEX
  8
0
  5
86AE
 10
260.000
 20
170.361
 30
1.04878e-016
  70
    32
  0
VERTEX
  8
0
  5
86AF
 10
260.000
 20
170.400
 30
1.00000e-016
  70
    32
  0
VERTEX
  8
0
  5
86B0
 10
260.000
 20
170.439
 30
9.50616e-017
  70
    32
  0
VERTEX
  8
0
  5
86B1
 10
259.999
 20
170.479
 30
9.00660e-017
  70
    32
  0
VERTEX
  8
0
  5
86B2
 10
259.997
 20
170.518
 30
8.50161e-017
  70
    32
  0
VERTEX
  8
0
  5
86B3
 10
259.995
 20
170.557
 30
7.99150e-017
  70
    32
  0
VERTEX
  8
0
  5
86B4
 10
259.992
 20
170.596
 30
7.47658e-017
  70
    32
  0
VERTEX
  8
0
  5
86B5
 10
259.989
 20
170.635
 30
6.95716e-017
  70
    32
  0
VERTEX
  8
0
  5
86B6
 10
259.985
 20
170.674
 30
6.43354e-017
  70
    32
  0
VERTEX
  8
0
  5
86B7
 10
259.981
 20
170.712
 30
5.90605e-017
  70
    32
  0
VERTEX
  8
0
  5
86B8
 10
259.976
 20
170.751
 30
5.37500e-017
  70
    32
  0
VERTEX
  8
0
  5
86B9
 10
259.970
 20
170.789
 30
4.84071e-017
  70
    32
  0
VERTEX
  8
0
  5
86BA
 10
259.964
 20
170.827
 30
4.30351e-017
  70
    32
  0
VERTEX
  8
0
  5
86BB
 10
259.957
 20
170.864
 30
3.76371e-017
  70
    32
  0
VERTEX
  8
0
  5
86BC
 10
259.950
 20
170.902
 30
3.22165e-017
  70
    32
  0
VERTEX
  8
0
  5
86BD
 10
259.942
 20
170.939
 30
2.67764e-017
  70
    32
  0
VERTEX
  8
0
  5
86BE
 10
259.933
 20
170.976
 30
2.13203e-017
  70
    32
  0
VERTEX
  8
0
  5
86BF
 10
259.924
 20
171.012
 30
1.58513e-017
  70
    32
  0
VERTEX
  8
0
  5
86C0
 10
259.914
 20
171.048
 30
1.03727e-017
  70
    32
  0
VERTEX
  8
0
  5
86C1
 10
259.904
 20
171.084
 30
4.88791e-018
  70
    32
  0
VERTEX
  8
0
  5
86C2
 10
259.893
 20
171.119
 30
-5.99836e-019
  70
    32
  0
VERTEX
  8
0
  5
86C3
 10
259.882
 20
171.154
 30
-6.08722e-018
  70
    32
  0
VERTEX
  8
0
  5
86C4
 10
259.870
 20
171.189
 30
-1.15709e-017
  70
    32
  0
VERTEX
  8
0
  5
86C5
 10
259.858
 20
171.223
 30
-1.70477e-017
  70
    32
  0
VERTEX
  8
0
  5
86C6
 10
259.845
 20
171.256
 30
-2.25142e-017
  70
    32
  0
VERTEX
  8
0
  5
86C7
 10
259.831
 20
171.289
 30
-2.79671e-017
  70
    32
  0
VERTEX
  8
0
  5
86C8
 10
259.818
 20
171.321
 30
-3.34032e-017
  70
    32
  0
VERTEX
  8
0
  5
86C9
 10
259.803
 20
171.353
 30
-3.88191e-017
  70
    32
  0
VERTEX
  8
0
  5
86CA
 10
259.788
 20
171.384
 30
-4.42117e-017
  70
    32
  0
VERTEX
  8
0
  5
86CB
 10
259.773
 20
171.415
 30
-4.95776e-017
  70
    32
  0
VERTEX
  8
0
  5
86CC
 10
259.757
 20
171.445
 30
-5.49137e-017
  70
    32
  0
VERTEX
  8
0
  5
86CD
 10
259.741
 20
171.474
 30
-6.02167e-017
  70
    32
  0
VERTEX
  8
0
  5
86CE
 10
259.724
 20
171.503
 30
-6.54834e-017
  70
    32
  0
VERTEX
  8
0
  5
86CF
 10
259.707
 20
171.531
 30
-7.07107e-017
  70
    32
  0
VERTEX
  8
0
  5
86D0
 10
259.690
 20
171.559
 30
-7.58954e-017
  70
    32
  0
VERTEX
  8
0
  5
86D1
 10
259.672
 20
171.586
 30
-8.10343e-017
  70
    32
  0
VERTEX
  8
0
  5
86D2
 10
259.653
 20
171.612
 30
-8.61245e-017
  70
    32
  0
VERTEX
  8
0
  5
86D3
 10
259.634
 20
171.637
 30
-9.11628e-017
  70
    32
  0
VERTEX
  8
0
  5
86D4
 10
259.615
 20
171.661
 30
-9.61461e-017
  70
    32
  0
VERTEX
  8
0
  5
86D5
 10
259.596
 20
171.685
 30
-1.01072e-016
  70
    32
  0
VERTEX
  8
0
  5
86D6
 10
259.576
 20
171.708
 30
-1.05936e-016
  70
    32
  0
VERTEX
  8
0
  5
86D7
 10
259.556
 20
171.730
 30
-1.10737e-016
  70
    32
  0
VERTEX
  8
0
  5
86D8
 10
259.535
 20
171.752
 30
-1.15471e-016
  70
    32
  0
VERTEX
  8
0
  5
86D9
 10
259.514
 20
171.772
 30
-1.20135e-016
  70
    32
  0
VERTEX
  8
0
  5
86DA
 10
259.493
 20
171.792
 30
-1.24728e-016
  70
    32
  0
VERTEX
  8
0
  5
86DB
 10
259.471
 20
171.811
 30
-1.29245e-016
  70
    32
  0
VERTEX
  8
0
  5
86DC
 10
259.450
 20
171.829
 30
-1.33684e-016
  70
    32
  0
VERTEX
  8
0
  5
86DD
 10
259.428
 20
171.846
 30
-1.38042e-016
  70
    32
  0
VERTEX
  8
0
  5
86DE
 10
259.405
 20
171.863
 30
-1.42318e-016
  70
    32
  0
VERTEX
  8
0
  5
86DF
 10
259.383
 20
171.878
 30
-1.46508e-016
  70
    32
  0
VERTEX
  8
0
  5
86E0
 10
259.360
 20
171.893
 30
-1.50609e-016
  70
    32
  0
VERTEX
  8
0
  5
86E1
 10
259.337
 20
171.906
 30
-1.54620e-016
  70
    32
  0
VERTEX
  8
0
  5
86E2
 10
259.314
 20
171.919
 30
-1.58537e-016
  70
    32
  0
VERTEX
  8
0
  5
86E3
 10
259.290
 20
171.931
 30
-1.62360e-016
  70
    32
  0
VERTEX
  8
0
  5
86E4
 10
259.267
 20
171.942
 30
-1.66084e-016
  70
    32
  0
VERTEX
  8
0
  5
86E5
 10
259.243
 20
171.952
 30
-1.69708e-016
  70
    32
  0
VERTEX
  8
0
  5
86E6
 10
259.219
 20
171.961
 30
-1.73230e-016
  70
    32
  0
VERTEX
  8
0
  5
86E7
 10
259.195
 20
171.969
 30
-1.76648e-016
  70
    32
  0
VERTEX
  8
0
  5
86E8
 10
259.171
 20
171.976
 30
-1.79959e-016
  70
    32
  0
VERTEX
  8
0
  5
86E9
 10
259.147
 20
171.983
 30
-1.83162e-016
  70
    32
  0
VERTEX
  8
0
  5
86EA
 10
259.122
 20
171.988
 30
-1.86255e-016
  70
    32
  0
VERTEX
  8
0
  5
86EB
 10
259.098
 20
171.992
 30
-1.89235e-016
  70
    32
  0
VERTEX
  8
0
  5
86EC
 10
259.074
 20
171.996
 30
-1.92102e-016
  70
    32
  0
VERTEX
  8
0
  5
86ED
 10
259.049
 20
171.998
 30
-1.94852e-016
  70
    32
  0
VERTEX
  8
0
  5
86EE
 10
259.025
 20
172.000
 30
-1.97486e-016
  70
    32
  0
VERTEX
  8
0
  5
86EF
 10
259.000
 20
172.000
 30
-2.00000e-016
  70
    32
  0
SEQEND
  8
0
  5
86F0
  0
POLYLINE
  5
7CF9
  8
0
 10
241.0
 20
172.00000107288386
 30
-0.0000000000000002
 66
     1
 70
     8
  0
VERTEX
  8
0
  5
86F1
 10
241.000
 20
172.000
 30
-2.00000e-016
  70
    32
  0
VERTEX
  8
0
  5
86F2
 10
240.975
 20
172.000
 30
-1.99940e-016
  70
    32
  0
VERTEX
  8
0
  5
86F3
 10
240.951
 20
171.998
 30
-1.99759e-016
  70
    32
  0
VERTEX
  8
0
  5
86F4
 10
240.926
 20
171.996
 30
-1.99458e-016
  70
    32
  0
VERTEX
  8
0
  5
86F5
 10
240.902
 20
171.992
 30
-1.99037e-016
  70
    32
  0
VERTEX
  8
0
  5
86F6
 10
240.878
 20
171.988
 30
-1.98496e-016
  70
    32
  0
VERTEX
  8
0
  5
86F7
 10
240.853
 20
171.983
 30
-1.97835e-016
  70
    32
  0
VERTEX
  8
0
  5
86F8
 10
240.829
 20
171.976
 30
-1.97056e-016
  70
    32
  0
VERTEX
  8
0
  5
86F9
 10
240.805
 20
171.969
 30
-1.96157e-016
  70
    32
  0
VERTEX
  8
0
  5
86FA
 10
240.781
 20
171.961
 30
-1.95140e-016
  70
    32
  0
VERTEX
  8
0
  5
86FB
 10
240.757
 20
171.952
 30
-1.94006e-016
  70
    32
  0
VERTEX
  8
0
  5
86FC
 10
240.733
 20
171.942
 30
-1.92755e-016
  70
    32
  0
VERTEX
  8
0
  5
86FD
 10
240.710
 20
171.931
 30
-1.91388e-016
  70
    32
  0
VERTEX
  8
0
  5
86FE
 10
240.686
 20
171.919
 30
-1.89906e-016
  70
    32
  0
VERTEX
  8
0
  5
86FF
 10
240.663
 20
171.906
 30
-1.88309e-016
  70
    32
  0
VERTEX
  8
0
  5
8700
 10
240.640
 20
171.893
 30
-1.86599e-016
  70
    32
  0
VERTEX
  8
0
  5
8701
 10
240.617
 20
171.878
 30
-1.84776e-016
  70
    32
  0
VERTEX
  8
0
  5
8702
 10
240.595
 20
171.863
 30
-1.82842e-016
  70
    32
  0
VERTEX
  8
0
  5
8703
 10
240.572
 20
171.846
 30
-1.80798e-016
  70
    32
  0
VERTEX
  8
0
  5
8704
 10
240.550
 20
171.829
 30
-1.78645e-016
  70
    32
  0
VERTEX
  8
0
  5
8705
 10
240.529
 20
171.811
 30
-1.76384e-016
  70
    32
  0
VERTEX
  8
0
  5
8706
 10
240.507
 20
171.792
 30
-1.74017e-016
  70
    32
  0
VERTEX
  8
0
  5
8707
 10
240.486
 20
171.772
 30
-1.71546e-016
  70
    32
  0
VERTEX
  8
0
  5
8708
 10
240.465
 20
171.752
 30
-1.68971e-016
  70
    32
  0
VERTEX
  8
0
  5
8709
 10
240.444
 20
171.730
 30
-1.66294e-016
  70
    32
  0
VERTEX
  8
0
  5
870A
 10
240.424
 20
171.708
 30
-1.63517e-016
  70
    32
  0
VERTEX
  8
0
  5
870B
 10
240.404
 20
171.685
 30
-1.60642e-016
  70
    32
  0
VERTEX
  8
0
  5
870C
 10
240.385
 20
171.661
 30
-1.57669e-016
  70
    32
  0
VERTEX
  8
0
  5
870D
 10
240.366
 20
171.637
 30
-1.54602e-016
  70
    32
  0
VERTEX
  8
0
  5
870E
 10
240.347
 20
171.612
 30
-1.51442e-016
  70
    32
  0
VERTEX
  8
0
  5
870F
 10
240.328
 20
171.586
 30
-1.48190e-016
  70
    32
  0
VERTEX
  8
0
  5
8710
 10
240.310
 20
171.559
 30
-1.44849e-016
  70
    32
  0
VERTEX
  8
0
  5
8711
 10
240.293
 20
171.531
 30
-1.41421e-016
  70
    32
  0
VERTEX
  8
0
  5
8712
 10
240.276
 20
171.503
 30
-1.37908e-016
  70
    32
  0
VERTEX
  8
0
  5
8713
 10
240.259
 20
171.474
 30
-1.34312e-016
  70
    32
  0
VERTEX
  8
0
  5
8714
 10
240.243
 20
171.445
 30
-1.30635e-016
  70
    32
  0
VERTEX
  8
0
  5
8715
 10
240.227
 20
171.415
 30
-1.26879e-016
  70
    32
  0
VERTEX
  8
0
  5
8716
 10
240.212
 20
171.384
 30
-1.23046e-016
  70
    32
  0
VERTEX
  8
0
  5
8717
 10
240.197
 20
171.353
 30
-1.19140e-016
  70
    32
  0
VERTEX
  8
0
  5
8718
 10
240.182
 20
171.321
 30
-1.15162e-016
  70
    32
  0
VERTEX
  8
0
  5
8719
 10
240.169
 20
171.289
 30
-1.11114e-016
  70
    32
  0
VERTEX
  8
0
  5
871A
 10
240.155
 20
171.256
 30
-1.07000e-016
  70
    32
  0
VERTEX
  8
0
  5
871B
 10
240.142
 20
171.223
 30
-1.02821e-016
  70
    32
  0
VERTEX
  8
0
  5
871C
 10
240.130
 20
171.189
 30
-9.85796e-017
  70
    32
  0
VERTEX
  8
0
  5
871D
 10
240.118
 20
171.154
 30
-9.42793e-017
  70
    32
  0
VERTEX
  8
0
  5
871E
 10
240.107
 20
171.119
 30
-8.99223e-017
  70
    32
  0
VERTEX
  8
0
  5
871F
 10
240.096
 20
171.084
 30
-8.55110e-017
  70
    32
  0
VERTEX
  8
0
  5
8720
 10
240.086
 20
171.048
 30
-8.10483e-017
  70
    32
  0
VERTEX
  8
0
  5
8721
 10
240.076
 20
171.012
 30
-7.65367e-017
  70
    32
  0
VERTEX
  8
0
  5
8722
 10
240.067
 20
170.976
 30
-7.19790e-017
  70
    32
  0
VERTEX
  8
0
  5
8723
 10
240.058
 20
170.939
 30
-6.73780e-017
  70
    32
  0
VERTEX
  8
0
  5
8724
 10
240.050
 20
170.902
 30
-6.27363e-017
  70
    32
  0
VERTEX
  8
0
  5
8725
 10
240.043
 20
170.864
 30
-5.80569e-017
  70
    32
  0
VERTEX
  8
0
  5
8726
 10
240.036
 20
170.827
 30
-5.33426e-017
  70
    32
  0
VERTEX
  8
0
  5
8727
 10
240.030
 20
170.789
 30
-4.85960e-017
  70
    32
  0
VERTEX
  8
0
  5
8728
 10
240.024
 20
170.751
 30
-4.38202e-017
  70
    32
  0
VERTEX
  8
0
  5
8729
 10
240.019
 20
170.712
 30
-3.90181e-017
  70
    32
  0
VERTEX
  8
0
  5
872A
 10
240.015
 20
170.674
 30
-3.41924e-017
  70
    32
  0
VERTEX
  8
0
  5
872B
 10
240.011
 20
170.635
 30
-2.93461e-017
  70
    32
  0
VERTEX
  8
0
  5
872C
 10
240.008
 20
170.596
 30
-2.44821e-017
  70
    32
  0
VERTEX
  8
0
  5
872D
 10
240.005
 20
170.557
 30
-1.96034e-017
  70
    32
  0
VERTEX
  8
0
  5
872E
 10
240.003
 20
170.518
 30
-1.47129e-017
  70
    32
  0
VERTEX
  8
0
  5
872F
 10
240.001
 20
170.479
 30
-9.81353e-018
  70
    32
  0
VERTEX
  8
0
  5
8730
 10
240.000
 20
170.439
 30
-4.90825e-018
  70
    32
  0
VERTEX
  8
0
  5
8731
 10
240.000
 20
170.400
 30
-1.22465e-032
  70
    32
  0
VERTEX
  8
0
  5
8732
 10
240.000
 20
170.361
 30
4.90825e-018
  70
    32
  0
VERTEX
  8
0
  5
8733
 10
240.001
 20
170.321
 30
9.81353e-018
  70
    32
  0
VERTEX
  8
0
  5
8734
 10
240.003
 20
170.282
 30
1.47129e-017
  70
    32
  0
VERTEX
  8
0
  5
8735
 10
240.005
 20
170.243
 30
1.96034e-017
  70
    32
  0
VERTEX
  8
0
  5
8736
 10
240.008
 20
170.204
 30
2.44821e-017
  70
    32
  0
VERTEX
  8
0
  5
8737
 10
240.011
 20
170.165
 30
2.93461e-017
  70
    32
  0
VERTEX
  8
0
  5
8738
 10
240.015
 20
170.126
 30
3.41924e-017
  70
    32
  0
VERTEX
  8
0
  5
8739
 10
240.019
 20
170.088
 30
3.90181e-017
  70
    32
  0
VERTEX
  8
0
  5
873A
 10
240.024
 20
170.049
 30
4.38202e-017
  70
    32
  0
VERTEX
  8
0
  5
873B
 10
240.030
 20
170.011
 30
4.85960e-017
  70
    32
  0
VERTEX
  8
0
  5
873C
 10
240.036
 20
169.973
 30
5.33426e-017
  70
    32
  0
VERTEX
  8
0
  5
873D
 10
240.043
 20
169.936
 30
5.80569e-017
  70
    32
  0
VERTEX
  8
0
  5
873E
 10
240.050
 20
169.898
 30
6.27363e-017
  70
    32
  0
VERTEX
  8
0
  5
873F
 10
240.058
 20
169.861
 30
6.73780e-017
  70
    32
  0
VERTEX
  8
0
  5
8740
 10
240.067
 20
169.824
 30
7.19790e-017
  70
    32
  0
VERTEX
  8
0
  5
8741
 10
240.076
 20
169.788
 30
7.65367e-017
  70
    32
  0
VERTEX
  8
0
  5
8742
 10
240.086
 20
169.752
 30
8.10483e-017
  70
    32
  0
VERTEX
  8
0
  5
8743
 10
240.096
 20
169.716
 30
8.55110e-017
  70
    32
  0
VERTEX
  8
0
  5
8744
 10
240.107
 20
169.681
 30
8.99223e-017
  70
    32
  0
VERTEX
  8
0
  5
8745
 10
240.118
 20
169.646
 30
9.42793e-017
  70
    32
  0
VERTEX
  8
0
  5
8746
 10
240.130
 20
169.611
 30
9.85796e-017
  70
    32
  0
VERTEX
  8
0
  5
8747
 10
240.142
 20
169.577
 30
1.02821e-016
  70
    32
  0
VERTEX
  8
0
  5
8748
 10
240.155
 20
169.544
 30
1.07000e-016
  70
    32
  0
VERTEX
  8
0
  5
8749
 10
240.169
 20
169.511
 30
1.11114e-016
  70
    32
  0
VERTEX
  8
0
  5
874A
 10
240.182
 20
169.479
 30
1.15162e-016
  70
    32
  0
VERTEX
  8
0
  5
874B
 10
240.197
 20
169.447
 30
1.19140e-016
  70
    32
  0
VERTEX
  8
0
  5
874C
 10
240.212
 20
169.416
 30
1.23046e-016
  70
    32
  0
VERTEX
  8
0
  5
874D
 10
240.227
 20
169.385
 30
1.26879e-016
  70
    32
  0
VERTEX
  8
0
  5
874E
 10
240.243
 20
169.355
 30
1.30635e-016
  70
    32
  0
VERTEX
  8
0
  5
874F
 10
240.259
 20
169.326
 30
1.34312e-016
  70
    32
  0
VERTEX
  8
0
  5
8750
 10
240.276
 20
169.297
 30
1.37908e-016
  70
    32
  0
VERTEX
  8
0
  5
8751
 10
240.293
 20
169.269
 30
1.41421e-016
  70
    32
  0
VERTEX
  8
0
  5
8752
 10
240.310
 20
169.241
 30
1.44849e-016
  70
    32
  0
VERTEX
  8
0
  5
8753
 10
240.328
 20
169.214
 30
1.48190e-016
  70
    32
  0
VERTEX
  8
0
  5
8754
 10
240.347
 20
169.188
 30
1.51442e-016
  70
    32
  0
VERTEX
  8
0
  5
8755
 10
240.366
 20
169.163
 30
1.54602e-016
  70
    32
  0
VERTEX
  8
0
  5
8756
 10
240.385
 20
169.139
 30
1.57669e-016
  70
    32
  0
VERTEX
  8
0
  5
8757
 10
240.404
 20
169.115
 30
1.60642e-016
  70
    32
  0
VERTEX
  8
0
  5
8758
 10
240.424
 20
169.092
 30
1.63517e-016
  70
    32
  0
VERTEX
  8
0
  5
8759
 10
240.444
 20
169.070
 30
1.66294e-016
  70
    32
  0
VERTEX
  8
0
  5
875A
 10
240.465
 20
169.048
 30
1.68971e-016
  70
    32
  0
VERTEX
  8
0
  5
875B
 10
240.486
 20
169.028
 30
1.71546e-016
  70
    32
  0
VERTEX
  8
0
  5
875C
 10
240.507
 20
169.008
 30
1.74017e-016
  70
    32
  0
VERTEX
  8
0
  5
875D
 10
240.529
 20
168.989
 30
1.76384e-016
  70
    32
  0
VERTEX
  8
0
  5
875E
 10
240.550
 20
168.971
 30
1.78645e-016
  70
    32
  0
VERTEX
  8
0
  5
875F
 10
240.572
 20
168.954
 30
1.80798e-016
  70
    32
  0
VERTEX
  8
0
  5
8760
 10
240.595
 20
168.937
 30
1.82842e-016
  70
    32
  0
VERTEX
  8
0
  5
8761
 10
240.617
 20
168.922
 30
1.84776e-016
  70
    32
  0
VERTEX
  8
0
  5
8762
 10
240.640
 20
168.907
 30
1.86599e-016
  70
    32
  0
VERTEX
  8
0
  5
8763
 10
240.663
 20
168.894
 30
1.88309e-016
  70
    32
  0
VERTEX
  8
0
  5
8764
 10
240.686
 20
168.881
 30
1.89906e-016
  70
    32
  0
VERTEX
  8
0
  5
8765
 10
240.710
 20
168.869
 30
1.91388e-016
  70
    32
  0
VERTEX
  8
0
  5
8766
 10
240.733
 20
168.858
 30
1.92755e-016
  70
    32
  0
VERTEX
  8
0
  5
8767
 10
240.757
 20
168.848
 30
1.94006e-016
  70
    32
  0
VERTEX
  8
0
  5
8768
 10
240.781
 20
168.839
 30
1.95140e-016
  70
    32
  0
VERTEX
  8
0
  5
8769
 10
240.805
 20
168.831
 30
1.96157e-016
  70
    32
  0
VERTEX
  8
0
  5
876A
 10
240.829
 20
168.824
 30
1.97056e-016
  70
    32
  0
VERTEX
  8
0
  5
876B
 10
240.853
 20
168.817
 30
1.97835e-016
  70
    32
  0
VERTEX
  8
0
  5
876C
 10
240.878
 20
168.812
 30
1.98496e-016
  70
    32
  0
VERTEX
  8
0
  5
876D
 10
240.902
 20
168.808
 30
1.99037e-016
  70
    32
  0
VERTEX
  8
0
  5
876E
 10
240.926
 20
168.804
 30
1.99458e-016
  70
    32
  0
VERTEX
  8
0
  5
876F
 10
240.951
 20
168.802
 30
1.99759e-016
  70
    32
  0
VERTEX
  8
0
  5
8770
 10
240.975
 20
168.800
 30
1.99940e-016
  70
    32
  0
VERTEX
  8
0
  5
8771
 10
241.000
 20
168.800
 30
2.00000e-016
  70
    32
  0
SEQEND
  8
0
  5
8772
  0
LINE
  5
7CFA
  8
0
 10
240.00000022351739
 20
192.80000068247341
 30
0.0
 11
240.00000022351739
 21
191.80000051856061
 31
0.0
  0
LINE
  5
7CFB
  8
0
 10
259.99999977648258
 20
191.80000051856061
 30
0.0
 11
259.99999977648258
 21
192.80000068247341
 31
0.0
  0
LINE
  5
7CFC
  8
0
 10
240.00000022351739
 20
168.8000023365023
 30
0.0
 11
240.00000022351739
 21
166.35000184178381
 31
0.0
  0
LINE
  5
7CFD
  8
0
 10
259.99999977648258
 20
166.35000184178381
 30
0.0
 11
259.99999977648258
 21
168.8000023365023
 31
0.0
  0
LINE
  5
7CFE
  8
0
 10
240.00000022351739
 20
191.80000051856061
 30
0.0
 11
240.29999971389771
 21
191.50000102818041
 31
0.0
  0
LINE
  5
7CFF
  8
0
 10
259.70000028610229
 20
191.50000102818041
 30
0.0
 11
259.99999977648258
 21
191.80000051856061
 31
0.0
  0
LINE
  5
7D00
  8
0
 10
240.00000022351739
 20
163.79999965429329
 30
0.0
 11
240.29999971389771
 21
163.50000202655821
 31
0.0
  0
LINE
  5
7D01
  8
0
 10
259.70000028610229
 20
163.50000202655821
 30
0.0
 11
259.99999977648258
 21
163.79999965429329
 31
0.0
  0
LINE
  5
7D02
  8
0
 10
259.99999977648258
 20
173.00000265240689
 30
0.0
 11
259.70000028610229
 21
173.30000028014209
 31
0.0
  0
LINE
  5
7D03
  8
0
 10
240.29999971389771
 20
173.30000028014209
 30
0.0
 11
240.00000022351739
 21
173.00000265240689
 31
0.0
  0
LINE
  5
7D04
  8
0
 10
240.00000022351739
 20
180.80000057816531
 30
0.0
 11
240.00000022351739
 21
179.80000227689769
 31
0.0
  0
LINE
  5
7D05
  8
0
 10
259.99999977648258
 20
179.80000227689769
 30
0.0
 11
259.99999977648258
 21
180.80000057816531
 31
0.0
  0
LINE
  5
7D06
  8
0
 10
240.00000022351739
 20
197.000000998378
 30
0.0
 11
240.00000022351739
 21
196.0000008344652
 31
0.0
  0
LINE
  5
7D07
  8
0
 10
259.99999977648258
 20
196.0000008344652
 30
0.0
 11
259.99999977648258
 21
197.000000998378
 31
0.0
  0
LINE
  5
7D08
  8
0
 10
259.99999977648258
 20
197.000000998378
 30
0.0
 11
259.70000028610229
 21
197.30000048875829
 31
0.0
  0
LINE
  5
7D09
  8
0
 10
240.29999971389771
 20
197.30000048875829
 30
0.0
 11
240.00000022351739
 21
197.000000998378
 31
0.0
  0
LINE
  5
7D0A
  8
0
 10
240.00000022351739
 20
185.0000008940699
 30
0.0
 11
240.00000022351739
 21
184.0000007301571
 31
0.0
  0
LINE
  5
7D0B
  8
0
 10
259.99999977648258
 20
184.0000007301571
 30
0.0
 11
259.99999977648258
 21
185.0000008940699
 31
0.0
  0
LINE
  5
7D0C
  8
0
 10
259.99999977648258
 20
185.0000008940699
 30
0.0
 11
259.70000028610229
 21
185.30000038445019
 31
0.0
  0
LINE
  5
7D0D
  8
0
 10
240.29999971389771
 20
185.30000038445019
 30
0.0
 11
240.00000022351739
 21
185.0000008940699
 31
0.0
  0
LINE
  5
7D0E
  8
0
 10
240.00000022351739
 20
179.80000227689769
 30
0.0
 11
240.29999971389771
 21
179.50000092387219
 31
0.0
  0
LINE
  5
7D0F
  8
0
 10
259.70000028610229
 20
179.50000092387219
 30
0.0
 11
259.99999977648258
 21
179.80000227689769
 31
0.0
  0
LINE
  5
7D10
  8
0
 10
240.00000022351739
 20
173.00000265240689
 30
0.0
 11
240.00000022351739
 21
172.000000625849
 31
0.0
  0
LINE
  5
7D11
  8
0
 10
259.99999977648258
 20
172.000000625849
 30
0.0
 11
259.99999977648258
 21
173.00000265240689
 31
0.0
  0
LINE
  5
7D12
  8
0
 10
240.00000022351739
 20
165.00000134110471
 30
0.0
 11
240.00000022351739
 21
163.79999965429329
 31
0.0
  0
LINE
  5
7D13
  8
0
 10
259.99999977648258
 20
163.79999965429329
 30
0.0
 11
259.99999977648258
 21
165.00000134110471
 31
0.0
  0
LINE
  5
7D14
  8
0
 10
240.29999971389771
 20
163.50000202655821
 30
0.0
 11
240.29999971389771
 21
162.69999966025381
 31
0.0
  0
LINE
  5
7D15
  8
0
 10
259.70000028610229
 20
162.69999966025381
 30
0.0
 11
259.70000028610229
 21
163.50000202655821
 31
0.0
  0
LINE
  5
7D16
  8
0
 10
240.29999971389771
 20
162.69999966025381
 30
0.0
 11
240.5000003054738
 21
162.5000000000002
 31
0.0
  0
LINE
  5
7D17
  8
0
 10
259.4999996945262
 20
162.5000000000002
 30
0.0
 11
259.70000028610229
 21
162.69999966025381
 31
0.0
  0
LINE
  5
7D18
  8
0
 10
240.29999971389771
 20
191.50000102818041
 30
0.0
 11
240.29999971389771
 21
185.30000038445019
 31
0.0
  0
LINE
  5
7D19
  8
0
 10
259.70000028610229
 20
191.00556932389759
 30
0.0
 11
259.70000028610229
 21
191.50000102818041
 31
0.0
  0
LINE
  5
7D1A
  8
0
 10
259.70000028610229
 20
185.30000038445019
 30
0.0
 11
259.70000028610229
 21
188.01673911511921
 31
0.0
  0
LINE
  5
7D1B
  8
0
 10
240.29999971389771
 20
179.50000092387219
 30
0.0
 11
240.29999971389771
 21
173.30000028014209
 31
0.0
  0
LINE
  5
7D1C
  8
0
 10
259.70000028610229
 20
177.00556889176389
 30
0.0
 11
259.70000028610229
 21
179.50000092387219
 31
0.0
  0
LINE
  5
7D1D
  8
0
 10
259.70000028610229
 20
173.30000028014209
 30
0.0
 11
259.70000028610229
 21
174.0167386829855
 31
0.0
  0
LINE
  5
7D1E
  8
0
 10
240.29999971389771
 20
205.500001460314
 30
0.0
 11
240.29999971389771
 21
197.30000048875829
 31
0.0
  0
LINE
  5
7D1F
  8
0
 10
259.70000028610229
 20
197.30000048875829
 30
0.0
 11
259.70000028610229
 21
205.500001460314
 31
0.0
  0
LINE
  5
7D20
  8
0
 10
240.5000003054738
 20
166.35000184178381
 30
0.0
 11
240.5000003054738
 21
165.00000134110471
 31
0.0
  0
LINE
  5
7D21
  8
0
 10
259.4999996945262
 20
165.00000134110471
 30
0.0
 11
259.4999996945262
 21
166.35000184178381
 31
0.0
  0
LINE
  5
7D22
  8
0
 10
240.00011757016179
 20
192.80000068247341
 30
0.0
 11
259.99999977648258
 21
192.80000068247341
 31
0.0
  0
LINE
  5
7D23
  8
0
 10
240.00011757016179
 20
166.35000184178381
 30
0.0
 11
259.99999977648258
 21
166.35000184178381
 31
0.0
  0
LINE
  5
7D24
  8
0
 10
240.00011757016179
 20
168.8000023365023
 30
0.0
 11
259.99999977648258
 21
168.8000023365023
 31
0.0
  0
LINE
  5
7D25
  8
0
 10
240.00011757016179
 20
180.80000057816531
 30
0.0
 11
259.99999977648258
 21
180.80000057816531
 31
0.0
  0
LINE
  5
7D26
  8
0
 10
240.00011757016179
 20
196.0000008344652
 30
0.0
 11
259.99999977648258
 21
196.0000008344652
 31
0.0
  0
LINE
  5
7D27
  8
0
 10
240.00011757016179
 20
184.0000007301571
 30
0.0
 11
259.99999977648258
 21
184.0000007301571
 31
0.0
  0
LINE
  5
7D28
  8
0
 10
240.00011757016179
 20
172.000000625849
 30
0.0
 11
259.99999977648258
 21
172.000000625849
 31
0.0
  0
LINE
  5
7D29
  8
0
 10
240.00011757016179
 20
165.00000134110471
 30
0.0
 11
259.99999977648258
 21
165.00000134110471
 31
0.0
  0
LINE
  5
7D2A
  8
0
 10
259.4999996945262
 20
162.5000000000002
 30
0.0
 11
240.50011113286021
 21
162.5000000000002
 31
0.0
  0
ARC
  5
7D2B
  8
0
 10
268.19332077792978
 20
189.5017037017449
 30
0.0
 40
8.6245765379274335
 50
169.99557353280389
 51
189.9144919442891
  0
ARC
  5
7D2C
  8
0
 10
268.19309651258982
 20
175.50170251013569
 30
0.0
 40
8.6243554911270692
 50
169.99532191787051
 51
189.9147435030697
  0
POLYLINE
  5
7D2D
  8
0
 10
409.0
 20
180.80000107288379
 30
0.0
 66
     1
 70
     8
  0
VERTEX
  8
0
  5
8773
 10
409.000
 20
180.800
 30
0.000000
  70
    32
  0
VERTEX
  8
0
  5
8774
 10
409.025
 20
180.800
 30
0.000000
  70
    32
  0
VERTEX
  8
0
  5
8775
 10
409.049
 20
180.802
 30
0.000000
  70
    32
  0
VERTEX
  8
0
  5
8776
 10
409.074
 20
180.804
 30
0.000000
  70
    32
  0
VERTEX
  8
0
  5
8777
 10
409.098
 20
180.808
 30
0.000000
  70
    32
  0
VERTEX
  8
0
  5
8778
 10
409.122
 20
180.812
 30
0.000000
  70
    32
  0
VERTEX
  8
0
  5
8779
 10
409.147
 20
180.817
 30
0.000000
  70
    32
  0
VERTEX
  8
0
  5
877A
 10
409.171
 20
180.824
 30
0.000000
  70
    32
  0
VERTEX
  8
0
  5
877B
 10
409.195
 20
180.831
 30
0.000000
  70
    32
  0
VERTEX
  8
0
  5
877C
 10
409.219
 20
180.839
 30
0.000000
  70
    32
  0
VERTEX
  8
0
  5
877D
 10
409.243
 20
180.848
 30
0.000000
  70
    32
  0
VERTEX
  8
0
  5
877E
 10
409.267
 20
180.858
 30
0.000000
  70
    32
  0
VERTEX
  8
0
  5
877F
 10
409.290
 20
180.869
 30
0.000000
  70
    32
  0
VERTEX
  8
0
  5
8780
 10
409.314
 20
180.881
 30
0.000000
  70
    32
  0
VERTEX
  8
0
  5
8781
 10
409.337
 20
180.894
 30
0.000000
  70
    32
  0
VERTEX
  8
0
  5
8782
 10
409.360
 20
180.907
 30
0.000000
  70
    32
  0
VERTEX
  8
0
  5
8783
 10
409.383
 20
180.922
 30
0.000000
  70
    32
  0
VERTEX
  8
0
  5
8784
 10
409.405
 20
180.937
 30
0.000000
  70
    32
  0
VERTEX
  8
0
  5
8785
 10
409.428
 20
180.954
 30
0.000000
  70
    32
  0
VERTEX
  8
0
  5
8786
 10
409.450
 20
180.971
 30
0.000000
  70
    32
  0
VERTEX
  8
0
  5
8787
 10
409.471
 20
180.989
 30
0.000000
  70
    32
  0
VERTEX
  8
0
  5
8788
 10
409.493
 20
181.008
 30
0.000000
  70
    32
  0
VERTEX
  8
0
  5
8789
 10
409.514
 20
181.028
 30
0.000000
  70
    32
  0
VERTEX
  8
0
  5
878A
 10
409.535
 20
181.048
 30
0.000000
  70
    32
  0
VERTEX
  8
0
  5
878B
 10
409.556
 20
181.070
 30
0.000000
  70
    32
  0
VERTEX
  8
0
  5
878C
 10
409.576
 20
181.092
 30
0.000000
  70
    32
  0
VERTEX
  8
0
  5
878D
 10
409.596
 20
181.115
 30
0.000000
  70
    32
  0
VERTEX
  8
0
  5
878E
 10
409.615
 20
181.139
 30
0.000000
  70
    32
  0
VERTEX
  8
0
  5
878F
 10
409.634
 20
181.163
 30
0.000000
  70
    32
  0
VERTEX
  8
0
  5
8790
 10
409.653
 20
181.188
 30
0.000000
  70
    32
  0
VERTEX
  8
0
  5
8791
 10
409.672
 20
181.214
 30
0.000000
  70
    32
  0
VERTEX
  8
0
  5
8792
 10
409.690
 20
181.241
 30
0.000000
  70
    32
  0
VERTEX
  8
0
  5
8793
 10
409.707
 20
181.269
 30
0.000000
  70
    32
  0
VERTEX
  8
0
  5
8794
 10
409.724
 20
181.297
 30
0.000000
  70
    32
  0
VERTEX
  8
0
  5
8795
 10
409.741
 20
181.326
 30
0.000000
  70
    32
  0
VERTEX
  8
0
  5
8796
 10
409.757
 20
181.355
 30
0.000000
  70
    32
  0
VERTEX
  8
0
  5
8797
 10
409.773
 20
181.385
 30
0.000000
  70
    32
  0
VERTEX
  8
0
  5
8798
 10
409.788
 20
181.416
 30
0.000000
  70
    32
  0
VERTEX
  8
0
  5
8799
 10
409.803
 20
181.447
 30
0.000000
  70
    32
  0
VERTEX
  8
0
  5
879A
 10
409.818
 20
181.479
 30
0.000000
  70
    32
  0
VERTEX
  8
0
  5
879B
 10
409.831
 20
181.511
 30
0.000000
  70
    32
  0
VERTEX
  8
0
  5
879C
 10
409.845
 20
181.544
 30
0.000000
  70
    32
  0
VERTEX
  8
0
  5
879D
 10
409.858
 20
181.577
 30
0.000000
  70
    32
  0
VERTEX
  8
0
  5
879E
 10
409.870
 20
181.611
 30
0.000000
  70
    32
  0
VERTEX
  8
0
  5
879F
 10
409.882
 20
181.646
 30
0.000000
  70
    32
  0
VERTEX
  8
0
  5
87A0
 10
409.893
 20
181.681
 30
0.000000
  70
    32
  0
VERTEX
  8
0
  5
87A1
 10
409.904
 20
181.716
 30
0.000000
  70
    32
  0
VERTEX
  8
0
  5
87A2
 10
409.914
 20
181.752
 30
0.000000
  70
    32
  0
VERTEX
  8
0
  5
87A3
 10
409.924
 20
181.788
 30
0.000000
  70
    32
  0
VERTEX
  8
0
  5
87A4
 10
409.933
 20
181.824
 30
0.000000
  70
    32
  0
VERTEX
  8
0
  5
87A5
 10
409.942
 20
181.861
 30
0.000000
  70
    32
  0
VERTEX
  8
0
  5
87A6
 10
409.950
 20
181.898
 30
0.000000
  70
    32
  0
VERTEX
  8
0
  5
87A7
 10
409.957
 20
181.936
 30
0.000000
  70
    32
  0
VERTEX
  8
0
  5
87A8
 10
409.964
 20
181.973
 30
0.000000
  70
    32
  0
VERTEX
  8
0
  5
87A9
 10
409.970
 20
182.011
 30
0.000000
  70
    32
  0
VERTEX
  8
0
  5
87AA
 10
409.976
 20
182.049
 30
0.000000
  70
    32
  0
VERTEX
  8
0
  5
87AB
 10
409.981
 20
182.088
 30
0.000000
  70
    32
  0
VERTEX
  8
0
  5
87AC
 10
409.985
 20
182.126
 30
0.000000
  70
    32
  0
VERTEX
  8
0
  5
87AD
 10
409.989
 20
182.165
 30
0.000000
  70
    32
  0
VERTEX
  8
0
  5
87AE
 10
409.992
 20
182.204
 30
0.000000
  70
    32
  0
VERTEX
  8
0
  5
87AF
 10
409.995
 20
182.243
 30
0.000000
  70
    32
  0
VERTEX
  8
0
  5
87B0
 10
409.997
 20
182.282
 30
0.000000
  70
    32
  0
VERTEX
  8
0
  5
87B1
 10
409.999
 20
182.321
 30
0.000000
  70
    32
  0
VERTEX
  8
0
  5
87B2
 10
410.000
 20
182.361
 30
0.000000
  70
    32
  0
VERTEX
  8
0
  5
87B3
 10
410.000
 20
182.400
 30
0.000000
  70
    32
  0
VERTEX
  8
0
  5
87B4
 10
410.000
 20
182.439
 30
0.000000
  70
    32
  0
VERTEX
  8
0
  5
87B5
 10
409.999
 20
182.479
 30
0.000000
  70
    32
  0
VERTEX
  8
0
  5
87B6
 10
409.997
 20
182.518
 30
0.000000
  70
    32
  0
VERTEX
  8
0
  5
87B7
 10
409.995
 20
182.557
 30
0.000000
  70
    32
  0
VERTEX
  8
0
  5
87B8
 10
409.992
 20
182.596
 30
0.000000
  70
    32
  0
VERTEX
  8
0
  5
87B9
 10
409.989
 20
182.635
 30
0.000000
  70
    32
  0
VERTEX
  8
0
  5
87BA
 10
409.985
 20
182.674
 30
0.000000
  70
    32
  0
VERTEX
  8
0
  5
87BB
 10
409.981
 20
182.712
 30
0.000000
  70
    32
  0
VERTEX
  8
0
  5
87BC
 10
409.976
 20
182.751
 30
0.000000
  70
    32
  0
VERTEX
  8
0
  5
87BD
 10
409.970
 20
182.789
 30
0.000000
  70
    32
  0
VERTEX
  8
0
  5
87BE
 10
409.964
 20
182.827
 30
0.000000
  70
    32
  0
VERTEX
  8
0
  5
87BF
 10
409.957
 20
182.864
 30
0.000000
  70
    32
  0
VERTEX
  8
0
  5
87C0
 10
409.950
 20
182.902
 30
0.000000
  70
    32
  0
VERTEX
  8
0
  5
87C1
 10
409.942
 20
182.939
 30
0.000000
  70
    32
  0
VERTEX
  8
0
  5
87C2
 10
409.933
 20
182.976
 30
0.000000
  70
    32
  0
VERTEX
  8
0
  5
87C3
 10
409.924
 20
183.012
 30
0.000000
  70
    32
  0
VERTEX
  8
0
  5
87C4
 10
409.914
 20
183.048
 30
0.000000
  70
    32
  0
VERTEX
  8
0
  5
87C5
 10
409.904
 20
183.084
 30
0.000000
  70
    32
  0
VERTEX
  8
0
  5
87C6
 10
409.893
 20
183.119
 30
0.000000
  70
    32
  0
VERTEX
  8
0
  5
87C7
 10
409.882
 20
183.154
 30
0.000000
  70
    32
  0
VERTEX
  8
0
  5
87C8
 10
409.870
 20
183.189
 30
0.000000
  70
    32
  0
VERTEX
  8
0
  5
87C9
 10
409.858
 20
183.223
 30
0.000000
  70
    32
  0
VERTEX
  8
0
  5
87CA
 10
409.845
 20
183.256
 30
0.000000
  70
    32
  0
VERTEX
  8
0
  5
87CB
 10
409.831
 20
183.289
 30
0.000000
  70
    32
  0
VERTEX
  8
0
  5
87CC
 10
409.818
 20
183.321
 30
0.000000
  70
    32
  0
VERTEX
  8
0
  5
87CD
 10
409.803
 20
183.353
 30
0.000000
  70
    32
  0
VERTEX
  8
0
  5
87CE
 10
409.788
 20
183.384
 30
0.000000
  70
    32
  0
VERTEX
  8
0
  5
87CF
 10
409.773
 20
183.415
 30
0.000000
  70
    32
  0
VERTEX
  8
0
  5
87D0
 10
409.757
 20
183.445
 30
0.000000
  70
    32
  0
VERTEX
  8
0
  5
87D1
 10
409.741
 20
183.474
 30
0.000000
  70
    32
  0
VERTEX
  8
0
  5
87D2
 10
409.724
 20
183.503
 30
0.000000
  70
    32
  0
VERTEX
  8
0
  5
87D3
 10
409.707
 20
183.531
 30
0.000000
  70
    32
  0
VERTEX
  8
0
  5
87D4
 10
409.690
 20
183.559
 30
0.000000
  70
    32
  0
VERTEX
  8
0
  5
87D5
 10
409.672
 20
183.586
 30
0.000000
  70
    32
  0
VERTEX
  8
0
  5
87D6
 10
409.653
 20
183.612
 30
0.000000
  70
    32
  0
VERTEX
  8
0
  5
87D7
 10
409.634
 20
183.637
 30
0.000000
  70
    32
  0
VERTEX
  8
0
  5
87D8
 10
409.615
 20
183.661
 30
0.000000
  70
    32
  0
VERTEX
  8
0
  5
87D9
 10
409.596
 20
183.685
 30
0.000000
  70
    32
  0
VERTEX
  8
0
  5
87DA
 10
409.576
 20
183.708
 30
0.000000
  70
    32
  0
VERTEX
  8
0
  5
87DB
 10
409.556
 20
183.730
 30
0.000000
  70
    32
  0
VERTEX
  8
0
  5
87DC
 10
409.535
 20
183.752
 30
0.000000
  70
    32
  0
VERTEX
  8
0
  5
87DD
 10
409.514
 20
183.772
 30
0.000000
  70
    32
  0
VERTEX
  8
0
  5
87DE
 10
409.493
 20
183.792
 30
0.000000
  70
    32
  0
VERTEX
  8
0
  5
87DF
 10
409.471
 20
183.811
 30
0.000000
  70
    32
  0
VERTEX
  8
0
  5
87E0
 10
409.450
 20
183.829
 30
0.000000
  70
    32
  0
VERTEX
  8
0
  5
87E1
 10
409.428
 20
183.846
 30
0.000000
  70
    32
  0
VERTEX
  8
0
  5
87E2
 10
409.405
 20
183.863
 30
0.000000
  70
    32
  0
VERTEX
  8
0
  5
87E3
 10
409.383
 20
183.878
 30
0.000000
  70
    32
  0
VERTEX
  8
0
  5
87E4
 10
409.360
 20
183.893
 30
0.000000
  70
    32
  0
VERTEX
  8
0
  5
87E5
 10
409.337
 20
183.906
 30
0.000000
  70
    32
  0
VERTEX
  8
0
  5
87E6
 10
409.314
 20
183.919
 30
0.000000
  70
    32
  0
VERTEX
  8
0
  5
87E7
 10
409.290
 20
183.931
 30
0.000000
  70
    32
  0
VERTEX
  8
0
  5
87E8
 10
409.267
 20
183.942
 30
0.000000
  70
    32
  0
VERTEX
  8
0
  5
87E9
 10
409.243
 20
183.952
 30
0.000000
  70
    32
  0
VERTEX
  8
0
  5
87EA
 10
409.219
 20
183.961
 30
0.000000
  70
    32
  0
VERTEX
  8
0
  5
87EB
 10
409.195
 20
183.969
 30
0.000000
  70
    32
  0
VERTEX
  8
0
  5
87EC
 10
409.171
 20
183.976
 30
0.000000
  70
    32
  0
VERTEX
  8
0
  5
87ED
 10
409.147
 20
183.983
 30
0.000000
  70
    32
  0
VERTEX
  8
0
  5
87EE
 10
409.122
 20
183.988
 30
0.000000
  70
    32
  0
VERTEX
  8
0
  5
87EF
 10
409.098
 20
183.992
 30
0.000000
  70
    32
  0
VERTEX
  8
0
  5
87F0
 10
409.074
 20
183.996
 30
0.000000
  70
    32
  0
VERTEX
  8
0
  5
87F1
 10
409.049
 20
183.998
 30
0.000000
  70
    32
  0
VERTEX
  8
0
  5
87F2
 10
409.025
 20
184.000
 30
0.000000
  70
    32
  0
VERTEX
  8
0
  5
87F3
 10
409.000
 20
184.000
 30
0.000000
  70
    32
  0
SEQEND
  8
0
  5
87F4
  0
POLYLINE
  5
7D2E
  8
0
 10
391.0
 20
184.00000107288389
 30
0.0
 66
     1
 70
     8
  0
VERTEX
  8
0
  5
87F5
 10
391.000
 20
184.000
 30
0.000000
  70
    32
  0
VERTEX
  8
0
  5
87F6
 10
390.975
 20
184.000
 30
0.000000
  70
    32
  0
VERTEX
  8
0
  5
87F7
 10
390.951
 20
183.998
 30
0.000000
  70
    32
  0
VERTEX
  8
0
  5
87F8
 10
390.926
 20
183.996
 30
0.000000
  70
    32
  0
VERTEX
  8
0
  5
87F9
 10
390.902
 20
183.992
 30
0.000000
  70
    32
  0
VERTEX
  8
0
  5
87FA
 10
390.878
 20
183.988
 30
0.000000
  70
    32
  0
VERTEX
  8
0
  5
87FB
 10
390.853
 20
183.983
 30
0.000000
  70
    32
  0
VERTEX
  8
0
  5
87FC
 10
390.829
 20
183.976
 30
0.000000
  70
    32
  0
VERTEX
  8
0
  5
87FD
 10
390.805
 20
183.969
 30
0.000000
  70
    32
  0
VERTEX
  8
0
  5
87FE
 10
390.781
 20
183.961
 30
0.000000
  70
    32
  0
VERTEX
  8
0
  5
87FF
 10
390.757
 20
183.952
 30
0.000000
  70
    32
  0
VERTEX
  8
0
  5
8800
 10
390.733
 20
183.942
 30
0.000000
  70
    32
  0
VERTEX
  8
0
  5
8801
 10
390.710
 20
183.931
 30
0.000000
  70
    32
  0
VERTEX
  8
0
  5
8802
 10
390.686
 20
183.919
 30
0.000000
  70
    32
  0
VERTEX
  8
0
  5
8803
 10
390.663
 20
183.906
 30
0.000000
  70
    32
  0
VERTEX
  8
0
  5
8804
 10
390.640
 20
183.893
 30
0.000000
  70
    32
  0
VERTEX
  8
0
  5
8805
 10
390.617
 20
183.878
 30
0.000000
  70
    32
  0
VERTEX
  8
0
  5
8806
 10
390.595
 20
183.863
 30
0.000000
  70
    32
  0
VERTEX
  8
0
  5
8807
 10
390.572
 20
183.846
 30
0.000000
  70
    32
  0
VERTEX
  8
0
  5
8808
 10
390.550
 20
183.829
 30
0.000000
  70
    32
  0
VERTEX
  8
0
  5
8809
 10
390.529
 20
183.811
 30
0.000000
  70
    32
  0
VERTEX
  8
0
  5
880A
 10
390.507
 20
183.792
 30
0.000000
  70
    32
  0
VERTEX
  8
0
  5
880B
 10
390.486
 20
183.772
 30
0.000000
  70
    32
  0
VERTEX
  8
0
  5
880C
 10
390.465
 20
183.752
 30
0.000000
  70
    32
  0
VERTEX
  8
0
  5
880D
 10
390.444
 20
183.730
 30
0.000000
  70
    32
  0
VERTEX
  8
0
  5
880E
 10
390.424
 20
183.708
 30
0.000000
  70
    32
  0
VERTEX
  8
0
  5
880F
 10
390.404
 20
183.685
 30
0.000000
  70
    32
  0
VERTEX
  8
0
  5
8810
 10
390.385
 20
183.661
 30
0.000000
  70
    32
  0
VERTEX
  8
0
  5
8811
 10
390.366
 20
183.637
 30
0.000000
  70
    32
  0
VERTEX
  8
0
  5
8812
 10
390.347
 20
183.612
 30
0.000000
  70
    32
  0
VERTEX
  8
0
  5
8813
 10
390.328
 20
183.586
 30
0.000000
  70
    32
  0
VERTEX
  8
0
  5
8814
 10
390.310
 20
183.559
 30
0.000000
  70
    32
  0
VERTEX
  8
0
  5
8815
 10
390.293
 20
183.531
 30
0.000000
  70
    32
  0
VERTEX
  8
0
  5
8816
 10
390.276
 20
183.503
 30
0.000000
  70
    32
  0
VERTEX
  8
0
  5
8817
 10
390.259
 20
183.474
 30
0.000000
  70
    32
  0
VERTEX
  8
0
  5
8818
 10
390.243
 20
183.445
 30
0.000000
  70
    32
  0
VERTEX
  8
0
  5
8819
 10
390.227
 20
183.415
 30
0.000000
  70
    32
  0
VERTEX
  8
0
  5
881A
 10
390.212
 20
183.384
 30
0.000000
  70
    32
  0
VERTEX
  8
0
  5
881B
 10
390.197
 20
183.353
 30
0.000000
  70
    32
  0
VERTEX
  8
0
  5
881C
 10
390.182
 20
183.321
 30
0.000000
  70
    32
  0
VERTEX
  8
0
  5
881D
 10
390.169
 20
183.289
 30
0.000000
  70
    32
  0
VERTEX
  8
0
  5
881E
 10
390.155
 20
183.256
 30
0.000000
  70
    32
  0
VERTEX
  8
0
  5
881F
 10
390.142
 20
183.223
 30
0.000000
  70
    32
  0
VERTEX
  8
0
  5
8820
 10
390.130
 20
183.189
 30
0.000000
  70
    32
  0
VERTEX
  8
0
  5
8821
 10
390.118
 20
183.154
 30
0.000000
  70
    32
  0
VERTEX
  8
0
  5
8822
 10
390.107
 20
183.119
 30
0.000000
  70
    32
  0
VERTEX
  8
0
  5
8823
 10
390.096
 20
183.084
 30
0.000000
  70
    32
  0
VERTEX
  8
0
  5
8824
 10
390.086
 20
183.048
 30
0.000000
  70
    32
  0
VERTEX
  8
0
  5
8825
 10
390.076
 20
183.012
 30
0.000000
  70
    32
  0
VERTEX
  8
0
  5
8826
 10
390.067
 20
182.976
 30
0.000000
  70
    32
  0
VERTEX
  8
0
  5
8827
 10
390.058
 20
182.939
 30
0.000000
  70
    32
  0
VERTEX
  8
0
  5
8828
 10
390.050
 20
182.902
 30
0.000000
  70
    32
  0
VERTEX
  8
0
  5
8829
 10
390.043
 20
182.864
 30
0.000000
  70
    32
  0
VERTEX
  8
0
  5
882A
 10
390.036
 20
182.827
 30
0.000000
  70
    32
  0
VERTEX
  8
0
  5
882B
 10
390.030
 20
182.789
 30
0.000000
  70
    32
  0
VERTEX
  8
0
  5
882C
 10
390.024
 20
182.751
 30
0.000000
  70
    32
  0
VERTEX
  8
0
  5
882D
 10
390.019
 20
182.712
 30
0.000000
  70
    32
  0
VERTEX
  8
0
  5
882E
 10
390.015
 20
182.674
 30
0.000000
  70
    32
  0
VERTEX
  8
0
  5
882F
 10
390.011
 20
182.635
 30
0.000000
  70
    32
  0
VERTEX
  8
0
  5
8830
 10
390.008
 20
182.596
 30
0.000000
  70
    32
  0
VERTEX
  8
0
  5
8831
 10
390.005
 20
182.557
 30
0.000000
  70
    32
  0
VERTEX
  8
0
  5
8832
 10
390.003
 20
182.518
 30
0.000000
  70
    32
  0
VERTEX
  8
0
  5
8833
 10
390.001
 20
182.479
 30
0.000000
  70
    32
  0
VERTEX
  8
0
  5
8834
 10
390.000
 20
182.439
 30
0.000000
  70
    32
  0
VERTEX
  8
0
  5
8835
 10
390.000
 20
182.400
 30
0.000000
  70
    32
  0
VERTEX
  8
0
  5
8836
 10
390.000
 20
182.361
 30
0.000000
  70
    32
  0
VERTEX
  8
0
  5
8837
 10
390.001
 20
182.321
 30
0.000000
  70
    32
  0
VERTEX
  8
0
  5
8838
 10
390.003
 20
182.282
 30
0.000000
  70
    32
  0
VERTEX
  8
0
  5
8839
 10
390.005
 20
182.243
 30
0.000000
  70
    32
  0
VERTEX
  8
0
  5
883A
 10
390.008
 20
182.204
 30
0.000000
  70
    32
  0
VERTEX
  8
0
  5
883B
 10
390.011
 20
182.165
 30
0.000000
  70
    32
  0
VERTEX
  8
0
  5
883C
 10
390.015
 20
182.126
 30
0.000000
  70
    32
  0
VERTEX
  8
0
  5
883D
 10
390.019
 20
182.088
 30
0.000000
  70
    32
  0
VERTEX
  8
0
  5
883E
 10
390.024
 20
182.049
 30
0.000000
  70
    32
  0
VERTEX
  8
0
  5
883F
 10
390.030
 20
182.011
 30
0.000000
  70
    32
  0
VERTEX
  8
0
  5
8840
 10
390.036
 20
181.973
 30
0.000000
  70
    32
  0
VERTEX
  8
0
  5
8841
 10
390.043
 20
181.936
 30
0.000000
  70
    32
  0
VERTEX
  8
0
  5
8842
 10
390.050
 20
181.898
 30
0.000000
  70
    32
  0
VERTEX
  8
0
  5
8843
 10
390.058
 20
181.861
 30
0.000000
  70
    32
  0
VERTEX
  8
0
  5
8844
 10
390.067
 20
181.824
 30
0.000000
  70
    32
  0
VERTEX
  8
0
  5
8845
 10
390.076
 20
181.788
 30
0.000000
  70
    32
  0
VERTEX
  8
0
  5
8846
 10
390.086
 20
181.752
 30
0.000000
  70
    32
  0
VERTEX
  8
0
  5
8847
 10
390.096
 20
181.716
 30
0.000000
  70
    32
  0
VERTEX
  8
0
  5
8848
 10
390.107
 20
181.681
 30
0.000000
  70
    32
  0
VERTEX
  8
0
  5
8849
 10
390.118
 20
181.646
 30
0.000000
  70
    32
  0
VERTEX
  8
0
  5
884A
 10
390.130
 20
181.611
 30
0.000000
  70
    32
  0
VERTEX
  8
0
  5
884B
 10
390.142
 20
181.577
 30
0.000000
  70
    32
  0
VERTEX
  8
0
  5
884C
 10
390.155
 20
181.544
 30
0.000000
  70
    32
  0
VERTEX
  8
0
  5
884D
 10
390.169
 20
181.511
 30
0.000000
  70
    32
  0
VERTEX
  8
0
  5
884E
 10
390.182
 20
181.479
 30
0.000000
  70
    32
  0
VERTEX
  8
0
  5
884F
 10
390.197
 20
181.447
 30
0.000000
  70
    32
  0
VERTEX
  8
0
  5
8850
 10
390.212
 20
181.416
 30
0.000000
  70
    32
  0
VERTEX
  8
0
  5
8851
 10
390.227
 20
181.385
 30
0.000000
  70
    32
  0
VERTEX
  8
0
  5
8852
 10
390.243
 20
181.355
 30
0.000000
  70
    32
  0
VERTEX
  8
0
  5
8853
 10
390.259
 20
181.326
 30
0.000000
  70
    32
  0
VERTEX
  8
0
  5
8854
 10
390.276
 20
181.297
 30
0.000000
  70
    32
  0
VERTEX
  8
0
  5
8855
 10
390.293
 20
181.269
 30
0.000000
  70
    32
  0
VERTEX
  8
0
  5
8856
 10
390.310
 20
181.241
 30
0.000000
  70
    32
  0
VERTEX
  8
0
  5
8857
 10
390.328
 20
181.214
 30
0.000000
  70
    32
  0
VERTEX
  8
0
  5
8858
 10
390.347
 20
181.188
 30
0.000000
  70
    32
  0
VERTEX
  8
0
  5
8859
 10
390.366
 20
181.163
 30
0.000000
  70
    32
  0
VERTEX
  8
0
  5
885A
 10
390.385
 20
181.139
 30
0.000000
  70
    32
  0
VERTEX
  8
0
  5
885B
 10
390.404
 20
181.115
 30
0.000000
  70
    32
  0
VERTEX
  8
0
  5
885C
 10
390.424
 20
181.092
 30
0.000000
  70
    32
  0
VERTEX
  8
0
  5
885D
 10
390.444
 20
181.070
 30
0.000000
  70
    32
  0
VERTEX
  8
0
  5
885E
 10
390.465
 20
181.048
 30
0.000000
  70
    32
  0
VERTEX
  8
0
  5
885F
 10
390.486
 20
181.028
 30
0.000000
  70
    32
  0
VERTEX
  8
0
  5
8860
 10
390.507
 20
181.008
 30
0.000000
  70
    32
  0
VERTEX
  8
0
  5
8861
 10
390.529
 20
180.989
 30
0.000000
  70
    32
  0
VERTEX
  8
0
  5
8862
 10
390.550
 20
180.971
 30
0.000000
  70
    32
  0
VERTEX
  8
0
  5
8863
 10
390.572
 20
180.954
 30
0.000000
  70
    32
  0
VERTEX
  8
0
  5
8864
 10
390.595
 20
180.937
 30
0.000000
  70
    32
  0
VERTEX
  8
0
  5
8865
 10
390.617
 20
180.922
 30
0.000000
  70
    32
  0
VERTEX
  8
0
  5
8866
 10
390.640
 20
180.907
 30
0.000000
  70
    32
  0
VERTEX
  8
0
  5
8867
 10
390.663
 20
180.894
 30
0.000000
  70
    32
  0
VERTEX
  8
0
  5
8868
 10
390.686
 20
180.881
 30
0.000000
  70
    32
  0
VERTEX
  8
0
  5
8869
 10
390.710
 20
180.869
 30
0.000000
  70
    32
  0
VERTEX
  8
0
  5
886A
 10
390.733
 20
180.858
 30
0.000000
  70
    32
  0
VERTEX
  8
0
  5
886B
 10
390.757
 20
180.848
 30
0.000000
  70
    32
  0
VERTEX
  8
0
  5
886C
 10
390.781
 20
180.839
 30
0.000000
  70
    32
  0
VERTEX
  8
0
  5
886D
 10
390.805
 20
180.831
 30
0.000000
  70
    32
  0
VERTEX
  8
0
  5
886E
 10
390.829
 20
180.824
 30
0.000000
  70
    32
  0
VERTEX
  8
0
  5
886F
 10
390.853
 20
180.817
 30
0.000000
  70
    32
  0
VERTEX
  8
0
  5
8870
 10
390.878
 20
180.812
 30
0.000000
  70
    32
  0
VERTEX
  8
0
  5
8871
 10
390.902
 20
180.808
 30
0.000000
  70
    32
  0
VERTEX
  8
0
  5
8872
 10
390.926
 20
180.804
 30
0.000000
  70
    32
  0
VERTEX
  8
0
  5
8873
 10
390.951
 20
180.802
 30
0.000000
  70
    32
  0
VERTEX
  8
0
  5
8874
 10
390.975
 20
180.800
 30
0.000000
  70
    32
  0
VERTEX
  8
0
  5
8875
 10
391.000
 20
180.800
 30
0.000000
  70
    32
  0
SEQEND
  8
0
  5
8876
  0
POLYLINE
  5
7D2F
  8
0
 10
409.0
 20
192.80000107288382
 30
0.0
 66
     1
 70
     8
  0
VERTEX
  8
0
  5
8877
 10
409.000
 20
192.800
 30
0.000000
  70
    32
  0
VERTEX
  8
0
  5
8878
 10
409.025
 20
192.800
 30
0.000000
  70
    32
  0
VERTEX
  8
0
  5
8879
 10
409.049
 20
192.802
 30
0.000000
  70
    32
  0
VERTEX
  8
0
  5
887A
 10
409.074
 20
192.804
 30
0.000000
  70
    32
  0
VERTEX
  8
0
  5
887B
 10
409.098
 20
192.808
 30
0.000000
  70
    32
  0
VERTEX
  8
0
  5
887C
 10
409.122
 20
192.812
 30
0.000000
  70
    32
  0
VERTEX
  8
0
  5
887D
 10
409.147
 20
192.817
 30
0.000000
  70
    32
  0
VERTEX
  8
0
  5
887E
 10
409.171
 20
192.824
 30
0.000000
  70
    32
  0
VERTEX
  8
0
  5
887F
 10
409.195
 20
192.831
 30
0.000000
  70
    32
  0
VERTEX
  8
0
  5
8880
 10
409.219
 20
192.839
 30
0.000000
  70
    32
  0
VERTEX
  8
0
  5
8881
 10
409.243
 20
192.848
 30
0.000000
  70
    32
  0
VERTEX
  8
0
  5
8882
 10
409.267
 20
192.858
 30
0.000000
  70
    32
  0
VERTEX
  8
0
  5
8883
 10
409.290
 20
192.869
 30
0.000000
  70
    32
  0
VERTEX
  8
0
  5
8884
 10
409.314
 20
192.881
 30
0.000000
  70
    32
  0
VERTEX
  8
0
  5
8885
 10
409.337
 20
192.894
 30
0.000000
  70
    32
  0
VERTEX
  8
0
  5
8886
 10
409.360
 20
192.907
 30
0.000000
  70
    32
  0
VERTEX
  8
0
  5
8887
 10
409.383
 20
192.922
 30
0.000000
  70
    32
  0
VERTEX
  8
0
  5
8888
 10
409.405
 20
192.937
 30
0.000000
  70
    32
  0
VERTEX
  8
0
  5
8889
 10
409.428
 20
192.954
 30
0.000000
  70
    32
  0
VERTEX
  8
0
  5
888A
 10
409.450
 20
192.971
 30
0.000000
  70
    32
  0
VERTEX
  8
0
  5
888B
 10
409.471
 20
192.989
 30
0.000000
  70
    32
  0
VERTEX
  8
0
  5
888C
 10
409.493
 20
193.008
 30
0.000000
  70
    32
  0
VERTEX
  8
0
  5
888D
 10
409.514
 20
193.028
 30
0.000000
  70
    32
  0
VERTEX
  8
0
  5
888E
 10
409.535
 20
193.048
 30
0.000000
  70
    32
  0
VERTEX
  8
0
  5
888F
 10
409.556
 20
193.070
 30
0.000000
  70
    32
  0
VERTEX
  8
0
  5
8890
 10
409.576
 20
193.092
 30
0.000000
  70
    32
  0
VERTEX
  8
0
  5
8891
 10
409.596
 20
193.115
 30
0.000000
  70
    32
  0
VERTEX
  8
0
  5
8892
 10
409.615
 20
193.139
 30
0.000000
  70
    32
  0
VERTEX
  8
0
  5
8893
 10
409.634
 20
193.163
 30
0.000000
  70
    32
  0
VERTEX
  8
0
  5
8894
 10
409.653
 20
193.188
 30
0.000000
  70
    32
  0
VERTEX
  8
0
  5
8895
 10
409.672
 20
193.214
 30
0.000000
  70
    32
  0
VERTEX
  8
0
  5
8896
 10
409.690
 20
193.241
 30
0.000000
  70
    32
  0
VERTEX
  8
0
  5
8897
 10
409.707
 20
193.269
 30
0.000000
  70
    32
  0
VERTEX
  8
0
  5
8898
 10
409.724
 20
193.297
 30
0.000000
  70
    32
  0
VERTEX
  8
0
  5
8899
 10
409.741
 20
193.326
 30
0.000000
  70
    32
  0
VERTEX
  8
0
  5
889A
 10
409.757
 20
193.355
 30
0.000000
  70
    32
  0
VERTEX
  8
0
  5
889B
 10
409.773
 20
193.385
 30
0.000000
  70
    32
  0
VERTEX
  8
0
  5
889C
 10
409.788
 20
193.416
 30
0.000000
  70
    32
  0
VERTEX
  8
0
  5
889D
 10
409.803
 20
193.447
 30
0.000000
  70
    32
  0
VERTEX
  8
0
  5
889E
 10
409.818
 20
193.479
 30
0.000000
  70
    32
  0
VERTEX
  8
0
  5
889F
 10
409.831
 20
193.511
 30
0.000000
  70
    32
  0
VERTEX
  8
0
  5
88A0
 10
409.845
 20
193.544
 30
0.000000
  70
    32
  0
VERTEX
  8
0
  5
88A1
 10
409.858
 20
193.577
 30
0.000000
  70
    32
  0
VERTEX
  8
0
  5
88A2
 10
409.870
 20
193.611
 30
0.000000
  70
    32
  0
VERTEX
  8
0
  5
88A3
 10
409.882
 20
193.646
 30
0.000000
  70
    32
  0
VERTEX
  8
0
  5
88A4
 10
409.893
 20
193.681
 30
0.000000
  70
    32
  0
VERTEX
  8
0
  5
88A5
 10
409.904
 20
193.716
 30
0.000000
  70
    32
  0
VERTEX
  8
0
  5
88A6
 10
409.914
 20
193.752
 30
0.000000
  70
    32
  0
VERTEX
  8
0
  5
88A7
 10
409.924
 20
193.788
 30
0.000000
  70
    32
  0
VERTEX
  8
0
  5
88A8
 10
409.933
 20
193.824
 30
0.000000
  70
    32
  0
VERTEX
  8
0
  5
88A9
 10
409.942
 20
193.861
 30
0.000000
  70
    32
  0
VERTEX
  8
0
  5
88AA
 10
409.950
 20
193.898
 30
0.000000
  70
    32
  0
VERTEX
  8
0
  5
88AB
 10
409.957
 20
193.936
 30
0.000000
  70
    32
  0
VERTEX
  8
0
  5
88AC
 10
409.964
 20
193.973
 30
0.000000
  70
    32
  0
VERTEX
  8
0
  5
88AD
 10
409.970
 20
194.011
 30
0.000000
  70
    32
  0
VERTEX
  8
0
  5
88AE
 10
409.976
 20
194.049
 30
0.000000
  70
    32
  0
VERTEX
  8
0
  5
88AF
 10
409.981
 20
194.088
 30
0.000000
  70
    32
  0
VERTEX
  8
0
  5
88B0
 10
409.985
 20
194.126
 30
0.000000
  70
    32
  0
VERTEX
  8
0
  5
88B1
 10
409.989
 20
194.165
 30
0.000000
  70
    32
  0
VERTEX
  8
0
  5
88B2
 10
409.992
 20
194.204
 30
0.000000
  70
    32
  0
VERTEX
  8
0
  5
88B3
 10
409.995
 20
194.243
 30
0.000000
  70
    32
  0
VERTEX
  8
0
  5
88B4
 10
409.997
 20
194.282
 30
0.000000
  70
    32
  0
VERTEX
  8
0
  5
88B5
 10
409.999
 20
194.321
 30
0.000000
  70
    32
  0
VERTEX
  8
0
  5
88B6
 10
410.000
 20
194.361
 30
0.000000
  70
    32
  0
VERTEX
  8
0
  5
88B7
 10
410.000
 20
194.400
 30
0.000000
  70
    32
  0
VERTEX
  8
0
  5
88B8
 10
410.000
 20
194.439
 30
0.000000
  70
    32
  0
VERTEX
  8
0
  5
88B9
 10
409.999
 20
194.479
 30
0.000000
  70
    32
  0
VERTEX
  8
0
  5
88BA
 10
409.997
 20
194.518
 30
0.000000
  70
    32
  0
VERTEX
  8
0
  5
88BB
 10
409.995
 20
194.557
 30
0.000000
  70
    32
  0
VERTEX
  8
0
  5
88BC
 10
409.992
 20
194.596
 30
0.000000
  70
    32
  0
VERTEX
  8
0
  5
88BD
 10
409.989
 20
194.635
 30
0.000000
  70
    32
  0
VERTEX
  8
0
  5
88BE
 10
409.985
 20
194.674
 30
0.000000
  70
    32
  0
VERTEX
  8
0
  5
88BF
 10
409.981
 20
194.712
 30
0.000000
  70
    32
  0
VERTEX
  8
0
  5
88C0
 10
409.976
 20
194.751
 30
0.000000
  70
    32
  0
VERTEX
  8
0
  5
88C1
 10
409.970
 20
194.789
 30
0.000000
  70
    32
  0
VERTEX
  8
0
  5
88C2
 10
409.964
 20
194.827
 30
0.000000
  70
    32
  0
VERTEX
  8
0
  5
88C3
 10
409.957
 20
194.864
 30
0.000000
  70
    32
  0
VERTEX
  8
0
  5
88C4
 10
409.950
 20
194.902
 30
0.000000
  70
    32
  0
VERTEX
  8
0
  5
88C5
 10
409.942
 20
194.939
 30
0.000000
  70
    32
  0
VERTEX
  8
0
  5
88C6
 10
409.933
 20
194.976
 30
0.000000
  70
    32
  0
VERTEX
  8
0
  5
88C7
 10
409.924
 20
195.012
 30
0.000000
  70
    32
  0
VERTEX
  8
0
  5
88C8
 10
409.914
 20
195.048
 30
0.000000
  70
    32
  0
VERTEX
  8
0
  5
88C9
 10
409.904
 20
195.084
 30
0.000000
  70
    32
  0
VERTEX
  8
0
  5
88CA
 10
409.893
 20
195.119
 30
0.000000
  70
    32
  0
VERTEX
  8
0
  5
88CB
 10
409.882
 20
195.154
 30
0.000000
  70
    32
  0
VERTEX
  8
0
  5
88CC
 10
409.870
 20
195.189
 30
0.000000
  70
    32
  0
VERTEX
  8
0
  5
88CD
 10
409.858
 20
195.223
 30
0.000000
  70
    32
  0
VERTEX
  8
0
  5
88CE
 10
409.845
 20
195.256
 30
0.000000
  70
    32
  0
VERTEX
  8
0
  5
88CF
 10
409.831
 20
195.289
 30
0.000000
  70
    32
  0
VERTEX
  8
0
  5
88D0
 10
409.818
 20
195.321
 30
0.000000
  70
    32
  0
VERTEX
  8
0
  5
88D1
 10
409.803
 20
195.353
 30
0.000000
  70
    32
  0
VERTEX
  8
0
  5
88D2
 10
409.788
 20
195.384
 30
0.000000
  70
    32
  0
VERTEX
  8
0
  5
88D3
 10
409.773
 20
195.415
 30
0.000000
  70
    32
  0
VERTEX
  8
0
  5
88D4
 10
409.757
 20
195.445
 30
0.000000
  70
    32
  0
VERTEX
  8
0
  5
88D5
 10
409.741
 20
195.474
 30
0.000000
  70
    32
  0
VERTEX
  8
0
  5
88D6
 10
409.724
 20
195.503
 30
0.000000
  70
    32
  0
VERTEX
  8
0
  5
88D7
 10
409.707
 20
195.531
 30
0.000000
  70
    32
  0
VERTEX
  8
0
  5
88D8
 10
409.690
 20
195.559
 30
0.000000
  70
    32
  0
VERTEX
  8
0
  5
88D9
 10
409.672
 20
195.586
 30
0.000000
  70
    32
  0
VERTEX
  8
0
  5
88DA
 10
409.653
 20
195.612
 30
0.000000
  70
    32
  0
VERTEX
  8
0
  5
88DB
 10
409.634
 20
195.637
 30
0.000000
  70
    32
  0
VERTEX
  8
0
  5
88DC
 10
409.615
 20
195.661
 30
0.000000
  70
    32
  0
VERTEX
  8
0
  5
88DD
 10
409.596
 20
195.685
 30
0.000000
  70
    32
  0
VERTEX
  8
0
  5
88DE
 10
409.576
 20
195.708
 30
0.000000
  70
    32
  0
VERTEX
  8
0
  5
88DF
 10
409.556
 20
195.730
 30
0.000000
  70
    32
  0
VERTEX
  8
0
  5
88E0
 10
409.535
 20
195.752
 30
0.000000
  70
    32
  0
VERTEX
  8
0
  5
88E1
 10
409.514
 20
195.772
 30
0.000000
  70
    32
  0
VERTEX
  8
0
  5
88E2
 10
409.493
 20
195.792
 30
0.000000
  70
    32
  0
VERTEX
  8
0
  5
88E3
 10
409.471
 20
195.811
 30
0.000000
  70
    32
  0
VERTEX
  8
0
  5
88E4
 10
409.450
 20
195.829
 30
0.000000
  70
    32
  0
VERTEX
  8
0
  5
88E5
 10
409.428
 20
195.846
 30
0.000000
  70
    32
  0
VERTEX
  8
0
  5
88E6
 10
409.405
 20
195.863
 30
0.000000
  70
    32
  0
VERTEX
  8
0
  5
88E7
 10
409.383
 20
195.878
 30
0.000000
  70
    32
  0
VERTEX
  8
0
  5
88E8
 10
409.360
 20
195.893
 30
0.000000
  70
    32
  0
VERTEX
  8
0
  5
88E9
 10
409.337
 20
195.906
 30
0.000000
  70
    32
  0
VERTEX
  8
0
  5
88EA
 10
409.314
 20
195.919
 30
0.000000
  70
    32
  0
VERTEX
  8
0
  5
88EB
 10
409.290
 20
195.931
 30
0.000000
  70
    32
  0
VERTEX
  8
0
  5
88EC
 10
409.267
 20
195.942
 30
0.000000
  70
    32
  0
VERTEX
  8
0
  5
88ED
 10
409.243
 20
195.952
 30
0.000000
  70
    32
  0
VERTEX
  8
0
  5
88EE
 10
409.219
 20
195.961
 30
0.000000
  70
    32
  0
VERTEX
  8
0
  5
88EF
 10
409.195
 20
195.969
 30
0.000000
  70
    32
  0
VERTEX
  8
0
  5
88F0
 10
409.171
 20
195.976
 30
0.000000
  70
    32
  0
VERTEX
  8
0
  5
88F1
 10
409.147
 20
195.983
 30
0.000000
  70
    32
  0
VERTEX
  8
0
  5
88F2
 10
409.122
 20
195.988
 30
0.000000
  70
    32
  0
VERTEX
  8
0
  5
88F3
 10
409.098
 20
195.992
 30
0.000000
  70
    32
  0
VERTEX
  8
0
  5
88F4
 10
409.074
 20
195.996
 30
0.000000
  70
    32
  0
VERTEX
  8
0
  5
88F5
 10
409.049
 20
195.998
 30
0.000000
  70
    32
  0
VERTEX
  8
0
  5
88F6
 10
409.025
 20
196.000
 30
0.000000
  70
    32
  0
VERTEX
  8
0
  5
88F7
 10
409.000
 20
196.000
 30
0.000000
  70
    32
  0
SEQEND
  8
0
  5
88F8
  0
POLYLINE
  5
7D30
  8
0
 10
391.0
 20
196.0000010728838
 30
0.0
 66
     1
 70
     8
  0
VERTEX
  8
0
  5
88F9
 10
391.000
 20
196.000
 30
0.000000
  70
    32
  0
VERTEX
  8
0
  5
88FA
 10
390.975
 20
196.000
 30
0.000000
  70
    32
  0
VERTEX
  8
0
  5
88FB
 10
390.951
 20
195.998
 30
0.000000
  70
    32
  0
VERTEX
  8
0
  5
88FC
 10
390.926
 20
195.996
 30
0.000000
  70
    32
  0
VERTEX
  8
0
  5
88FD
 10
390.902
 20
195.992
 30
0.000000
  70
    32
  0
VERTEX
  8
0
  5
88FE
 10
390.878
 20
195.988
 30
0.000000
  70
    32
  0
VERTEX
  8
0
  5
88FF
 10
390.853
 20
195.983
 30
0.000000
  70
    32
  0
VERTEX
  8
0
  5
8900
 10
390.829
 20
195.976
 30
0.000000
  70
    32
  0
VERTEX
  8
0
  5
8901
 10
390.805
 20
195.969
 30
0.000000
  70
    32
  0
VERTEX
  8
0
  5
8902
 10
390.781
 20
195.961
 30
0.000000
  70
    32
  0
VERTEX
  8
0
  5
8903
 10
390.757
 20
195.952
 30
0.000000
  70
    32
  0
VERTEX
  8
0
  5
8904
 10
390.733
 20
195.942
 30
0.000000
  70
    32
  0
VERTEX
  8
0
  5
8905
 10
390.710
 20
195.931
 30
0.000000
  70
    32
  0
VERTEX
  8
0
  5
8906
 10
390.686
 20
195.919
 30
0.000000
  70
    32
  0
VERTEX
  8
0
  5
8907
 10
390.663
 20
195.906
 30
0.000000
  70
    32
  0
VERTEX
  8
0
  5
8908
 10
390.640
 20
195.893
 30
0.000000
  70
    32
  0
VERTEX
  8
0
  5
8909
 10
390.617
 20
195.878
 30
0.000000
  70
    32
  0
VERTEX
  8
0
  5
890A
 10
390.595
 20
195.863
 30
0.000000
  70
    32
  0
VERTEX
  8
0
  5
890B
 10
390.572
 20
195.846
 30
0.000000
  70
    32
  0
VERTEX
  8
0
  5
890C
 10
390.550
 20
195.829
 30
0.000000
  70
    32
  0
VERTEX
  8
0
  5
890D
 10
390.529
 20
195.811
 30
0.000000
  70
    32
  0
VERTEX
  8
0
  5
890E
 10
390.507
 20
195.792
 30
0.000000
  70
    32
  0
VERTEX
  8
0
  5
890F
 10
390.486
 20
195.772
 30
0.000000
  70
    32
  0
VERTEX
  8
0
  5
8910
 10
390.465
 20
195.752
 30
0.000000
  70
    32
  0
VERTEX
  8
0
  5
8911
 10
390.444
 20
195.730
 30
0.000000
  70
    32
  0
VERTEX
  8
0
  5
8912
 10
390.424
 20
195.708
 30
0.000000
  70
    32
  0
VERTEX
  8
0
  5
8913
 10
390.404
 20
195.685
 30
0.000000
  70
    32
  0
VERTEX
  8
0
  5
8914
 10
390.385
 20
195.661
 30
0.000000
  70
    32
  0
VERTEX
  8
0
  5
8915
 10
390.366
 20
195.637
 30
0.000000
  70
    32
  0
VERTEX
  8
0
  5
8916
 10
390.347
 20
195.612
 30
0.000000
  70
    32
  0
VERTEX
  8
0
  5
8917
 10
390.328
 20
195.586
 30
0.000000
  70
    32
  0
VERTEX
  8
0
  5
8918
 10
390.310
 20
195.559
 30
0.000000
  70
    32
  0
VERTEX
  8
0
  5
8919
 10
390.293
 20
195.531
 30
0.000000
  70
    32
  0
VERTEX
  8
0
  5
891A
 10
390.276
 20
195.503
 30
0.000000
  70
    32
  0
VERTEX
  8
0
  5
891B
 10
390.259
 20
195.474
 30
0.000000
  70
    32
  0
VERTEX
  8
0
  5
891C
 10
390.243
 20
195.445
 30
0.000000
  70
    32
  0
VERTEX
  8
0
  5
891D
 10
390.227
 20
195.415
 30
0.000000
  70
    32
  0
VERTEX
  8
0
  5
891E
 10
390.212
 20
195.384
 30
0.000000
  70
    32
  0
VERTEX
  8
0
  5
891F
 10
390.197
 20
195.353
 30
0.000000
  70
    32
  0
VERTEX
  8
0
  5
8920
 10
390.182
 20
195.321
 30
0.000000
  70
    32
  0
VERTEX
  8
0
  5
8921
 10
390.169
 20
195.289
 30
0.000000
  70
    32
  0
VERTEX
  8
0
  5
8922
 10
390.155
 20
195.256
 30
0.000000
  70
    32
  0
VERTEX
  8
0
  5
8923
 10
390.142
 20
195.223
 30
0.000000
  70
    32
  0
VERTEX
  8
0
  5
8924
 10
390.130
 20
195.189
 30
0.000000
  70
    32
  0
VERTEX
  8
0
  5
8925
 10
390.118
 20
195.154
 30
0.000000
  70
    32
  0
VERTEX
  8
0
  5
8926
 10
390.107
 20
195.119
 30
0.000000
  70
    32
  0
VERTEX
  8
0
  5
8927
 10
390.096
 20
195.084
 30
0.000000
  70
    32
  0
VERTEX
  8
0
  5
8928
 10
390.086
 20
195.048
 30
0.000000
  70
    32
  0
VERTEX
  8
0
  5
8929
 10
390.076
 20
195.012
 30
0.000000
  70
    32
  0
VERTEX
  8
0
  5
892A
 10
390.067
 20
194.976
 30
0.000000
  70
    32
  0
VERTEX
  8
0
  5
892B
 10
390.058
 20
194.939
 30
0.000000
  70
    32
  0
VERTEX
  8
0
  5
892C
 10
390.050
 20
194.902
 30
0.000000
  70
    32
  0
VERTEX
  8
0
  5
892D
 10
390.043
 20
194.864
 30
0.000000
  70
    32
  0
VERTEX
  8
0
  5
892E
 10
390.036
 20
194.827
 30
0.000000
  70
    32
  0
VERTEX
  8
0
  5
892F
 10
390.030
 20
194.789
 30
0.000000
  70
    32
  0
VERTEX
  8
0
  5
8930
 10
390.024
 20
194.751
 30
0.000000
  70
    32
  0
VERTEX
  8
0
  5
8931
 10
390.019
 20
194.712
 30
0.000000
  70
    32
  0
VERTEX
  8
0
  5
8932
 10
390.015
 20
194.674
 30
0.000000
  70
    32
  0
VERTEX
  8
0
  5
8933
 10
390.011
 20
194.635
 30
0.000000
  70
    32
  0
VERTEX
  8
0
  5
8934
 10
390.008
 20
194.596
 30
0.000000
  70
    32
  0
VERTEX
  8
0
  5
8935
 10
390.005
 20
194.557
 30
0.000000
  70
    32
  0
VERTEX
  8
0
  5
8936
 10
390.003
 20
194.518
 30
0.000000
  70
    32
  0
VERTEX
  8
0
  5
8937
 10
390.001
 20
194.479
 30
0.000000
  70
    32
  0
VERTEX
  8
0
  5
8938
 10
390.000
 20
194.439
 30
0.000000
  70
    32
  0
VERTEX
  8
0
  5
8939
 10
390.000
 20
194.400
 30
0.000000
  70
    32
  0
VERTEX
  8
0
  5
893A
 10
390.000
 20
194.361
 30
0.000000
  70
    32
  0
VERTEX
  8
0
  5
893B
 10
390.001
 20
194.321
 30
0.000000
  70
    32
  0
VERTEX
  8
0
  5
893C
 10
390.003
 20
194.282
 30
0.000000
  70
    32
  0
VERTEX
  8
0
  5
893D
 10
390.005
 20
194.243
 30
0.000000
  70
    32
  0
VERTEX
  8
0
  5
893E
 10
390.008
 20
194.204
 30
0.000000
  70
    32
  0
VERTEX
  8
0
  5
893F
 10
390.011
 20
194.165
 30
0.000000
  70
    32
  0
VERTEX
  8
0
  5
8940
 10
390.015
 20
194.126
 30
0.000000
  70
    32
  0
VERTEX
  8
0
  5
8941
 10
390.019
 20
194.088
 30
0.000000
  70
    32
  0
VERTEX
  8
0
  5
8942
 10
390.024
 20
194.049
 30
0.000000
  70
    32
  0
VERTEX
  8
0
  5
8943
 10
390.030
 20
194.011
 30
0.000000
  70
    32
  0
VERTEX
  8
0
  5
8944
 10
390.036
 20
193.973
 30
0.000000
  70
    32
  0
VERTEX
  8
0
  5
8945
 10
390.043
 20
193.936
 30
0.000000
  70
    32
  0
VERTEX
  8
0
  5
8946
 10
390.050
 20
193.898
 30
0.000000
  70
    32
  0
VERTEX
  8
0
  5
8947
 10
390.058
 20
193.861
 30
0.000000
  70
    32
  0
VERTEX
  8
0
  5
8948
 10
390.067
 20
193.824
 30
0.000000
  70
    32
  0
VERTEX
  8
0
  5
8949
 10
390.076
 20
193.788
 30
0.000000
  70
    32
  0
VERTEX
  8
0
  5
894A
 10
390.086
 20
193.752
 30
0.000000
  70
    32
  0
VERTEX
  8
0
  5
894B
 10
390.096
 20
193.716
 30
0.000000
  70
    32
  0
VERTEX
  8
0
  5
894C
 10
390.107
 20
193.681
 30
0.000000
  70
    32
  0
VERTEX
  8
0
  5
894D
 10
390.118
 20
193.646
 30
0.000000
  70
    32
  0
VERTEX
  8
0
  5
894E
 10
390.130
 20
193.611
 30
0.000000
  70
    32
  0
VERTEX
  8
0
  5
894F
 10
390.142
 20
193.577
 30
0.000000
  70
    32
  0
VERTEX
  8
0
  5
8950
 10
390.155
 20
193.544
 30
0.000000
  70
    32
  0
VERTEX
  8
0
  5
8951
 10
390.169
 20
193.511
 30
0.000000
  70
    32
  0
VERTEX
  8
0
  5
8952
 10
390.182
 20
193.479
 30
0.000000
  70
    32
  0
VERTEX
  8
0
  5
8953
 10
390.197
 20
193.447
 30
0.000000
  70
    32
  0
VERTEX
  8
0
  5
8954
 10
390.212
 20
193.416
 30
0.000000
  70
    32
  0
VERTEX
  8
0
  5
8955
 10
390.227
 20
193.385
 30
0.000000
  70
    32
  0
VERTEX
  8
0
  5
8956
 10
390.243
 20
193.355
 30
0.000000
  70
    32
  0
VERTEX
  8
0
  5
8957
 10
390.259
 20
193.326
 30
0.000000
  70
    32
  0
VERTEX
  8
0
  5
8958
 10
390.276
 20
193.297
 30
0.000000
  70
    32
  0
VERTEX
  8
0
  5
8959
 10
390.293
 20
193.269
 30
0.000000
  70
    32
  0
VERTEX
  8
0
  5
895A
 10
390.310
 20
193.241
 30
0.000000
  70
    32
  0
VERTEX
  8
0
  5
895B
 10
390.328
 20
193.214
 30
0.000000
  70
    32
  0
VERTEX
  8
0
  5
895C
 10
390.347
 20
193.188
 30
0.000000
  70
    32
  0
VERTEX
  8
0
  5
895D
 10
390.366
 20
193.163
 30
0.000000
  70
    32
  0
VERTEX
  8
0
  5
895E
 10
390.385
 20
193.139
 30
0.000000
  70
    32
  0
VERTEX
  8
0
  5
895F
 10
390.404
 20
193.115
 30
0.000000
  70
    32
  0
VERTEX
  8
0
  5
8960
 10
390.424
 20
193.092
 30
0.000000
  70
    32
  0
VERTEX
  8
0
  5
8961
 10
390.444
 20
193.070
 30
0.000000
  70
    32
  0
VERTEX
  8
0
  5
8962
 10
390.465
 20
193.048
 30
0.000000
  70
    32
  0
VERTEX
  8
0
  5
8963
 10
390.486
 20
193.028
 30
0.000000
  70
    32
  0
VERTEX
  8
0
  5
8964
 10
390.507
 20
193.008
 30
0.000000
  70
    32
  0
VERTEX
  8
0
  5
8965
 10
390.529
 20
192.989
 30
0.000000
  70
    32
  0
VERTEX
  8
0
  5
8966
 10
390.550
 20
192.971
 30
0.000000
  70
    32
  0
VERTEX
  8
0
  5
8967
 10
390.572
 20
192.954
 30
0.000000
  70
    32
  0
VERTEX
  8
0
  5
8968
 10
390.595
 20
192.937
 30
0.000000
  70
    32
  0
VERTEX
  8
0
  5
8969
 10
390.617
 20
192.922
 30
0.000000
  70
    32
  0
VERTEX
  8
0
  5
896A
 10
390.640
 20
192.907
 30
0.000000
  70
    32
  0
VERTEX
  8
0
  5
896B
 10
390.663
 20
192.894
 30
0.000000
  70
    32
  0
VERTEX
  8
0
  5
896C
 10
390.686
 20
192.881
 30
0.000000
  70
    32
  0
VERTEX
  8
0
  5
896D
 10
390.710
 20
192.869
 30
0.000000
  70
    32
  0
VERTEX
  8
0
  5
896E
 10
390.733
 20
192.858
 30
0.000000
  70
    32
  0
VERTEX
  8
0
  5
896F
 10
390.757
 20
192.848
 30
0.000000
  70
    32
  0
VERTEX
  8
0
  5
8970
 10
390.781
 20
192.839
 30
0.000000
  70
    32
  0
VERTEX
  8
0
  5
8971
 10
390.805
 20
192.831
 30
0.000000
  70
    32
  0
VERTEX
  8
0
  5
8972
 10
390.829
 20
192.824
 30
0.000000
  70
    32
  0
VERTEX
  8
0
  5
8973
 10
390.853
 20
192.817
 30
0.000000
  70
    32
  0
VERTEX
  8
0
  5
8974
 10
390.878
 20
192.812
 30
0.000000
  70
    32
  0
VERTEX
  8
0
  5
8975
 10
390.902
 20
192.808
 30
0.000000
  70
    32
  0
VERTEX
  8
0
  5
8976
 10
390.926
 20
192.804
 30
0.000000
  70
    32
  0
VERTEX
  8
0
  5
8977
 10
390.951
 20
192.802
 30
0.000000
  70
    32
  0
VERTEX
  8
0
  5
8978
 10
390.975
 20
192.800
 30
0.000000
  70
    32
  0
VERTEX
  8
0
  5
8979
 10
391.000
 20
192.800
 30
0.000000
  70
    32
  0
SEQEND
  8
0
  5
897A
  0
POLYLINE
  5
7D31
  8
0
 10
409.0
 20
168.80000107288393
 30
0.0
 66
     1
 70
     8
  0
VERTEX
  8
0
  5
897B
 10
409.000
 20
168.800
 30
0.000000
  70
    32
  0
VERTEX
  8
0
  5
897C
 10
409.025
 20
168.800
 30
0.000000
  70
    32
  0
VERTEX
  8
0
  5
897D
 10
409.049
 20
168.802
 30
0.000000
  70
    32
  0
VERTEX
  8
0
  5
897E
 10
409.074
 20
168.804
 30
0.000000
  70
    32
  0
VERTEX
  8
0
  5
897F
 10
409.098
 20
168.808
 30
0.000000
  70
    32
  0
VERTEX
  8
0
  5
8980
 10
409.122
 20
168.812
 30
0.000000
  70
    32
  0
VERTEX
  8
0
  5
8981
 10
409.147
 20
168.817
 30
0.000000
  70
    32
  0
VERTEX
  8
0
  5
8982
 10
409.171
 20
168.824
 30
0.000000
  70
    32
  0
VERTEX
  8
0
  5
8983
 10
409.195
 20
168.831
 30
0.000000
  70
    32
  0
VERTEX
  8
0
  5
8984
 10
409.219
 20
168.839
 30
0.000000
  70
    32
  0
VERTEX
  8
0
  5
8985
 10
409.243
 20
168.848
 30
0.000000
  70
    32
  0
VERTEX
  8
0
  5
8986
 10
409.267
 20
168.858
 30
0.000000
  70
    32
  0
VERTEX
  8
0
  5
8987
 10
409.290
 20
168.869
 30
0.000000
  70
    32
  0
VERTEX
  8
0
  5
8988
 10
409.314
 20
168.881
 30
0.000000
  70
    32
  0
VERTEX
  8
0
  5
8989
 10
409.337
 20
168.894
 30
0.000000
  70
    32
  0
VERTEX
  8
0
  5
898A
 10
409.360
 20
168.907
 30
0.000000
  70
    32
  0
VERTEX
  8
0
  5
898B
 10
409.383
 20
168.922
 30
0.000000
  70
    32
  0
VERTEX
  8
0
  5
898C
 10
409.405
 20
168.937
 30
0.000000
  70
    32
  0
VERTEX
  8
0
  5
898D
 10
409.428
 20
168.954
 30
0.000000
  70
    32
  0
VERTEX
  8
0
  5
898E
 10
409.450
 20
168.971
 30
0.000000
  70
    32
  0
VERTEX
  8
0
  5
898F
 10
409.471
 20
168.989
 30
0.000000
  70
    32
  0
VERTEX
  8
0
  5
8990
 10
409.493
 20
169.008
 30
0.000000
  70
    32
  0
VERTEX
  8
0
  5
8991
 10
409.514
 20
169.028
 30
0.000000
  70
    32
  0
VERTEX
  8
0
  5
8992
 10
409.535
 20
169.048
 30
0.000000
  70
    32
  0
VERTEX
  8
0
  5
8993
 10
409.556
 20
169.070
 30
0.000000
  70
    32
  0
VERTEX
  8
0
  5
8994
 10
409.576
 20
169.092
 30
0.000000
  70
    32
  0
VERTEX
  8
0
  5
8995
 10
409.596
 20
169.115
 30
0.000000
  70
    32
  0
VERTEX
  8
0
  5
8996
 10
409.615
 20
169.139
 30
0.000000
  70
    32
  0
VERTEX
  8
0
  5
8997
 10
409.634
 20
169.163
 30
0.000000
  70
    32
  0
VERTEX
  8
0
  5
8998
 10
409.653
 20
169.188
 30
0.000000
  70
    32
  0
VERTEX
  8
0
  5
8999
 10
409.672
 20
169.214
 30
0.000000
  70
    32
  0
VERTEX
  8
0
  5
899A
 10
409.690
 20
169.241
 30
0.000000
  70
    32
  0
VERTEX
  8
0
  5
899B
 10
409.707
 20
169.269
 30
0.000000
  70
    32
  0
VERTEX
  8
0
  5
899C
 10
409.724
 20
169.297
 30
0.000000
  70
    32
  0
VERTEX
  8
0
  5
899D
 10
409.741
 20
169.326
 30
0.000000
  70
    32
  0
VERTEX
  8
0
  5
899E
 10
409.757
 20
169.355
 30
0.000000
  70
    32
  0
VERTEX
  8
0
  5
899F
 10
409.773
 20
169.385
 30
0.000000
  70
    32
  0
VERTEX
  8
0
  5
89A0
 10
409.788
 20
169.416
 30
0.000000
  70
    32
  0
VERTEX
  8
0
  5
89A1
 10
409.803
 20
169.447
 30
0.000000
  70
    32
  0
VERTEX
  8
0
  5
89A2
 10
409.818
 20
169.479
 30
0.000000
  70
    32
  0
VERTEX
  8
0
  5
89A3
 10
409.831
 20
169.511
 30
0.000000
  70
    32
  0
VERTEX
  8
0
  5
89A4
 10
409.845
 20
169.544
 30
0.000000
  70
    32
  0
VERTEX
  8
0
  5
89A5
 10
409.858
 20
169.577
 30
0.000000
  70
    32
  0
VERTEX
  8
0
  5
89A6
 10
409.870
 20
169.611
 30
0.000000
  70
    32
  0
VERTEX
  8
0
  5
89A7
 10
409.882
 20
169.646
 30
0.000000
  70
    32
  0
VERTEX
  8
0
  5
89A8
 10
409.893
 20
169.681
 30
0.000000
  70
    32
  0
VERTEX
  8
0
  5
89A9
 10
409.904
 20
169.716
 30
0.000000
  70
    32
  0
VERTEX
  8
0
  5
89AA
 10
409.914
 20
169.752
 30
0.000000
  70
    32
  0
VERTEX
  8
0
  5
89AB
 10
409.924
 20
169.788
 30
0.000000
  70
    32
  0
VERTEX
  8
0
  5
89AC
 10
409.933
 20
169.824
 30
0.000000
  70
    32
  0
VERTEX
  8
0
  5
89AD
 10
409.942
 20
169.861
 30
0.000000
  70
    32
  0
VERTEX
  8
0
  5
89AE
 10
409.950
 20
169.898
 30
0.000000
  70
    32
  0
VERTEX
  8
0
  5
89AF
 10
409.957
 20
169.936
 30
0.000000
  70
    32
  0
VERTEX
  8
0
  5
89B0
 10
409.964
 20
169.973
 30
0.000000
  70
    32
  0
VERTEX
  8
0
  5
89B1
 10
409.970
 20
170.011
 30
0.000000
  70
    32
  0
VERTEX
  8
0
  5
89B2
 10
409.976
 20
170.049
 30
0.000000
  70
    32
  0
VERTEX
  8
0
  5
89B3
 10
409.981
 20
170.088
 30
0.000000
  70
    32
  0
VERTEX
  8
0
  5
89B4
 10
409.985
 20
170.126
 30
0.000000
  70
    32
  0
VERTEX
  8
0
  5
89B5
 10
409.989
 20
170.165
 30
0.000000
  70
    32
  0
VERTEX
  8
0
  5
89B6
 10
409.992
 20
170.204
 30
0.000000
  70
    32
  0
VERTEX
  8
0
  5
89B7
 10
409.995
 20
170.243
 30
0.000000
  70
    32
  0
VERTEX
  8
0
  5
89B8
 10
409.997
 20
170.282
 30
0.000000
  70
    32
  0
VERTEX
  8
0
  5
89B9
 10
409.999
 20
170.321
 30
0.000000
  70
    32
  0
VERTEX
  8
0
  5
89BA
 10
410.000
 20
170.361
 30
0.000000
  70
    32
  0
VERTEX
  8
0
  5
89BB
 10
410.000
 20
170.400
 30
0.000000
  70
    32
  0
VERTEX
  8
0
  5
89BC
 10
410.000
 20
170.439
 30
0.000000
  70
    32
  0
VERTEX
  8
0
  5
89BD
 10
409.999
 20
170.479
 30
0.000000
  70
    32
  0
VERTEX
  8
0
  5
89BE
 10
409.997
 20
170.518
 30
0.000000
  70
    32
  0
VERTEX
  8
0
  5
89BF
 10
409.995
 20
170.557
 30
0.000000
  70
    32
  0
VERTEX
  8
0
  5
89C0
 10
409.992
 20
170.596
 30
0.000000
  70
    32
  0
VERTEX
  8
0
  5
89C1
 10
409.989
 20
170.635
 30
0.000000
  70
    32
  0
VERTEX
  8
0
  5
89C2
 10
409.985
 20
170.674
 30
0.000000
  70
    32
  0
VERTEX
  8
0
  5
89C3
 10
409.981
 20
170.712
 30
0.000000
  70
    32
  0
VERTEX
  8
0
  5
89C4
 10
409.976
 20
170.751
 30
0.000000
  70
    32
  0
VERTEX
  8
0
  5
89C5
 10
409.970
 20
170.789
 30
0.000000
  70
    32
  0
VERTEX
  8
0
  5
89C6
 10
409.964
 20
170.827
 30
0.000000
  70
    32
  0
VERTEX
  8
0
  5
89C7
 10
409.957
 20
170.864
 30
0.000000
  70
    32
  0
VERTEX
  8
0
  5
89C8
 10
409.950
 20
170.902
 30
0.000000
  70
    32
  0
VERTEX
  8
0
  5
89C9
 10
409.942
 20
170.939
 30
0.000000
  70
    32
  0
VERTEX
  8
0
  5
89CA
 10
409.933
 20
170.976
 30
0.000000
  70
    32
  0
VERTEX
  8
0
  5
89CB
 10
409.924
 20
171.012
 30
0.000000
  70
    32
  0
VERTEX
  8
0
  5
89CC
 10
409.914
 20
171.048
 30
0.000000
  70
    32
  0
VERTEX
  8
0
  5
89CD
 10
409.904
 20
171.084
 30
0.000000
  70
    32
  0
VERTEX
  8
0
  5
89CE
 10
409.893
 20
171.119
 30
0.000000
  70
    32
  0
VERTEX
  8
0
  5
89CF
 10
409.882
 20
171.154
 30
0.000000
  70
    32
  0
VERTEX
  8
0
  5
89D0
 10
409.870
 20
171.189
 30
0.000000
  70
    32
  0
VERTEX
  8
0
  5
89D1
 10
409.858
 20
171.223
 30
0.000000
  70
    32
  0
VERTEX
  8
0
  5
89D2
 10
409.845
 20
171.256
 30
0.000000
  70
    32
  0
VERTEX
  8
0
  5
89D3
 10
409.831
 20
171.289
 30
0.000000
  70
    32
  0
VERTEX
  8
0
  5
89D4
 10
409.818
 20
171.321
 30
0.000000
  70
    32
  0
VERTEX
  8
0
  5
89D5
 10
409.803
 20
171.353
 30
0.000000
  70
    32
  0
VERTEX
  8
0
  5
89D6
 10
409.788
 20
171.384
 30
0.000000
  70
    32
  0
VERTEX
  8
0
  5
89D7
 10
409.773
 20
171.415
 30
0.000000
  70
    32
  0
VERTEX
  8
0
  5
89D8
 10
409.757
 20
171.445
 30
0.000000
  70
    32
  0
VERTEX
  8
0
  5
89D9
 10
409.741
 20
171.474
 30
0.000000
  70
    32
  0
VERTEX
  8
0
  5
89DA
 10
409.724
 20
171.503
 30
0.000000
  70
    32
  0
VERTEX
  8
0
  5
89DB
 10
409.707
 20
171.531
 30
0.000000
  70
    32
  0
VERTEX
  8
0
  5
89DC
 10
409.690
 20
171.559
 30
0.000000
  70
    32
  0
VERTEX
  8
0
  5
89DD
 10
409.672
 20
171.586
 30
0.000000
  70
    32
  0
VERTEX
  8
0
  5
89DE
 10
409.653
 20
171.612
 30
0.000000
  70
    32
  0
VERTEX
  8
0
  5
89DF
 10
409.634
 20
171.637
 30
0.000000
  70
    32
  0
VERTEX
  8
0
  5
89E0
 10
409.615
 20
171.661
 30
0.000000
  70
    32
  0
VERTEX
  8
0
  5
89E1
 10
409.596
 20
171.685
 30
0.000000
  70
    32
  0
VERTEX
  8
0
  5
89E2
 10
409.576
 20
171.708
 30
0.000000
  70
    32
  0
VERTEX
  8
0
  5
89E3
 10
409.556
 20
171.730
 30
0.000000
  70
    32
  0
VERTEX
  8
0
  5
89E4
 10
409.535
 20
171.752
 30
0.000000
  70
    32
  0
VERTEX
  8
0
  5
89E5
 10
409.514
 20
171.772
 30
0.000000
  70
    32
  0
VERTEX
  8
0
  5
89E6
 10
409.493
 20
171.792
 30
0.000000
  70
    32
  0
VERTEX
  8
0
  5
89E7
 10
409.471
 20
171.811
 30
0.000000
  70
    32
  0
VERTEX
  8
0
  5
89E8
 10
409.450
 20
171.829
 30
0.000000
  70
    32
  0
VERTEX
  8
0
  5
89E9
 10
409.428
 20
171.846
 30
0.000000
  70
    32
  0
VERTEX
  8
0
  5
89EA
 10
409.405
 20
171.863
 30
0.000000
  70
    32
  0
VERTEX
  8
0
  5
89EB
 10
409.383
 20
171.878
 30
0.000000
  70
    32
  0
VERTEX
  8
0
  5
89EC
 10
409.360
 20
171.893
 30
0.000000
  70
    32
  0
VERTEX
  8
0
  5
89ED
 10
409.337
 20
171.906
 30
0.000000
  70
    32
  0
VERTEX
  8
0
  5
89EE
 10
409.314
 20
171.919
 30
0.000000
  70
    32
  0
VERTEX
  8
0
  5
89EF
 10
409.290
 20
171.931
 30
0.000000
  70
    32
  0
VERTEX
  8
0
  5
89F0
 10
409.267
 20
171.942
 30
0.000000
  70
    32
  0
VERTEX
  8
0
  5
89F1
 10
409.243
 20
171.952
 30
0.000000
  70
    32
  0
VERTEX
  8
0
  5
89F2
 10
409.219
 20
171.961
 30
0.000000
  70
    32
  0
VERTEX
  8
0
  5
89F3
 10
409.195
 20
171.969
 30
0.000000
  70
    32
  0
VERTEX
  8
0
  5
89F4
 10
409.171
 20
171.976
 30
0.000000
  70
    32
  0
VERTEX
  8
0
  5
89F5
 10
409.147
 20
171.983
 30
0.000000
  70
    32
  0
VERTEX
  8
0
  5
89F6
 10
409.122
 20
171.988
 30
0.000000
  70
    32
  0
VERTEX
  8
0
  5
89F7
 10
409.098
 20
171.992
 30
0.000000
  70
    32
  0
VERTEX
  8
0
  5
89F8
 10
409.074
 20
171.996
 30
0.000000
  70
    32
  0
VERTEX
  8
0
  5
89F9
 10
409.049
 20
171.998
 30
0.000000
  70
    32
  0
VERTEX
  8
0
  5
89FA
 10
409.025
 20
172.000
 30
0.000000
  70
    32
  0
VERTEX
  8
0
  5
89FB
 10
409.000
 20
172.000
 30
0.000000
  70
    32
  0
SEQEND
  8
0
  5
89FC
  0
POLYLINE
  5
7D32
  8
0
 10
391.0
 20
172.00000107288386
 30
0.0
 66
     1
 70
     8
  0
VERTEX
  8
0
  5
89FD
 10
391.000
 20
172.000
 30
0.000000
  70
    32
  0
VERTEX
  8
0
  5
89FE
 10
390.975
 20
172.000
 30
0.000000
  70
    32
  0
VERTEX
  8
0
  5
89FF
 10
390.951
 20
171.998
 30
0.000000
  70
    32
  0
VERTEX
  8
0
  5
8A00
 10
390.926
 20
171.996
 30
0.000000
  70
    32
  0
VERTEX
  8
0
  5
8A01
 10
390.902
 20
171.992
 30
0.000000
  70
    32
  0
VERTEX
  8
0
  5
8A02
 10
390.878
 20
171.988
 30
0.000000
  70
    32
  0
VERTEX
  8
0
  5
8A03
 10
390.853
 20
171.983
 30
0.000000
  70
    32
  0
VERTEX
  8
0
  5
8A04
 10
390.829
 20
171.976
 30
0.000000
  70
    32
  0
VERTEX
  8
0
  5
8A05
 10
390.805
 20
171.969
 30
0.000000
  70
    32
  0
VERTEX
  8
0
  5
8A06
 10
390.781
 20
171.961
 30
0.000000
  70
    32
  0
VERTEX
  8
0
  5
8A07
 10
390.757
 20
171.952
 30
0.000000
  70
    32
  0
VERTEX
  8
0
  5
8A08
 10
390.733
 20
171.942
 30
0.000000
  70
    32
  0
VERTEX
  8
0
  5
8A09
 10
390.710
 20
171.931
 30
0.000000
  70
    32
  0
VERTEX
  8
0
  5
8A0A
 10
390.686
 20
171.919
 30
0.000000
  70
    32
  0
VERTEX
  8
0
  5
8A0B
 10
390.663
 20
171.906
 30
0.000000
  70
    32
  0
VERTEX
  8
0
  5
8A0C
 10
390.640
 20
171.893
 30
0.000000
  70
    32
  0
VERTEX
  8
0
  5
8A0D
 10
390.617
 20
171.878
 30
0.000000
  70
    32
  0
VERTEX
  8
0
  5
8A0E
 10
390.595
 20
171.863
 30
0.000000
  70
    32
  0
VERTEX
  8
0
  5
8A0F
 10
390.572
 20
171.846
 30
0.000000
  70
    32
  0
VERTEX
  8
0
  5
8A10
 10
390.550
 20
171.829
 30
0.000000
  70
    32
  0
VERTEX
  8
0
  5
8A11
 10
390.529
 20
171.811
 30
0.000000
  70
    32
  0
VERTEX
  8
0
  5
8A12
 10
390.507
 20
171.792
 30
0.000000
  70
    32
  0
VERTEX
  8
0
  5
8A13
 10
390.486
 20
171.772
 30
0.000000
  70
    32
  0
VERTEX
  8
0
  5
8A14
 10
390.465
 20
171.752
 30
0.000000
  70
    32
  0
VERTEX
  8
0
  5
8A15
 10
390.444
 20
171.730
 30
0.000000
  70
    32
  0
VERTEX
  8
0
  5
8A16
 10
390.424
 20
171.708
 30
0.000000
  70
    32
  0
VERTEX
  8
0
  5
8A17
 10
390.404
 20
171.685
 30
0.000000
  70
    32
  0
VERTEX
  8
0
  5
8A18
 10
390.385
 20
171.661
 30
0.000000
  70
    32
  0
VERTEX
  8
0
  5
8A19
 10
390.366
 20
171.637
 30
0.000000
  70
    32
  0
VERTEX
  8
0
  5
8A1A
 10
390.347
 20
171.612
 30
0.000000
  70
    32
  0
VERTEX
  8
0
  5
8A1B
 10
390.328
 20
171.586
 30
0.000000
  70
    32
  0
VERTEX
  8
0
  5
8A1C
 10
390.310
 20
171.559
 30
0.000000
  70
    32
  0
VERTEX
  8
0
  5
8A1D
 10
390.293
 20
171.531
 30
0.000000
  70
    32
  0
VERTEX
  8
0
  5
8A1E
 10
390.276
 20
171.503
 30
0.000000
  70
    32
  0
VERTEX
  8
0
  5
8A1F
 10
390.259
 20
171.474
 30
0.000000
  70
    32
  0
VERTEX
  8
0
  5
8A20
 10
390.243
 20
171.445
 30
0.000000
  70
    32
  0
VERTEX
  8
0
  5
8A21
 10
390.227
 20
171.415
 30
0.000000
  70
    32
  0
VERTEX
  8
0
  5
8A22
 10
390.212
 20
171.384
 30
0.000000
  70
    32
  0
VERTEX
  8
0
  5
8A23
 10
390.197
 20
171.353
 30
0.000000
  70
    32
  0
VERTEX
  8
0
  5
8A24
 10
390.182
 20
171.321
 30
0.000000
  70
    32
  0
VERTEX
  8
0
  5
8A25
 10
390.169
 20
171.289
 30
0.000000
  70
    32
  0
VERTEX
  8
0
  5
8A26
 10
390.155
 20
171.256
 30
0.000000
  70
    32
  0
VERTEX
  8
0
  5
8A27
 10
390.142
 20
171.223
 30
0.000000
  70
    32
  0
VERTEX
  8
0
  5
8A28
 10
390.130
 20
171.189
 30
0.000000
  70
    32
  0
VERTEX
  8
0
  5
8A29
 10
390.118
 20
171.154
 30
0.000000
  70
    32
  0
VERTEX
  8
0
  5
8A2A
 10
390.107
 20
171.119
 30
0.000000
  70
    32
  0
VERTEX
  8
0
  5
8A2B
 10
390.096
 20
171.084
 30
0.000000
  70
    32
  0
VERTEX
  8
0
  5
8A2C
 10
390.086
 20
171.048
 30
0.000000
  70
    32
  0
VERTEX
  8
0
  5
8A2D
 10
390.076
 20
171.012
 30
0.000000
  70
    32
  0
VERTEX
  8
0
  5
8A2E
 10
390.067
 20
170.976
 30
0.000000
  70
    32
  0
VERTEX
  8
0
  5
8A2F
 10
390.058
 20
170.939
 30
0.000000
  70
    32
  0
VERTEX
  8
0
  5
8A30
 10
390.050
 20
170.902
 30
0.000000
  70
    32
  0
VERTEX
  8
0
  5
8A31
 10
390.043
 20
170.864
 30
0.000000
  70
    32
  0
VERTEX
  8
0
  5
8A32
 10
390.036
 20
170.827
 30
0.000000
  70
    32
  0
VERTEX
  8
0
  5
8A33
 10
390.030
 20
170.789
 30
0.000000
  70
    32
  0
VERTEX
  8
0
  5
8A34
 10
390.024
 20
170.751
 30
0.000000
  70
    32
  0
VERTEX
  8
0
  5
8A35
 10
390.019
 20
170.712
 30
0.000000
  70
    32
  0
VERTEX
  8
0
  5
8A36
 10
390.015
 20
170.674
 30
0.000000
  70
    32
  0
VERTEX
  8
0
  5
8A37
 10
390.011
 20
170.635
 30
0.000000
  70
    32
  0
VERTEX
  8
0
  5
8A38
 10
390.008
 20
170.596
 30
0.000000
  70
    32
  0
VERTEX
  8
0
  5
8A39
 10
390.005
 20
170.557
 30
0.000000
  70
    32
  0
VERTEX
  8
0
  5
8A3A
 10
390.003
 20
170.518
 30
0.000000
  70
    32
  0
VERTEX
  8
0
  5
8A3B
 10
390.001
 20
170.479
 30
0.000000
  70
    32
  0
VERTEX
  8
0
  5
8A3C
 10
390.000
 20
170.439
 30
0.000000
  70
    32
  0
VERTEX
  8
0
  5
8A3D
 10
390.000
 20
170.400
 30
0.000000
  70
    32
  0
VERTEX
  8
0
  5
8A3E
 10
390.000
 20
170.361
 30
0.000000
  70
    32
  0
VERTEX
  8
0
  5
8A3F
 10
390.001
 20
170.321
 30
0.000000
  70
    32
  0
VERTEX
  8
0
  5
8A40
 10
390.003
 20
170.282
 30
0.000000
  70
    32
  0
VERTEX
  8
0
  5
8A41
 10
390.005
 20
170.243
 30
0.000000
  70
    32
  0
VERTEX
  8
0
  5
8A42
 10
390.008
 20
170.204
 30
0.000000
  70
    32
  0
VERTEX
  8
0
  5
8A43
 10
390.011
 20
170.165
 30
0.000000
  70
    32
  0
VERTEX
  8
0
  5
8A44
 10
390.015
 20
170.126
 30
0.000000
  70
    32
  0
VERTEX
  8
0
  5
8A45
 10
390.019
 20
170.088
 30
0.000000
  70
    32
  0
VERTEX
  8
0
  5
8A46
 10
390.024
 20
170.049
 30
0.000000
  70
    32
  0
VERTEX
  8
0
  5
8A47
 10
390.030
 20
170.011
 30
0.000000
  70
    32
  0
VERTEX
  8
0
  5
8A48
 10
390.036
 20
169.973
 30
0.000000
  70
    32
  0
VERTEX
  8
0
  5
8A49
 10
390.043
 20
169.936
 30
0.000000
  70
    32
  0
VERTEX
  8
0
  5
8A4A
 10
390.050
 20
169.898
 30
0.000000
  70
    32
  0
VERTEX
  8
0
  5
8A4B
 10
390.058
 20
169.861
 30
0.000000
  70
    32
  0
VERTEX
  8
0
  5
8A4C
 10
390.067
 20
169.824
 30
0.000000
  70
    32
  0
VERTEX
  8
0
  5
8A4D
 10
390.076
 20
169.788
 30
0.000000
  70
    32
  0
VERTEX
  8
0
  5
8A4E
 10
390.086
 20
169.752
 30
0.000000
  70
    32
  0
VERTEX
  8
0
  5
8A4F
 10
390.096
 20
169.716
 30
0.000000
  70
    32
  0
VERTEX
  8
0
  5
8A50
 10
390.107
 20
169.681
 30
0.000000
  70
    32
  0
VERTEX
  8
0
  5
8A51
 10
390.118
 20
169.646
 30
0.000000
  70
    32
  0
VERTEX
  8
0
  5
8A52
 10
390.130
 20
169.611
 30
0.000000
  70
    32
  0
VERTEX
  8
0
  5
8A53
 10
390.142
 20
169.577
 30
0.000000
  70
    32
  0
VERTEX
  8
0
  5
8A54
 10
390.155
 20
169.544
 30
0.000000
  70
    32
  0
VERTEX
  8
0
  5
8A55
 10
390.169
 20
169.511
 30
0.000000
  70
    32
  0
VERTEX
  8
0
  5
8A56
 10
390.182
 20
169.479
 30
0.000000
  70
    32
  0
VERTEX
  8
0
  5
8A57
 10
390.197
 20
169.447
 30
0.000000
  70
    32
  0
VERTEX
  8
0
  5
8A58
 10
390.212
 20
169.416
 30
0.000000
  70
    32
  0
VERTEX
  8
0
  5
8A59
 10
390.227
 20
169.385
 30
0.000000
  70
    32
  0
VERTEX
  8
0
  5
8A5A
 10
390.243
 20
169.355
 30
0.000000
  70
    32
  0
VERTEX
  8
0
  5
8A5B
 10
390.259
 20
169.326
 30
0.000000
  70
    32
  0
VERTEX
  8
0
  5
8A5C
 10
390.276
 20
169.297
 30
0.000000
  70
    32
  0
VERTEX
  8
0
  5
8A5D
 10
390.293
 20
169.269
 30
0.000000
  70
    32
  0
VERTEX
  8
0
  5
8A5E
 10
390.310
 20
169.241
 30
0.000000
  70
    32
  0
VERTEX
  8
0
  5
8A5F
 10
390.328
 20
169.214
 30
0.000000
  70
    32
  0
VERTEX
  8
0
  5
8A60
 10
390.347
 20
169.188
 30
0.000000
  70
    32
  0
VERTEX
  8
0
  5
8A61
 10
390.366
 20
169.163
 30
0.000000
  70
    32
  0
VERTEX
  8
0
  5
8A62
 10
390.385
 20
169.139
 30
0.000000
  70
    32
  0
VERTEX
  8
0
  5
8A63
 10
390.404
 20
169.115
 30
0.000000
  70
    32
  0
VERTEX
  8
0
  5
8A64
 10
390.424
 20
169.092
 30
0.000000
  70
    32
  0
VERTEX
  8
0
  5
8A65
 10
390.444
 20
169.070
 30
0.000000
  70
    32
  0
VERTEX
  8
0
  5
8A66
 10
390.465
 20
169.048
 30
0.000000
  70
    32
  0
VERTEX
  8
0
  5
8A67
 10
390.486
 20
169.028
 30
0.000000
  70
    32
  0
VERTEX
  8
0
  5
8A68
 10
390.507
 20
169.008
 30
0.000000
  70
    32
  0
VERTEX
  8
0
  5
8A69
 10
390.529
 20
168.989
 30
0.000000
  70
    32
  0
VERTEX
  8
0
  5
8A6A
 10
390.550
 20
168.971
 30
0.000000
  70
    32
  0
VERTEX
  8
0
  5
8A6B
 10
390.572
 20
168.954
 30
0.000000
  70
    32
  0
VERTEX
  8
0
  5
8A6C
 10
390.595
 20
168.937
 30
0.000000
  70
    32
  0
VERTEX
  8
0
  5
8A6D
 10
390.617
 20
168.922
 30
0.000000
  70
    32
  0
VERTEX
  8
0
  5
8A6E
 10
390.640
 20
168.907
 30
0.000000
  70
    32
  0
VERTEX
  8
0
  5
8A6F
 10
390.663
 20
168.894
 30
0.000000
  70
    32
  0
VERTEX
  8
0
  5
8A70
 10
390.686
 20
168.881
 30
0.000000
  70
    32
  0
VERTEX
  8
0
  5
8A71
 10
390.710
 20
168.869
 30
0.000000
  70
    32
  0
VERTEX
  8
0
  5
8A72
 10
390.733
 20
168.858
 30
0.000000
  70
    32
  0
VERTEX
  8
0
  5
8A73
 10
390.757
 20
168.848
 30
0.000000
  70
    32
  0
VERTEX
  8
0
  5
8A74
 10
390.781
 20
168.839
 30
0.000000
  70
    32
  0
VERTEX
  8
0
  5
8A75
 10
390.805
 20
168.831
 30
0.000000
  70
    32
  0
VERTEX
  8
0
  5
8A76
 10
390.829
 20
168.824
 30
0.000000
  70
    32
  0
VERTEX
  8
0
  5
8A77
 10
390.853
 20
168.817
 30
0.000000
  70
    32
  0
VERTEX
  8
0
  5
8A78
 10
390.878
 20
168.812
 30
0.000000
  70
    32
  0
VERTEX
  8
0
  5
8A79
 10
390.902
 20
168.808
 30
0.000000
  70
    32
  0
VERTEX
  8
0
  5
8A7A
 10
390.926
 20
168.804
 30
0.000000
  70
    32
  0
VERTEX
  8
0
  5
8A7B
 10
390.951
 20
168.802
 30
0.000000
  70
    32
  0
VERTEX
  8
0
  5
8A7C
 10
390.975
 20
168.800
 30
0.000000
  70
    32
  0
VERTEX
  8
0
  5
8A7D
 10
391.000
 20
168.800
 30
0.000000
  70
    32
  0
SEQEND
  8
0
  5
8A7E
  0
LINE
  5
7D33
  8
0
 10
390.00000022351742
 20
192.80000068247341
 30
0.0
 11
390.00000022351742
 21
191.80000051856061
 31
0.0
  0
LINE
  5
7D34
  8
0
 10
409.99999977648253
 20
191.80000051856061
 30
0.0
 11
409.99999977648253
 21
192.80000068247341
 31
0.0
  0
LINE
  5
7D35
  8
0
 10
390.00000022351742
 20
191.80000051856061
 30
0.0
 11
390.29999971389771
 21
191.50000102818041
 31
0.0
  0
LINE
  5
7D36
  8
0
 10
409.70000028610218
 20
191.50000102818041
 30
0.0
 11
409.99999977648253
 21
191.80000051856061
 31
0.0
  0
LINE
  5
7D37
  8
0
 10
390.00000022351742
 20
163.79999965429329
 30
0.0
 11
390.29999971389771
 21
163.50000202655821
 31
0.0
  0
LINE
  5
7D38
  8
0
 10
409.70000028610218
 20
163.50000202655821
 30
0.0
 11
409.99999977648253
 21
163.79999965429329
 31
0.0
  0
LINE
  5
7D39
  8
0
 10
390.00000022351742
 20
197.000000998378
 30
0.0
 11
390.00000022351742
 21
196.0000008344652
 31
0.0
  0
LINE
  5
7D3A
  8
0
 10
409.99999977648253
 20
196.0000008344652
 30
0.0
 11
409.99999977648253
 21
197.000000998378
 31
0.0
  0
LINE
  5
7D3B
  8
0
 10
409.99999977648253
 20
197.000000998378
 30
0.0
 11
409.70000028610218
 21
197.30000048875829
 31
0.0
  0
LINE
  5
7D3C
  8
0
 10
390.29999971389771
 20
197.30000048875829
 30
0.0
 11
390.00000022351742
 21
197.000000998378
 31
0.0
  0
LINE
  5
7D3D
  8
0
 10
390.00000022351742
 20
185.0000008940699
 30
0.0
 11
390.00000022351742
 21
184.0000007301571
 31
0.0
  0
LINE
  5
7D3E
  8
0
 10
409.99999977648253
 20
184.0000007301571
 30
0.0
 11
409.99999977648253
 21
185.0000008940699
 31
0.0
  0
LINE
  5
7D3F
  8
0
 10
390.00000022351742
 20
165.00000134110471
 30
0.0
 11
390.00000022351742
 21
163.79999965429329
 31
0.0
  0
LINE
  5
7D40
  8
0
 10
409.99999977648253
 20
163.79999965429329
 30
0.0
 11
409.99999977648253
 21
165.00000134110471
 31
0.0
  0
LINE
  5
7D41
  8
0
 10
390.00000022351742
 20
168.8000023365023
 30
0.0
 11
390.00000022351742
 21
166.35000184178381
 31
0.0
  0
LINE
  5
7D42
  8
0
 10
409.99999977648253
 20
166.35000184178381
 30
0.0
 11
409.99999977648253
 21
168.8000023365023
 31
0.0
  0
LINE
  5
7D43
  8
0
 10
390.00000022351742
 20
173.00000265240689
 30
0.0
 11
390.00000022351742
 21
172.000000625849
 31
0.0
  0
LINE
  5
7D44
  8
0
 10
409.99999977648253
 20
172.000000625849
 30
0.0
 11
409.99999977648253
 21
173.00000265240689
 31
0.0
  0
LINE
  5
7D45
  8
0
 10
390.00000022351742
 20
179.80000227689769
 30
0.0
 11
390.29999971389771
 21
179.50000092387219
 31
0.0
  0
LINE
  5
7D46
  8
0
 10
409.70000028610218
 20
179.50000092387219
 30
0.0
 11
409.99999977648253
 21
179.80000227689769
 31
0.0
  0
LINE
  5
7D47
  8
0
 10
409.99999977648253
 20
173.00000265240689
 30
0.0
 11
409.70000028610218
 21
173.30000028014209
 31
0.0
  0
LINE
  5
7D48
  8
0
 10
390.29999971389771
 20
173.30000028014209
 30
0.0
 11
390.00000022351742
 21
173.00000265240689
 31
0.0
  0
LINE
  5
7D49
  8
0
 10
390.00000022351742
 20
180.80000057816531
 30
0.0
 11
390.00000022351742
 21
179.80000227689769
 31
0.0
  0
LINE
  5
7D4A
  8
0
 10
409.99999977648253
 20
179.80000227689769
 30
0.0
 11
409.99999977648253
 21
180.80000057816531
 31
0.0
  0
LINE
  5
7D4B
  8
0
 10
409.99999977648253
 20
185.0000008940699
 30
0.0
 11
409.70000028610218
 21
185.30000038445019
 31
0.0
  0
LINE
  5
7D4C
  8
0
 10
390.29999971389771
 20
185.30000038445019
 30
0.0
 11
390.00000022351742
 21
185.0000008940699
 31
0.0
  0
LINE
  5
7D4D
  8
0
 10
390.29999971389771
 20
162.69999966025381
 30
0.0
 11
390.5000003054738
 21
162.5000000000002
 31
0.0
  0
LINE
  5
7D4E
  8
0
 10
409.49999969452608
 20
162.5000000000002
 30
0.0
 11
409.70000028610218
 21
162.69999966025381
 31
0.0
  0
LINE
  5
7D4F
  8
0
 10
390.29999971389771
 20
163.50000202655821
 30
0.0
 11
390.29999971389771
 21
162.69999966025381
 31
0.0
  0
LINE
  5
7D50
  8
0
 10
409.70000028610218
 20
162.69999966025381
 30
0.0
 11
409.70000028610218
 21
163.50000202655821
 31
0.0
  0
LINE
  5
7D51
  8
0
 10
390.29999971389771
 20
179.50000092387219
 30
0.0
 11
390.29999971389771
 21
173.30000028014209
 31
0.0
  0
LINE
  5
7D52
  8
0
 10
409.70000028610218
 20
173.30000028014209
 30
0.0
 11
409.70000028610218
 21
179.50000092387219
 31
0.0
  0
LINE
  5
7D53
  8
0
 10
390.29999971389771
 20
191.50000102818041
 30
0.0
 11
390.29999971389771
 21
185.30000038445019
 31
0.0
  0
LINE
  5
7D54
  8
0
 10
409.70000028610218
 20
185.30000038445019
 30
0.0
 11
409.70000028610218
 21
191.50000102818041
 31
0.0
  0
LINE
  5
7D55
  8
0
 10
390.29999971389771
 20
205.500001460314
 30
0.0
 11
390.29999971389771
 21
197.30000048875829
 31
0.0
  0
LINE
  5
7D56
  8
0
 10
409.70000028610218
 20
197.30000048875829
 30
0.0
 11
409.70000028610218
 21
205.500001460314
 31
0.0
  0
LINE
  5
7D57
  8
0
 10
390.5000003054738
 20
166.35000184178381
 30
0.0
 11
390.5000003054738
 21
165.00000134110471
 31
0.0
  0
LINE
  5
7D58
  8
0
 10
409.49999969452608
 20
165.00000134110471
 30
0.0
 11
409.49999969452608
 21
166.35000184178381
 31
0.0
  0
LINE
  5
7D59
  8
0
 10
390.00000022351742
 20
192.80000068247341
 30
0.0
 11
409.99999977648253
 21
192.80000068247341
 31
0.0
  0
LINE
  5
7D5A
  8
0
 10
390.00000022351742
 20
196.0000008344652
 30
0.0
 11
409.99999977648253
 21
196.0000008344652
 31
0.0
  0
LINE
  5
7D5B
  8
0
 10
390.00000022351742
 20
184.0000007301571
 30
0.0
 11
409.99999977648253
 21
184.0000007301571
 31
0.0
  0
LINE
  5
7D5C
  8
0
 10
390.00000022351742
 20
165.00000134110471
 30
0.0
 11
409.99999977648253
 21
165.00000134110471
 31
0.0
  0
LINE
  5
7D5D
  8
0
 10
390.00000022351742
 20
166.35000184178381
 30
0.0
 11
409.99999977648253
 21
166.35000184178381
 31
0.0
  0
LINE
  5
7D5E
  8
0
 10
390.00000022351742
 20
168.8000023365023
 30
0.0
 11
409.99999977648253
 21
168.8000023365023
 31
0.0
  0
LINE
  5
7D5F
  8
0
 10
390.00000022351742
 20
172.000000625849
 30
0.0
 11
409.99999977648253
 21
172.000000625849
 31
0.0
  0
LINE
  5
7D60
  8
0
 10
390.29999971389771
 20
173.30000028014209
 30
0.0
 11
409.70000028610218
 21
173.30000028014209
 31
0.0
  0
LINE
  5
7D61
  8
0
 10
390.00000022351742
 20
180.80000057816531
 30
0.0
 11
409.99999977648253
 21
180.80000057816531
 31
0.0
  0
LINE
  5
7D62
  8
0
 10
409.49999969452608
 20
162.5000000000002
 30
0.0
 11
390.5000003054738
 21
162.5000000000002
 31
0.0
  0
CIRCLE
  5
7D63
  8
0
 10
400.0
 20
175.50013754824801
 30
0.0
 40
1.4998620345543741
  0
CIRCLE
  5
7D64
  8
0
 10
400.0
 20
189.5001347276615
 30
0.0
 40
1.499867150115511
  0
CIRCLE
  5
7D67
  8
0
 10
400.0
 20
175.5000076290803
 30
0.0
 40
0.7499941590608311
  0
CIRCLE
  5
7D68
  8
0
 10
400.0
 20
189.50000619858429
 30
0.0
 40
0.7499941590453128
  0
LINE
  5
7D79
  8
0
 10
205.49444481730461
 20
79.999999999999844
 30
0.0
 11
209.2472240328789
 21
73.499999865889578
 31
0.0
  0
LINE
  5
7D7A
  8
0
 10
209.2472240328789
 20
86.500000134110479
 30
0.0
 11
205.49444481730461
 21
79.999999999999844
 31
0.0
  0
LINE
  5
7D7B
  8
0
 10
216.75277501344681
 20
86.500000134110479
 30
0.0
 11
209.2472240328789
 21
86.500000134110479
 31
0.0
  0
LINE
  5
7D7C
  8
0
 10
220.5055542290211
 20
79.999999999999915
 30
0.0
 11
216.75277501344681
 21
86.500000134110479
 31
0.0
  0
LINE
  5
7D7D
  8
0
 10
216.75277501344681
 20
73.499999865889578
 30
0.0
 11
220.5055542290211
 21
79.999999999999915
 31
0.0
  0
LINE
  5
7D7E
  8
0
 10
209.2472240328789
 20
73.499999865889578
 30
0.0
 11
216.75277501344681
 21
73.499999865889578
 31
0.0
  0
POLYLINE
  5
7D88
  8
0
 66
     1
 10
0.0
 20
0.0
 30
0.0
 70
   128
  0
VERTEX
  5
80D1
  8
0
 10
235.0000003352761
 20
71.842781193554373
 30
0.0
  0
VERTEX
  5
80D2
  8
0
 10
234.85067486763
 20
71.881088353693457
 30
0.0
  0
VERTEX
  5
80D3
  8
0
 10
233.47728885710239
 20
71.999999620020361
 30
0.0
  0
SEQEND
  5
80D4
  8
0
  0
POLYLINE
  5
7D89
  8
0
 66
     1
 10
0.0
 20
0.0
 30
0.0
 70
   128
  0
VERTEX
  5
80D5
  8
0
 10
233.47728885710239
 20
88.000000379979596
 30
0.0
  0
VERTEX
  5
80D6
  8
0
 10
234.85067486763
 20
88.118911646306486
 30
0.0
  0
VERTEX
  5
80D7
  8
0
 10
235.0000003352761
 20
88.157218806445584
 30
0.0
  0
SEQEND
  5
80D8
  8
0
  0
LINE
  5
7D8A
  8
0
 10
233.47728885710239
 20
71.999999620020361
 30
0.0
 11
230.38495518267149
 21
71.999999620020361
 31
0.0
  0
LINE
  5
7D8B
  8
0
 10
230.38495518267149
 20
88.000000379979596
 30
0.0
 11
233.47728885710239
 21
88.000000379979596
 31
0.0
  0
LINE
  5
7D8C
  8
0
 10
230.38495518267149
 20
71.999999620020361
 30
0.0
 11
212.99999952316281
 21
71.999999620020361
 31
0.0
  0
ARC
  5
7D8D
  8
0
 10
213.0
 20
79.999999999999972
 30
0.0
 40
8.0000000000000284
 50
90.0
 51
270.0
  0
LINE
  5
7D8E
  8
0
 10
218.08068081736559
 20
75.800000149756642
 30
0.0
 11
221.000000834465
 21
75.800000149756642
 31
0.0
  0
ARC
  5
7D8F
  8
0
 10
221.0
 20
79.999999999999972
 30
0.0
 40
4.2000000000000171
 50
270.0
 51
90.0
  0
LINE
  5
7D90
  8
0
 10
221.000000834465
 20
84.199999850243316
 30
0.0
 11
218.08068081736559
 21
84.199999850243316
 31
0.0
  0
LINE
  5
7D91
  8
0
 10
212.99999952316281
 20
88.000000379979596
 30
0.0
 11
230.38495518267149
 21
88.000000379979596
 31
0.0
  0
ARC
  5
7D95
  8
0
 10
250.0
 20
62.500000000000128
 30
0.0
 40
15.0
 50
180.00000000000159
 51
0.0
  0
ARC
  5
7D96
  8
0
 10
250.0
 20
80.000000000000142
 30
0.0
 40
28.200000000000031
 50
260.00000000000142
 51
279.99999999999858
  0
ARC
  5
7D97
  8
0
 10
254.16755626400629
 20
56.364613927707119
 30
0.0
 40
4.2000000000000153
 50
279.99999999999858
 51
99.999999999998565
  0
ARC
  5
7D98
  8
0
 10
245.83244373599359
 20
56.364613927707119
 30
0.0
 40
4.2000000000000153
 50
80.000000000001464
 51
260.00000000000142
  0
ARC
  5
7D99
  8
0
 10
250.0
 20
80.000000000000142
 30
0.0
 40
19.800000000000011
 50
260.00000000000142
 51
279.99999999999858
  0
LINE
  5
7D9A
  8
0
 10
264.99999966472387
 20
97.500000074505934
 30
0.0
 11
264.99999966472387
 21
62.499999925494322
 31
0.0
  0
LINE
  5
7D9B
  8
0
 10
235.0000003352761
 20
62.499999925494322
 30
0.0
 11
235.0000003352761
 21
97.500000074505934
 31
0.0
  0
ARC
  5
7D9C
  8
0
 10
250.0
 20
97.500000000000114
 30
0.0
 40
15.0
 50
0.0
 51
180.0
  0
ARC
  5
7D9D
  8
0
 10
254.16755626400629
 20
103.6353860722931
 30
0.0
 40
4.2000000000000286
 50
260.00000000000142
 51
80.000000000001464
  0
ARC
  5
7D9E
  8
0
 10
245.83244373599359
 20
103.6353860722931
 30
0.0
 40
4.2000000000000188
 50
99.999999999998565
 51
279.99999999999858
  0
ARC
  5
7D9F
  8
0
 10
250.0
 20
80.000000000000142
 30
0.0
 40
19.800000000000001
 50
80.000000000001464
 51
99.999999999998565
  0
ARC
  5
7DA0
  8
0
 10
250.0
 20
80.000000000000142
 30
0.0
 40
28.199999999999999
 50
80.000000000001464
 51
99.999999999998565
  0
LINE
  5
7DA1
  8
0
 10
90.299999713897591
 20
163.50000202655821
 30
0.0
 11
109.70000028610229
 21
163.50000202655821
 31
0.0
  0
LINE
  5
7DA2
  8
0
 10
240.29999971389771
 20
163.50000202655821
 30
0.0
 11
259.70000028610229
 21
163.50000202655821
 31
0.0
  0
LINE
  5
7DA3
  8
0
 10
390.29999971389771
 20
163.50000202655821
 30
0.0
 11
409.70000028610218
 21
163.50000202655821
 31
0.0
  0
LINE
  5
7DA4
  8
0
 10
90.299999713897591
 20
197.30000048875829
 30
0.0
 11
109.70000028610229
 21
197.30000048875829
 31
0.0
  0
LINE
  5
7DA5
  8
0
 10
90.299999713897591
 20
191.50000102818041
 30
0.0
 11
109.70000028610229
 21
191.50000102818041
 31
0.0
  0
LINE
  5
7DA6
  8
0
 10
90.299999713897591
 20
185.30000038445019
 30
0.0
 11
109.70000028610229
 21
185.30000038445019
 31
0.0
  0
LINE
  5
7DA7
  8
0
 10
90.299999713897591
 20
179.50000092387219
 30
0.0
 11
109.70000028610229
 21
179.50000092387219
 31
0.0
  0
LINE
  5
7DA8
  8
0
 10
90.299999713897591
 20
173.30000028014209
 30
0.0
 11
109.70000028610229
 21
173.30000028014209
 31
0.0
  0
LINE
  5
7DA9
  8
0
 10
240.29999971389771
 20
197.30000048875829
 30
0.0
 11
259.70000028610229
 21
197.30000048875829
 31
0.0
  0
LINE
  5
7DAA
  8
0
 10
240.29999971389771
 20
191.50000102818041
 30
0.0
 11
259.70000028610229
 21
191.50000102818041
 31
0.0
  0
LINE
  5
7DAB
  8
0
 10
240.29999971389771
 20
185.30000038445019
 30
0.0
 11
259.70000028610229
 21
185.30000038445019
 31
0.0
  0
LINE
  5
7DAC
  8
0
 10
240.29999971389771
 20
179.50000092387219
 30
0.0
 11
259.70000028610229
 21
179.50000092387219
 31
0.0
  0
LINE
  5
7DAD
  8
0
 10
240.29999971389771
 20
173.30000028014209
 30
0.0
 11
259.70000028610229
 21
173.30000028014209
 31
0.0
  0
LINE
  5
7DAE
  8
0
 10
390.29999971389771
 20
197.30000048875829
 30
0.0
 11
409.70000028610218
 21
197.30000048875829
 31
0.0
  0
LINE
  5
7DAF
  8
0
 10
390.29999971389771
 20
191.50000102818041
 30
0.0
 11
409.70000028610218
 21
191.50000102818041
 31
0.0
  0
LINE
  5
7DB0
  8
0
 10
390.29999971389771
 20
185.30000038445019
 30
0.0
 11
409.70000028610218
 21
185.30000038445019
 31
0.0
  0
LINE
  5
7DB2
  8
0
 10
390.29999971389771
 20
179.50000092387219
 30
0.0
 11
409.70000028610218
 21
179.50000092387219
 31
0.0
  0
LINE
  5
7DBE
  8
1
 10
397.50013284988449
 20
189.5001347276615
 30
0.0
 11
402.49986715011551
 21
189.5001347276615
 31
0.0
  0
LINE
  5
7DBF
  8
1
 10
397.50013284988449
 20
175.50013754824801
 30
0.0
 11
402.49986715011551
 21
175.50013754824801
 31
0.0
  0
CIRCLE
  5
7DF5
  8
0
 10
250.0
 20
80.000000000000327
 30
0.0
 40
9.6999999999999904
  0
CIRCLE
  5
7DF6
  8
0
 10
250.0
 20
80.000000000000327
 30
0.0
 40
2.100000000000056
  0
CIRCLE
  5
7DF7
  8
0
 10
250.0
 20
80.000000000000327
 30
0.0
 40
9.9999999999999662
  0
CIRCLE
  5
7DF8
  8
0
 10
250.0
 20
80.000000000000227
 30
0.0
 40
12.845299461620749
  0
CIRCLE
  5
7DF9
  8
0
 10
250.0
 20
80.000000000000227
 30
0.0
 40
14.00000000000003
  0
CIRCLE
  5
7DFA
  8
0
 10
250.0
 20
80.000000000000227
 30
0.0
 40
11.0
  0
LINE
  5
7E2A
  8
0
 10
256.50000013411039
 20
289.50000405311607
 30
0.0
 11
258.00000037997961
 21
288.63397836685198
 31
0.0
  0
LINE
  5
7E2B
  8
0
 10
404.66368952766049
 20
298.49999994039592
 30
0.0
 11
402.59807612746931
 21
299.50000196695368
 31
0.0
  0
CIRCLE
  5
7EA2
  8
3
 10
250.0
 20
80.000000000000227
 30
0.0
 40
2.5
  0
LINE
  5
7F1C
  8
0
 10
246.75
 20
367.00000196695328
 30
0.0
 11
246.75
 21
366.50000196695328
 31
0.0
  0
LINE
  5
7F1D
  8
0
 10
253.25
 20
366.50000196695328
 30
0.0
 11
253.25
 21
367.00000196695328
 31
0.0
  0
LINE
  5
7F1E
  8
0
 10
246.25
 20
367.20000196695321
 30
0.0
 11
246.44999999999999
 21
367.00000196695328
 31
0.0
  0
LINE
  5
7F1F
  8
0
 10
253.55000000000001
 20
367.00000196695328
 30
0.0
 11
253.75
 21
367.20000196695321
 31
0.0
  0
LINE
  5
7F20
  8
0
 10
246.25
 20
367.4763144187533
 30
0.0
 11
246.25
 21
367.20000196695321
 31
0.0
  0
LINE
  5
7F21
  8
0
 10
253.75
 20
367.20000196695321
 30
0.0
 11
253.75
 21
367.4763144187533
 31
0.0
  0
LINE
  5
7F22
  8
0
 10
246.25
 20
396.80000196695329
 30
0.0
 11
246.25
 21
396.5236895152533
 31
0.0
  0
LINE
  5
7F23
  8
0
 10
253.75
 20
396.5236895152533
 30
0.0
 11
253.75
 21
396.80000196695329
 31
0.0
  0
LINE
  5
7F24
  8
0
 10
253.75
 20
396.80000196695329
 30
0.0
 11
253.55000000000001
 21
397.00000196695328
 31
0.0
  0
LINE
  5
7F25
  8
0
 10
246.44999999999999
 20
397.00000196695328
 30
0.0
 11
246.25
 21
396.80000196695329
 31
0.0
  0
LINE
  5
7F26
  8
0
 10
253.25
 20
366.50000196695328
 30
0.0
 11
246.75
 21
366.50000196695328
 31
0.0
  0
LINE
  5
7F27
  8
0
 10
247.25
 20
364.00000196695328
 30
0.0
 11
247.25
 21
366.50000196695328
 31
0.0
  0
LINE
  5
7F28
  8
0
 10
250.0
 20
364.00000196695328
 30
0.0
 11
250.0
 21
366.50000196695328
 31
0.0
  0
LINE
  5
7F29
  8
0
 10
252.75
 20
364.00000196695328
 30
0.0
 11
252.75
 21
366.50000196695328
 31
0.0
  0
LINE
  5
7F2A
  8
0
 10
252.75
 20
364.00000196695328
 30
0.0
 11
247.25
 21
364.00000196695328
 31
0.0
  0
LINE
  5
7F2B
  8
0
 10
253.55000000000001
 20
367.00000196695328
 30
0.0
 11
246.44999999999999
 21
367.00000196695339
 31
0.0
  0
LINE
  5
7F2C
  8
0
 10
246.44999999999999
 20
397.00000196695328
 30
0.0
 11
253.55000000000001
 21
397.00000196695328
 31
0.0
  0
LINE
  5
7F47
  8
0
 10
114.99999966475001
 20
262.50000149005348
 30
0.0
 11
115.49999974664991
 21
262.50000149005348
 31
0.0
  0
LINE
  5
7F48
  8
0
 10
115.49999974664991
 20
268.9999997615534
 30
0.0
 11
114.99999966475001
 21
268.9999997615534
 31
0.0
  0
LINE
  5
7F49
  8
0
 10
114.9395031863225
 20
262.1395055481928
 30
0.0
 11
114.99999966475001
 21
262.20000013705351
 31
0.0
  0
LINE
  5
7F4A
  8
0
 10
114.99999966475001
 20
269.30000111455348
 30
0.0
 11
114.9391799869635
 21
269.36081983623171
 31
0.0
  0
LINE
  5
7F4B
  8
0
 10
85.060819824484469
 20
269.36082060378777
 30
0.0
 11
85.000000335249965
 21
269.30000111455348
 31
0.0
  0
LINE
  5
7F4C
  8
0
 10
85.000000335249965
 20
262.20000013705351
 30
0.0
 11
85.060496443070093
 21
262.13950402923342
 31
0.0
  0
LINE
  5
7F4D
  8
0
 10
115.49999974664991
 20
268.9999997615534
 30
0.0
 11
115.49999974664991
 21
262.50000149005348
 31
0.0
  0
LINE
  5
7F4E
  8
0
 10
117.99999922515001
 20
268.9254269003535
 30
0.0
 11
117.99999922515001
 21
266.05000197885352
 31
0.0
  0
LINE
  5
7F4F
  8
0
 10
117.99999922515001
 20
267.3377156257535
 30
0.0
 11
115.49999974664991
 21
267.3377156257535
 31
0.0
  0
LINE
  5
7F50
  8
0
 10
117.99999922515001
 20
268.9254269003535
 30
0.0
 11
115.49999974664991
 21
268.9254269003535
 31
0.0
  0
LINE
  5
7F51
  8
0
 10
117.40000024435
 20
265.44999927275342
 30
0.0
 11
117.99999922515001
 21
265.44999927275342
 31
0.0
  0
LINE
  5
7F52
  8
0
 10
117.99999922515001
 20
264.1622893511535
 30
0.0
 11
115.49999974664991
 21
264.1622893511535
 31
0.0
  0
LINE
  5
7F53
  8
0
 10
117.40000024435
 20
266.05000197885352
 30
0.0
 11
117.99999922515001
 21
266.05000197885352
 31
0.0
  0
LINE
  5
7F54
  8
0
 10
117.40000024435
 20
266.05000197885352
 30
0.0
 11
117.40000024435
 21
265.44999927275342
 31
0.0
  0
LINE
  5
7F55
  8
0
 10
117.99999922515001
 20
265.44999927275342
 30
0.0
 11
117.99999922515001
 21
262.57457435125349
 31
0.0
  0
LINE
  5
7F56
  8
0
 10
117.99999922515001
 20
262.57457435125349
 30
0.0
 11
115.49999974664991
 21
262.57457435125349
 31
0.0
  0
LINE
  5
7F57
  8
0
 10
114.99999966475001
 20
269.29999738925341
 30
0.0
 11
114.99999966475001
 21
262.20000013705351
 31
0.0
  0
LINE
  5
7F58
  8
0
 10
85.000000335249965
 20
262.20000013705351
 30
0.0
 11
85.000000335249965
 21
269.30000111455348
 31
0.0
  0
ARC
  5
7F59
  8
0
 10
70.262261683425777
 20
265.75000177025879
 30
0.0
 40
15.232315842953581
 50
345.35956932895942
 51
14.640430671027181
  0
ARC
  5
7F5A
  8
0
 10
129.7377383148449
 20
265.75000177039141
 30
0.0
 40
15.232315841313991
 50
165.3595693280335
 51
194.64043067316811
  0
LINE
  5
7F70
  8
0
 10
249.99999978393311
 20
268.9254284474535
 30
0.0
 11
247.24999978393319
 21
267.3377152072535
 31
0.0
  0
LINE
  5
7F72
  8
0
 10
252.74999978393319
 20
266.05000196695357
 30
0.0
 11
247.24999978393319
 21
266.05000196695357
 31
0.0
  0
LINE
  5
7F73
  8
0
 10
252.74999978393319
 20
267.3377152072535
 30
0.0
 11
249.99999978393311
 21
268.9254284474535
 31
0.0
  0
LINE
  5
7F74
  8
0
 10
247.24999978393319
 20
264.16228872665351
 30
0.0
 11
249.99999978393311
 21
262.57457548645351
 31
0.0
  0
LINE
  5
7F75
  8
0
 10
247.24999978393319
 20
267.3377152072535
 30
0.0
 11
247.24999978393319
 21
264.16228872665351
 31
0.0
  0
LINE
  5
7F76
  8
0
 10
247.24999978393319
 20
265.45000196695349
 30
0.0
 11
252.74999978393319
 21
265.45000196695349
 31
0.0
  0
LINE
  5
7F77
  8
0
 10
252.74999978393319
 20
264.16228872665351
 30
0.0
 11
252.74999978393319
 21
267.33771520725338
 31
0.0
  0
LINE
  5
7F78
  8
0
 10
249.99999978393311
 20
262.57457548645351
 30
0.0
 11
252.74999978393319
 21
264.16228872665351
 31
0.0
  0
CIRCLE
  5
7F7B
  8
0
 10
249.99999978393311
 20
265.7500019669535
 30
0.0
 40
3.25
  0
CIRCLE
  5
7F7C
  8
0
 10
249.99999978393311
 20
265.7500019669535
 30
0.0
 40
3.75
  0
LINE
  5
7F97
  8
0
 10
385.00000033525021
 20
262.50000149005348
 30
0.0
 11
384.50000025335021
 21
262.50000149005348
 31
0.0
  0
LINE
  5
7F98
  8
0
 10
384.50000025335021
 20
268.9999997615534
 30
0.0
 11
385.00000033525021
 21
268.9999997615534
 31
0.0
  0
LINE
  5
7F99
  8
0
 10
385.06049681367762
 20
262.1395055481928
 30
0.0
 11
385.00000033525021
 21
262.20000013705351
 31
0.0
  0
LINE
  5
7F9A
  8
0
 10
385.00000033525021
 20
269.30000111455348
 30
0.0
 11
385.06082001303662
 21
269.36081983623171
 31
0.0
  0
LINE
  5
7F9B
  8
0
 10
384.50000025335021
 20
268.9999997615534
 30
0.0
 11
384.50000025335021
 21
262.50000149005348
 31
0.0
  0
LINE
  5
7F9C
  8
0
 10
382.00000077485021
 20
268.9254269003535
 30
0.0
 11
382.00000077485021
 21
266.05000197885352
 31
0.0
  0
LINE
  5
7F9D
  8
0
 10
382.00000077485021
 20
267.3377156257535
 30
0.0
 11
384.50000025335021
 21
267.3377156257535
 31
0.0
  0
LINE
  5
7F9E
  8
0
 10
382.00000077485021
 20
268.9254269003535
 30
0.0
 11
384.50000025335021
 21
268.9254269003535
 31
0.0
  0
LINE
  5
7F9F
  8
0
 10
382.59999975565017
 20
265.44999927275342
 30
0.0
 11
382.00000077485021
 21
265.44999927275342
 31
0.0
  0
LINE
  5
7FA0
  8
0
 10
382.00000077485021
 20
264.1622893511535
 30
0.0
 11
384.50000025335021
 21
264.1622893511535
 31
0.0
  0
LINE
  5
7FA1
  8
0
 10
382.59999975565017
 20
266.05000197885352
 30
0.0
 11
382.00000077485021
 21
266.05000197885352
 31
0.0
  0
LINE
  5
7FA2
  8
0
 10
382.59999975565017
 20
266.05000197885352
 30
0.0
 11
382.59999975565017
 21
265.44999927275342
 31
0.0
  0
LINE
  5
7FA3
  8
0
 10
382.00000077485021
 20
265.44999927275342
 30
0.0
 11
382.00000077485021
 21
262.57457435125349
 31
0.0
  0
LINE
  5
7FA4
  8
0
 10
382.00000077485021
 20
262.57457435125349
 30
0.0
 11
384.50000025335021
 21
262.57457435125349
 31
0.0
  0
LINE
  5
7FA5
  8
0
 10
385.00000033525021
 20
269.29999738925341
 30
0.0
 11
385.00000033525021
 21
262.20000013705351
 31
0.0
  0
ARC
  5
7FA6
  8
0
 10
370.26226168515518
 20
265.75000177039141
 30
0.0
 40
15.232315841313991
 50
345.3595693268316
 51
14.64043067196603
  0
LINE
  5
7FA7
  8
0
 10
414.93918017551562
 20
269.36082060378777
 30
0.0
 11
414.99999966475008
 21
269.30000111455348
 31
0.0
  0
LINE
  5
7FA8
  8
0
 10
414.99999966475008
 20
262.20000013705351
 30
0.0
 11
414.93950355692999
 21
262.13950402923342
 31
0.0
  0
LINE
  5
7FA9
  8
0
 10
414.99999966475008
 20
262.20000013705351
 30
0.0
 11
414.99999966475008
 21
269.30000111455348
 31
0.0
  0
ARC
  5
7FAA
  8
0
 10
429.73773831657428
 20
265.75000177025879
 30
0.0
 40
15.232315842953581
 50
165.35956932897241
 51
194.640430671041
  0
ENDSEC
  0
EOF
