  0
SECTION
  2
HEADER
  9
$ACADVER
  1
AC1009
  9
$INSBASE
 10
0.0
 20
0.0
 30
0.0
  9
$EXTMIN
 10
-0.0204638472032742
 20
-2.960436562073669
 30
0.0
  9
$EXTMAX
 10
432.50000000000011
 20
391.7880014330151
 30
0.0
  9
$LIMMIN
 10
0.0
 20
0.0
  9
$LIMMAX
 10
594.0
 20
420.0
  9
$ORTHOMODE
 70
     1
  9
$REGENMODE
 70
     1
  9
$FILLMODE
 70
     1
  9
$QTEXTMODE
 70
     0
  9
$MIRRTEXT
 70
     1
  9
$DRAGMODE
 70
     2
  9
$LTSCALE
 40
1.0
  9
$OSMODE
 70
    37
  9
$ATTMODE
 70
     1
  9
$TEXTSIZE
 40
2.5
  9
$TRACEWID
 40
1.0
  9
$TEXTSTYLE
  7
STANDARD
  9
$CLAYER
  8
0
  9
$CELTYPE
  6
BYLAYER
  9
$CECOLOR
 62
   256
  9
$DIMSCALE
 40
1.0
  9
$DIMASZ
 40
3.0
  9
$DIMEXO
 40
1.0
  9
$DIMDLI
 40
3.75
  9
$DIMRND
 40
0.0
  9
$DIMDLE
 40
0.0
  9
$DIMEXE
 40
1.0
  9
$DIMTP
 40
0.0
  9
$DIMTM
 40
0.0
  9
$DIMTXT
 40
4.2333333333333316
  9
$DIMCEN
 40
2.5
  9
$DIMTSZ
 40
0.0
  9
$DIMTOL
 70
     0
  9
$DIMLIM
 70
     0
  9
$DIMTIH
 70
     1
  9
$DIMTOH
 70
     1
  9
$DIMSE1
 70
     0
  9
$DIMSE2
 70
     0
  9
$DIMTAD
 70
     1
  9
$DIMZIN
 70
     0
  9
$DIMBLK
  1

  9
$DIMASO
 70
     1
  9
$DIMSHO
 70
     1
  9
$DIMPOST
  1

  9
$DIMAPOST
  1

  9
$DIMALT
 70
     0
  9
$DIMALTD
 70
     3
  9
$DIMALTF
 40
0.0393700787401575
  9
$DIMLFAC
 40
1.0
  9
$DIMTOFL
 70
     1
  9
$DIMTVP
 40
0.0
  9
$DIMTIX
 70
     0
  9
$DIMSOXD
 70
     0
  9
$DIMSAH
 70
     0
  9
$DIMBLK1
  1

  9
$DIMBLK2
  1

  9
$DIMSTYLE
  2
ISO-25
  9
$DIMCLRD
 70
     0
  9
$DIMCLRE
 70
     0
  9
$DIMCLRT
 70
     0
  9
$DIMTFAC
 40
1.0
  9
$DIMGAP
 40
1.524
  9
$LUNITS
 70
     2
  9
$LUPREC
 70
     1
  9
$SKETCHINC
 40
1.0
  9
$FILLETRAD
 40
10.0
  9
$AUNITS
 70
     0
  9
$AUPREC
 70
     0
  9
$MENU
  1
.
  9
$ELEVATION
 40
0.0
  9
$PELEVATION
 40
0.0
  9
$THICKNESS
 40
0.0
  9
$LIMCHECK
 70
     0
  9
$BLIPMODE
 70
     0
  9
$CHAMFERA
 40
10.0
  9
$CHAMFERB
 40
10.0
  9
$SKPOLY
 70
     0
  9
$TDCREATE
 40
2454991.6013850812
  9
$TDUPDATE
 40
2457939.3746939702
  9
$TDINDWG
 40
0.4114906713
  9
$TDUSRTIMER
 40
0.4114906713
  9
$USRTIMER
 70
     1
  9
$ANGBASE
 50
0.0
  9
$ANGDIR
 70
     0
  9
$PDMODE
 70
     0
  9
$PDSIZE
 40
-1.0
  9
$PLINEWID
 40
0.0
  9
$COORDS
 70
     1
  9
$SPLFRAME
 70
     0
  9
$SPLINETYPE
 70
     6
  9
$SPLINESEGS
 70
     8
  9
$ATTDIA
 70
     0
  9
$ATTREQ
 70
     1
  9
$HANDLING
 70
     1
  9
$HANDSEED
  5
77F2
  9
$SURFTAB1
 70
     6
  9
$SURFTAB2
 70
     6
  9
$SURFTYPE
 70
     6
  9
$SURFU
 70
     6
  9
$SURFV
 70
     6
  9
$UCSNAME
  2

  9
$UCSORG
 10
0.0
 20
0.0
 30
0.0
  9
$UCSXDIR
 10
1.0
 20
0.0
 30
0.0
  9
$UCSYDIR
 10
0.0
 20
1.0
 30
0.0
  9
$PUCSNAME
  2

  9
$PUCSORG
 10
0.0
 20
0.0
 30
0.0
  9
$PUCSXDIR
 10
1.0
 20
0.0
 30
0.0
  9
$PUCSYDIR
 10
0.0
 20
1.0
 30
0.0
  9
$USERI1
 70
     0
  9
$USERI2
 70
     0
  9
$USERI3
 70
     0
  9
$USERI4
 70
     0
  9
$USERI5
 70
     0
  9
$USERR1
 40
0.0
  9
$USERR2
 40
0.0
  9
$USERR3
 40
0.0
  9
$USERR4
 40
0.0
  9
$USERR5
 40
0.0
  9
$WORLDVIEW
 70
     1
  9
$SHADEDGE
 70
     3
  9
$SHADEDIF
 70
    70
  9
$TILEMODE
 70
     1
  9
$MAXACTVP
 70
    64
  9
$PLIMCHECK
 70
     0
  9
$PEXTMIN
 10
1.0000000000000000E+020
 20
1.0000000000000000E+020
 30
1.0000000000000000E+020
  9
$PEXTMAX
 10
-1.0000000000000000E+020
 20
-1.0000000000000000E+020
 30
-1.0000000000000000E+020
  9
$PLIMMIN
 10
0.0
 20
0.0
  9
$PLIMMAX
 10
420.0
 20
297.0
  9
$UNITMODE
 70
     0
  9
$VISRETAIN
 70
     1
  9
$PLINEGEN
 70
     0
  9
$PSLTSCALE
 70
     1
  0
ENDSEC
  0
SECTION
  2
TABLES
  0
TABLE
  2
VPORT
 70
     1
  0
VPORT
  2
*ACTIVE
 70
     0
 10
0.0
 20
0.0
 11
1.0
 21
1.0
 12
469.05281425343748
 22
194.4204577235316
 13
0.0
 23
0.0
 14
10.0
 24
10.0
 15
10.0
 25
10.0
 16
0.0
 26
0.0
 36
1.0
 17
0.0
 27
0.0
 37
0.0
 40
398.23762468175448
 41
2.6019575856443709
 42
50.0
 43
0.0
 44
0.0
 50
0.0
 51
0.0
 71
     0
 72
  2000
 73
     1
 74
     3
 75
     0
 76
     0
 77
     0
 78
     0
  0
ENDTAB
  0
TABLE
  2
LTYPE
 70
     3
  0
LTYPE
  2
CONTINUOUS
 70
     0
  3
Solid line
 72
    65
 73
     0
 40
0.0
  0
LTYPE
  2
CENTER
 70
     0
  3
Center ____ _ ____ _ ____ _ ____ _ ____ _ ____
 72
    65
 73
     4
 40
10.16
 49
6.3499999999999988
 49
-1.27
 49
1.27
 49
-1.27
  0
LTYPE
  2
HIDDEN
 70
     0
  3
Hidden __ __ __ __ __ __ __ __ __ __ __ __ __ __
 72
    65
 73
     2
 40
1.905
 49
1.27
 49
-0.635
  0
ENDTAB
  0
TABLE
  2
LAYER
 70
     5
  0
LAYER
  2
0
 70
     0
 62
     7
  6
CONTINUOUS
  0
LAYER
  2
DEFPOINTS
 70
     0
 62
     7
  6
CONTINUOUS
  0
LAYER
  2
1
 70
     0
 62
     1
  6
CENTER
  0
LAYER
  2
3
 70
     0
 62
     3
  6
CONTINUOUS
  0
LAYER
  2
2
 70
     0
 62
     2
  6
HIDDEN
  0
ENDTAB
  0
TABLE
  2
STYLE
 70
     2
  0
STYLE
  2
STANDARD
 70
     0
 40
0.0
 41
1.0
 50
0.0
 71
     0
 42
2.5
  3
txt
  4
bigfont
  0
STYLE
  2
STANDARD1
 70
     0
 40
0.0
 41
1.0
 50
0.0
 71
     0
 42
3.0
  3
txt
  4

  0
ENDTAB
  0
TABLE
  2
VIEW
 70
     0
  0
ENDTAB
  0
TABLE
  2
UCS
 70
     0
  0
ENDTAB
  0
TABLE
  2
APPID
 70
     4
  0
APPID
  2
ACAD
 70
     0
  0
APPID
  2
ACAD_MLEADERVER
 70
     0
  0
APPID
  2
ACAD_NAV_VCDISPLAY
 70
     0
  0
APPID
  2
ACAD_EXEMPT_FROM_CAD_STANDARDS
 70
     0
  0
ENDTAB
  0
TABLE
  2
DIMSTYLE
 70
     2
  0
DIMSTYLE
  2
ISO-25
 70
     0
  3

  4

  5

  6

  7

 40
1.0
 41
2.5
 42
0.625
 43
3.75
 44
1.25
 45
0.0
 46
0.0
 47
0.0
 48
0.0
140
2.5
141
2.5
142
0.0
143
0.03937007874016
144
1.0
145
0.0
146
1.0
147
0.625
 71
     0
 72
     0
 73
     0
 74
     0
 75
     0
 76
     0
 77
     1
 78
     8
170
     0
171
     3
172
     1
173
     0
174
     0
175
     0
176
     0
177
     0
178
     0
  0
DIMSTYLE
  2
STANDARD
 70
     0
  3

  4

  5

  6

  7

 40
1.0
 41
0.18
 42
0.0625
 43
0.38
 44
0.18
 45
0.0
 46
0.0
 47
0.0
 48
0.0
140
0.18
141
0.09
142
0.0
143
25.399999999999999
144
1.0
145
0.0
146
1.0
147
0.09
 71
     0
 72
     0
 73
     1
 74
     1
 75
     0
 76
     0
 77
     0
 78
     0
170
     0
171
     2
172
     0
173
     0
174
     0
175
     0
176
     0
177
     0
178
     0
  0
ENDTAB
  0
ENDSEC
  0
SECTION
  2
BLOCKS
  0
BLOCK
  8
0
  2
$MODEL_SPACE
 70
     0
 10
0.0
 20
0.0
 30
0.0
  3
$MODEL_SPACE
  1

  0
ENDBLK
  5
21
  8
0
  0
BLOCK
 67
     1
  8
0
  2
$PAPER_SPACE
 70
     0
 10
0.0
 20
0.0
 30
0.0
  3
$PAPER_SPACE
  1

  0
ENDBLK
  5
1D
 67
     1
  8
0
  0
ENDSEC
  0
SECTION
  2
ENTITIES
  0
TEXT
  5
6529
  8
0
 62
     3
 10
0.0
 20
0.0
 30
0.0
 40
10.0
  1
AMWSW16L-W-D
  7
STANDARD1
  0
LINE
  5
6816
  8
0
 10
217.00000017881391
 20
259.78799946606182
 30
0.0
 11
215.99999815225601
 21
260.36535240709799
 31
0.0
  0
LINE
  5
6817
  8
0
 10
210.0000008940697
 20
260.36535240709799
 30
0.0
 11
208.99999886751169
 21
259.78799946606182
 31
0.0
  0
LINE
  5
6818
  8
0
 10
217.00000017881391
 20
224.78799931705021
 30
0.0
 11
217.00000017881391
 21
231.7880023270848
 31
0.0
  0
LINE
  5
6819
  8
0
 10
208.99999886751169
 20
231.7880023270848
 30
0.0
 11
208.99999886751169
 21
224.78799931705021
 31
0.0
  0
ARC
  5
681A
  8
0
 10
213.0
 20
259.78800053894543
 30
0.0
 40
5.0
 50
53.130102354154623
 51
126.8698976458453
  0
LINE
  5
681B
  8
0
 10
215.99999815225601
 20
260.36535240709799
 30
0.0
 11
215.99999815225601
 21
263.78800012171291
 31
0.0
  0
LINE
  5
681C
  8
0
 10
210.0000008940697
 20
263.78800012171291
 30
0.0
 11
210.0000008940697
 21
260.36535240709799
 31
0.0
  0
LINE
  5
681D
  8
0
 10
264.99999966472387
 20
203.2880004495384
 30
0.0
 11
264.99999966472387
 21
259.78799946606182
 31
0.0
  0
LINE
  5
681E
  8
0
 10
235.0000003352761
 20
230.78800030052679
 30
0.0
 11
235.0000003352761
 21
203.2880004495384
 31
0.0
  0
LINE
  5
681F
  8
0
 10
235.0000003352761
 20
259.78799946606182
 30
0.0
 11
235.0000003352761
 21
255.28799779713179
 31
0.0
  0
LINE
  5
6820
  8
0
 10
264.99999966472387
 20
259.78799946606182
 30
0.0
 11
264.00000043213367
 21
260.78800149261968
 31
0.0
  0
LINE
  5
6821
  8
0
 10
235.9999995678663
 20
260.78800149261968
 30
0.0
 11
235.0000003352761
 21
259.78799946606182
 31
0.0
  0
ARC
  5
6822
  8
0
 10
264.5
 20
203.2880005389454
 30
0.0
 40
0.5
 50
270.0
 51
0.0
  0
ARC
  5
6823
  8
0
 10
235.5
 20
203.2880005389454
 30
0.0
 40
0.5
 50
180.0
 51
270.0
  0
ARC
  5
6824
  8
0
 10
228.99999872810611
 20
230.78800001210971
 30
0.0
 40
6.0000012718939164
 50
0.0000050309089809
 51
89.999987854309069
  0
ARC
  5
6825
  8
0
 10
234.5
 20
255.28800053894551
 30
0.0
 40
0.500000000000057
 50
270.0
 51
0.0
  0
LINE
  5
6826
  8
0
 10
204.99999821186071
 20
254.28800322115441
 30
0.0
 11
204.99999821186071
 21
237.28800229728239
 31
0.0
  0
ARC
  5
6827
  8
0
 10
205.50000630864929
 20
254.28799792581731
 30
0.0
 40
0.5000063086558352
 50
90.000722908825196
 51
179.99970056135979
  0
ARC
  5
6828
  8
0
 10
205.50000000000011
 20
237.2880005389454
 30
0.0
 40
0.5
 50
180.0
 51
270.0
  0
LINE
  5
6829
  8
0
 10
264.99500032514328
 20
199.5880002155902
 30
0.0
 11
264.79499973356718
 21
199.7880008071663
 31
0.0
  0
LINE
  5
682A
  8
0
 10
235.20500026643279
 20
199.7880008071663
 30
0.0
 11
235.00499967485669
 21
199.5880002155902
 31
0.0
  0
LINE
  5
682B
  8
0
 10
264.99500032514328
 20
198.7880006432535
 30
0.0
 11
264.99500032514328
 21
199.5880002155902
 31
0.0
  0
LINE
  5
682C
  8
0
 10
235.00499967485669
 20
199.5880002155902
 30
0.0
 11
235.00499967485669
 21
198.7880006432535
 31
0.0
  0
LINE
  5
682D
  8
0
 10
235.9999995678663
 20
179.7880003228785
 30
0.0
 11
237.1547007933259
 21
177.78800092637559
 31
0.0
  0
LINE
  5
682E
  8
0
 10
262.8452992066741
 20
177.78800092637559
 30
0.0
 11
264.00000043213367
 21
179.7880003228785
 31
0.0
  0
LINE
  5
682F
  8
0
 10
264.00000043213367
 20
179.7880003228785
 30
0.0
 11
264.00000043213367
 21
186.7880005389454
 31
0.0
  0
LINE
  5
6830
  8
0
 10
235.9999995678663
 20
186.7880005389454
 30
0.0
 11
235.9999995678663
 21
179.7880003228785
 31
0.0
  0
ARC
  5
6831
  8
0
 10
237.5
 20
201.2880005389454
 30
0.0
 40
1.5
 50
270.0
 51
0.0
  0
ARC
  5
6832
  8
0
 10
262.5
 20
201.2880005389454
 30
0.0
 40
1.5
 50
180.0
 51
270.0
  0
LINE
  5
6833
  8
0
 10
260.9999999403953
 20
201.28800012171291
 30
0.0
 11
260.9999999403953
 21
202.78800129890459
 31
0.0
  0
LINE
  5
6834
  8
0
 10
239.00000005960459
 20
202.78800129890459
 30
0.0
 11
239.00000005960459
 21
201.28800012171291
 31
0.0
  0
LINE
  5
6835
  8
0
 10
258.00000037997961
 20
260.78800149261968
 30
0.0
 11
258.00000037997961
 21
260.92197783291363
 31
0.0
  0
LINE
  5
6836
  8
0
 10
241.99999962002039
 20
270.78799940645717
 30
0.0
 11
241.99999962002039
 21
260.78800149261968
 31
0.0
  0
LINE
  5
6837
  8
0
 10
242.99999978393319
 20
271.7880014330151
 30
0.0
 11
241.99999962002039
 21
270.78799940645717
 31
0.0
  0
ARC
  5
6838
  8
0
 10
264.49994408641533
 20
198.7174676547273
 30
0.0
 40
0.5000555788850072
 50
359.99724899378418
 51
8.1086270263215638
  0
ARC
  5
6839
  8
0
 10
235.50000575072301
 20
198.71746869692379
 30
0.0
 40
0.5000054160743001
 50
171.8906746355911
 51
180.0028707078408
  0
LINE
  5
683A
  8
0
 10
216.75277501344681
 20
219.2879993468525
 30
0.0
 11
216.75277501344681
 21
224.78799931705021
 31
0.0
  0
LINE
  5
683B
  8
0
 10
209.2472240328789
 20
219.2879993468525
 30
0.0
 11
209.2472240328789
 21
224.78799931705021
 31
0.0
  0
LINE
  5
683E
  8
0
 10
220.5055542290211
 20
219.2879993468525
 30
0.0
 11
220.5055542290211
 21
224.78799931705021
 31
0.0
  0
LINE
  5
6841
  8
0
 10
205.49444481730461
 20
219.2879993468525
 30
0.0
 11
205.49444481730461
 21
224.78799931705021
 31
0.0
  0
LINE
  5
6842
  8
0
 10
220.5055542290211
 20
224.78799931705021
 30
0.0
 11
205.49444481730461
 21
224.78799931705021
 31
0.0
  0
LINE
  5
6843
  8
0
 10
220.5055542290211
 20
219.2879993468525
 30
0.0
 11
205.49444481730461
 21
219.2879993468525
 31
0.0
  0
LINE
  5
6845
  8
0
 10
215.99999815225601
 20
260.36535240709799
 30
0.0
 11
210.00000089406981
 21
260.36535240709799
 31
0.0
  0
LINE
  5
6847
  8
0
 10
215.99999815225601
 20
263.78800012171291
 30
0.0
 11
209.99999944369009
 21
263.78800012171291
 31
0.0
  0
LINE
  5
6848
  8
0
 10
209.2472240328789
 20
236.78800128400351
 30
0.0
 11
209.2472240328789
 21
231.7880023270848
 31
0.0
  0
LINE
  5
6849
  8
0
 10
216.75277501344681
 20
236.78800128400351
 30
0.0
 11
216.75277501344681
 21
231.7880023270848
 31
0.0
  0
LINE
  5
684B
  8
0
 10
209.2472240328789
 20
236.78800128400351
 30
0.0
 11
209.25834402441981
 21
236.78800128400351
 31
0.0
  0
LINE
  5
684C
  8
0
 10
220.5055542290211
 20
236.78800128400351
 30
0.0
 11
220.5055542290211
 21
231.7880023270848
 31
0.0
  0
LINE
  5
684D
  8
0
 10
220.5055542290211
 20
231.7880023270848
 30
0.0
 11
205.49444481730461
 21
231.78800232708471
 31
0.0
  0
LINE
  5
684E
  8
0
 10
205.49444481730461
 20
236.78800128400351
 30
0.0
 11
205.49444481730461
 21
231.7880023270848
 31
0.0
  0
LINE
  5
6850
  8
0
 10
209.2472240328789
 20
236.78800128400351
 30
0.0
 11
209.2416621744633
 21
236.78800128400351
 31
0.0
  0
LINE
  5
6851
  8
0
 10
205.49999922513959
 20
236.78800128400351
 30
0.0
 11
205.49444481730461
 21
236.78800128400351
 31
0.0
  0
LINE
  5
6852
  8
0
 10
209.25834402441981
 20
254.7880042344334
 30
0.0
 11
209.2472240328789
 21
254.7880042344334
 31
0.0
  0
LINE
  5
6853
  8
0
 10
209.2472240328789
 20
259.78799946606182
 30
0.0
 11
209.2472240328789
 21
254.7880042344334
 31
0.0
  0
LINE
  5
6855
  8
0
 10
216.75277501344681
 20
259.78799946606182
 30
0.0
 11
216.75277501344681
 21
254.7880042344334
 31
0.0
  0
LINE
  5
6856
  8
0
 10
220.5055542290211
 20
259.78799946606182
 30
0.0
 11
220.5055542290211
 21
254.7880042344334
 31
0.0
  0
LINE
  5
6857
  8
0
 10
205.4944448173047
 20
259.78799946606182
 30
0.0
 11
220.5055542290211
 21
259.78799946606182
 31
0.0
  0
LINE
  5
6858
  8
0
 10
205.49444481730461
 20
259.78799946606182
 30
0.0
 11
205.49444481730461
 21
254.7880042344334
 31
0.0
  0
LINE
  5
6859
  8
0
 10
205.49444481730461
 20
254.7880042344334
 30
0.0
 11
205.49999922513959
 21
254.7880042344334
 31
0.0
  0
LINE
  5
685A
  8
0
 10
209.2416621744633
 20
254.7880042344334
 30
0.0
 11
209.2472240328789
 21
254.7880042344334
 31
0.0
  0
CIRCLE
  5
685C
  8
0
 10
250.0
 20
238.0380005389454
 30
0.0
 40
3.75
  0
LINE
  5
6861
  8
0
 10
264.99999966472387
 20
259.78799946606182
 30
0.0
 11
235.00000033527601
 21
259.78799946606182
 31
0.0
  0
LINE
  5
6863
  8
0
 10
235.9999995678663
 20
260.78800149261968
 30
0.0
 11
264.00000043213367
 21
260.78800149261968
 31
0.0
  0
LINE
  5
6865
  8
0
 10
264.49999958276749
 20
202.78800129890459
 30
0.0
 11
235.50000041723251
 21
202.78800129890459
 31
0.0
  0
LINE
  5
686B
  8
0
 10
205.49444481730461
 20
254.7880042344334
 30
0.0
 11
234.50192236165489
 21
254.7880042344334
 31
0.0
  0
LINE
  5
686D
  8
0
 10
229.00000013608869
 20
236.78800128400351
 30
0.0
 11
205.4944448173045
 21
236.78800128400351
 31
0.0
  0
LINE
  5
6870
  8
0
 10
235.0000003352761
 20
198.28800056129711
 30
0.0
 11
235.0000003352761
 21
187.28800056269409
 31
0.0
  0
LINE
  5
6872
  8
0
 10
264.99999966472387
 20
198.28800056129711
 30
0.0
 11
264.99999966472387
 21
187.28800056269409
 31
0.0
  0
LINE
  5
6873
  8
0
 10
264.99999966472387
 20
187.28800056269409
 30
0.0
 11
264.49999958276749
 21
186.7880005389454
 31
0.0
  0
LINE
  5
6874
  8
0
 10
264.49999958276749
 20
186.7880005389454
 30
0.0
 11
235.50000041723251
 21
186.7880005389454
 31
0.0
  0
LINE
  5
6875
  8
0
 10
235.0000003352761
 20
187.28800056269409
 30
0.0
 11
235.50000041723251
 21
186.7880005389454
 31
0.0
  0
ARC
  5
6876
  8
0
 10
235.5
 20
198.2880005389454
 30
0.0
 40
0.5
 50
90.0
 51
180.0
  0
LINE
  5
6877
  8
0
 10
235.00499967485669
 20
198.7880006432535
 30
0.0
 11
264.99500032514351
 21
198.7880006432535
 31
0.0
  0
ARC
  5
6878
  8
0
 10
264.5
 20
198.2880005389454
 30
0.0
 40
0.5
 50
0.0
 51
90.0
  0
LINE
  5
687C
  8
0
 10
235.20500026643279
 20
199.7880008071663
 30
0.0
 11
264.79499973356741
 21
199.7880008071663
 31
0.0
  0
LINE
  5
687F
  8
0
 10
262.8452992066741
 20
177.78800092637559
 30
0.0
 11
237.1547007933259
 21
177.78800092637559
 31
0.0
  0
LINE
  5
6880
  8
0
 10
235.9999995678663
 20
179.7880003228785
 30
0.0
 11
264.00000043213367
 21
179.7880003228785
 31
0.0
  0
LINE
  5
6881
  8
0
 10
256.50000013411039
 20
261.78800351917772
 30
0.0
 11
256.50000013411039
 21
271.7880014330151
 31
0.0
  0
LINE
  5
6883
  8
0
 10
256.50000013411039
 20
270.78799940645717
 30
0.0
 11
241.99999962002039
 21
270.78799940645717
 31
0.0
  0
LINE
  5
6884
  8
0
 10
242.99999978393319
 20
271.7880014330151
 30
0.0
 11
256.50000013411039
 21
271.7880014330151
 31
0.0
  0
LINE
  5
6886
  8
0
 10
264.99999966472382
 20
198.71744364213711
 30
0.0
 11
264.99999966472387
 21
198.28800056129711
 31
0.0
  0
LINE
  5
6887
  8
0
 10
235.0000003352761
 20
198.28800056129711
 30
0.0
 11
235.0000003352761
 21
198.7167302519085
 31
0.0
  0
LINE
  5
6890
  8
0
 10
414.99999966472382
 20
241.8880019338913
 30
0.0
 11
414.99999966472382
 21
259.78799946606182
 31
0.0
  0
LINE
  5
6891
  8
0
 10
414.99999966472382
 20
203.2880004495384
 30
0.0
 11
414.99999966472382
 21
234.1880005390145
 31
0.0
  0
LINE
  5
6892
  8
0
 10
385.0000003352763
 20
234.18800053901651
 30
0.0
 11
385.00000033527613
 21
203.2880004495384
 31
0.0
  0
LINE
  5
6893
  8
0
 10
385.00000033527613
 20
259.78799946606182
 30
0.0
 11
385.00000033527613
 21
241.88800193362511
 31
0.0
  0
ARC
  5
6894
  8
0
 10
414.5
 20
203.2880005389454
 30
0.0
 40
0.5
 50
270.0
 51
0.0
  0
ARC
  5
6895
  8
0
 10
385.5
 20
203.2880005389454
 30
0.0
 40
0.5
 50
180.0
 51
270.0
  0
LINE
  5
6896
  8
0
 10
414.99999966472382
 20
259.78799946606182
 30
0.0
 11
414.00000043213362
 21
260.78800149261968
 31
0.0
  0
LINE
  5
6897
  8
0
 10
385.99999956786633
 20
260.78800149261968
 30
0.0
 11
385.00000033527613
 21
259.78799946606182
 31
0.0
  0
ARC
  5
6898
  8
0
 10
432.0
 20
198.2880005389454
 30
0.0
 40
0.500000000000057
 50
0.0
 51
90.0
  0
LINE
  5
6899
  8
0
 10
432.4999988079071
 20
187.28800056269409
 30
0.0
 11
432.4999988079071
 21
198.28800056129711
 31
0.0
  0
LINE
  5
689A
  8
0
 10
432.00000151991838
 20
186.7880005389454
 30
0.0
 11
432.4999988079071
 21
187.28800056269409
 31
0.0
  0
LINE
  5
689B
  8
0
 10
367.5000011920929
 20
198.28800056129711
 30
0.0
 11
367.5000011920929
 21
187.28800056269409
 31
0.0
  0
LINE
  5
689C
  8
0
 10
367.5000011920929
 20
187.28800056269409
 30
0.0
 11
367.99999848008162
 21
186.7880005389454
 31
0.0
  0
ARC
  5
689D
  8
0
 10
368.0
 20
198.2880005389454
 30
0.0
 40
0.500000000000057
 50
90.0
 51
180.0
  0
LINE
  5
689E
  8
0
 10
414.99500032514328
 20
199.5880002155902
 30
0.0
 11
414.79499973356718
 21
199.7880008071663
 31
0.0
  0
LINE
  5
689F
  8
0
 10
385.20500026643271
 20
199.7880008071663
 30
0.0
 11
385.00499967485661
 21
199.5880002155902
 31
0.0
  0
LINE
  5
68A0
  8
0
 10
414.99500032514328
 20
198.7880006432535
 30
0.0
 11
414.99500032514328
 21
199.5880002155902
 31
0.0
  0
LINE
  5
68A1
  8
0
 10
385.00499967485661
 20
199.5880002155902
 30
0.0
 11
385.00499967485661
 21
198.7880006432535
 31
0.0
  0
LINE
  5
68A2
  8
0
 10
385.99999956786633
 20
179.7880003228785
 30
0.0
 11
387.1547007933259
 21
177.78800092637559
 31
0.0
  0
LINE
  5
68A3
  8
0
 10
412.84529920667399
 20
177.78800092637559
 30
0.0
 11
414.00000043213362
 21
179.7880003228785
 31
0.0
  0
LINE
  5
68A4
  8
0
 10
414.00000043213362
 20
179.7880003228785
 30
0.0
 11
414.00000043213362
 21
186.7880005389454
 31
0.0
  0
LINE
  5
68A5
  8
0
 10
385.99999956786633
 20
186.7880005389454
 30
0.0
 11
385.99999956786633
 21
179.7880003228785
 31
0.0
  0
ARC
  5
68A6
  8
0
 10
387.5
 20
201.2880005389454
 30
0.0
 40
1.5
 50
270.0
 51
0.0
  0
ARC
  5
68A7
  8
0
 10
412.5
 20
201.2880005389454
 30
0.0
 40
1.5
 50
180.0
 51
270.0
  0
LINE
  5
68A8
  8
0
 10
410.9999999403953
 20
201.28800012171291
 30
0.0
 11
410.9999999403953
 21
202.78800129890459
 31
0.0
  0
LINE
  5
68A9
  8
0
 10
389.00000005960459
 20
202.78800129890459
 30
0.0
 11
389.00000005960459
 21
201.28800012171291
 31
0.0
  0
LINE
  5
68AA
  8
0
 10
408.00000037997961
 20
260.78800149261968
 30
0.0
 11
408.00000037997961
 21
270.78799940645717
 31
0.0
  0
LINE
  5
68AB
  8
0
 10
391.99999962002039
 20
270.78799940645717
 30
0.0
 11
391.99999962002039
 21
260.78800149261968
 31
0.0
  0
LINE
  5
68AC
  8
0
 10
408.00000037997961
 20
270.78799940645717
 30
0.0
 11
407.00000021606678
 21
271.7880014330151
 31
0.0
  0
LINE
  5
68AD
  8
0
 10
392.99999978393311
 20
271.7880014330151
 30
0.0
 11
391.99999962002039
 21
270.78799940645717
 31
0.0
  0
LINE
  5
68BE
  8
0
 10
414.99999966472382
 20
259.78799946606182
 30
0.0
 11
385.00000033527613
 21
259.78799946606182
 31
0.0
  0
LINE
  5
68BF
  8
0
 10
414.49999958276737
 20
202.78800129890459
 30
0.0
 11
385.50000041723251
 21
202.78800129890459
 31
0.0
  0
LINE
  5
68C0
  8
0
 10
385.99999956786633
 20
260.78800149261968
 30
0.0
 11
414.00000043213362
 21
260.78800149261968
 31
0.0
  0
CIRCLE
  5
68D0
  8
0
 10
410.0
 20
192.7880005389454
 30
0.0
 40
2.6499999999999768
  0
CIRCLE
  5
68D1
  8
0
 10
410.0
 20
192.7880005389454
 30
0.0
 40
2.099999999999965
  0
LINE
  5
68D7
  8
0
 10
432.00000151991873
 20
186.7880005389454
 30
0.0
 11
367.99999848008162
 21
186.7880005389454
 31
0.0
  0
LINE
  5
68DA
  8
0
 10
385.20500026643271
 20
199.7880008071663
 30
0.0
 11
414.79499973356718
 21
199.7880008071663
 31
0.0
  0
LINE
  5
68DB
  8
0
 10
412.84529920667399
 20
177.78800092637559
 30
0.0
 11
387.1547007933259
 21
177.78800092637559
 31
0.0
  0
LINE
  5
68DC
  8
0
 10
385.99999956786633
 20
179.7880003228785
 30
0.0
 11
414.00000043213362
 21
179.7880003228785
 31
0.0
  0
CIRCLE
  5
68DD
  8
0
 10
410.0
 20
192.7880005389454
 30
0.0
 40
0.75
  0
LINE
  5
68DE
  8
0
 10
395.33631047233939
 20
261.78800351917772
 30
0.0
 11
395.33631047233939
 21
270.78799940645717
 31
0.0
  0
POLYLINE
  5
68DF
  8
0
 10
395.33631047345563
 20
261.78800053894543
 30
0.0
 66
     1
 70
     8
  0
VERTEX
  8
0
  5
7770
 10
395.336
 20
261.788
 30
0.000000
  70
    32
  0
VERTEX
  8
0
  5
7771
 10
395.400
 20
261.762
 30
0.000000
  70
    32
  0
VERTEX
  8
0
  5
7772
 10
395.464
 20
261.736
 30
0.000000
  70
    32
  0
VERTEX
  8
0
  5
7773
 10
395.528
 20
261.711
 30
0.000000
  70
    32
  0
VERTEX
  8
0
  5
7774
 10
395.593
 20
261.686
 30
0.000000
  70
    32
  0
VERTEX
  8
0
  5
7775
 10
395.658
 20
261.662
 30
0.000000
  70
    32
  0
VERTEX
  8
0
  5
7776
 10
395.723
 20
261.637
 30
0.000000
  70
    32
  0
VERTEX
  8
0
  5
7777
 10
395.789
 20
261.614
 30
0.000000
  70
    32
  0
VERTEX
  8
0
  5
7778
 10
395.856
 20
261.590
 30
0.000000
  70
    32
  0
VERTEX
  8
0
  5
7779
 10
395.922
 20
261.567
 30
0.000000
  70
    32
  0
VERTEX
  8
0
  5
777A
 10
395.989
 20
261.544
 30
0.000000
  70
    32
  0
VERTEX
  8
0
  5
777B
 10
396.057
 20
261.522
 30
0.000000
  70
    32
  0
VERTEX
  8
0
  5
777C
 10
396.125
 20
261.500
 30
0.000000
  70
    32
  0
VERTEX
  8
0
  5
777D
 10
396.193
 20
261.478
 30
0.000000
  70
    32
  0
VERTEX
  8
0
  5
777E
 10
396.262
 20
261.457
 30
0.000000
  70
    32
  0
VERTEX
  8
0
  5
777F
 10
396.331
 20
261.436
 30
0.000000
  70
    32
  0
VERTEX
  8
0
  5
7780
 10
396.400
 20
261.416
 30
0.000000
  70
    32
  0
VERTEX
  8
0
  5
7781
 10
396.470
 20
261.396
 30
0.000000
  70
    32
  0
VERTEX
  8
0
  5
7782
 10
396.540
 20
261.376
 30
0.000000
  70
    32
  0
VERTEX
  8
0
  5
7783
 10
396.610
 20
261.357
 30
0.000000
  70
    32
  0
VERTEX
  8
0
  5
7784
 10
396.680
 20
261.338
 30
0.000000
  70
    32
  0
VERTEX
  8
0
  5
7785
 10
396.751
 20
261.320
 30
0.000000
  70
    32
  0
VERTEX
  8
0
  5
7786
 10
396.823
 20
261.302
 30
0.000000
  70
    32
  0
VERTEX
  8
0
  5
7787
 10
396.894
 20
261.284
 30
0.000000
  70
    32
  0
VERTEX
  8
0
  5
7788
 10
396.966
 20
261.267
 30
0.000000
  70
    32
  0
VERTEX
  8
0
  5
7789
 10
397.038
 20
261.250
 30
0.000000
  70
    32
  0
VERTEX
  8
0
  5
778A
 10
397.111
 20
261.234
 30
0.000000
  70
    32
  0
VERTEX
  8
0
  5
778B
 10
397.183
 20
261.218
 30
0.000000
  70
    32
  0
VERTEX
  8
0
  5
778C
 10
397.256
 20
261.202
 30
0.000000
  70
    32
  0
VERTEX
  8
0
  5
778D
 10
397.329
 20
261.187
 30
0.000000
  70
    32
  0
VERTEX
  8
0
  5
778E
 10
397.403
 20
261.172
 30
0.000000
  70
    32
  0
VERTEX
  8
0
  5
778F
 10
397.477
 20
261.158
 30
0.000000
  70
    32
  0
VERTEX
  8
0
  5
7790
 10
397.551
 20
261.144
 30
0.000000
  70
    32
  0
VERTEX
  8
0
  5
7791
 10
397.625
 20
261.130
 30
0.000000
  70
    32
  0
VERTEX
  8
0
  5
7792
 10
397.699
 20
261.117
 30
0.000000
  70
    32
  0
VERTEX
  8
0
  5
7793
 10
397.774
 20
261.104
 30
0.000000
  70
    32
  0
VERTEX
  8
0
  5
7794
 10
397.849
 20
261.092
 30
0.000000
  70
    32
  0
VERTEX
  8
0
  5
7795
 10
397.924
 20
261.080
 30
0.000000
  70
    32
  0
VERTEX
  8
0
  5
7796
 10
397.999
 20
261.069
 30
0.000000
  70
    32
  0
VERTEX
  8
0
  5
7797
 10
398.074
 20
261.058
 30
0.000000
  70
    32
  0
VERTEX
  8
0
  5
7798
 10
398.150
 20
261.047
 30
0.000000
  70
    32
  0
VERTEX
  8
0
  5
7799
 10
398.226
 20
261.037
 30
0.000000
  70
    32
  0
VERTEX
  8
0
  5
779A
 10
398.302
 20
261.027
 30
0.000000
  70
    32
  0
VERTEX
  8
0
  5
779B
 10
398.378
 20
261.018
 30
0.000000
  70
    32
  0
VERTEX
  8
0
  5
779C
 10
398.454
 20
261.009
 30
0.000000
  70
    32
  0
VERTEX
  8
0
  5
779D
 10
398.530
 20
261.001
 30
0.000000
  70
    32
  0
VERTEX
  8
0
  5
779E
 10
398.607
 20
260.993
 30
0.000000
  70
    32
  0
VERTEX
  8
0
  5
779F
 10
398.683
 20
260.985
 30
0.000000
  70
    32
  0
VERTEX
  8
0
  5
77A0
 10
398.760
 20
260.978
 30
0.000000
  70
    32
  0
VERTEX
  8
0
  5
77A1
 10
398.837
 20
260.971
 30
0.000000
  70
    32
  0
VERTEX
  8
0
  5
77A2
 10
398.914
 20
260.965
 30
0.000000
  70
    32
  0
VERTEX
  8
0
  5
77A3
 10
398.991
 20
260.959
 30
0.000000
  70
    32
  0
VERTEX
  8
0
  5
77A4
 10
399.069
 20
260.953
 30
0.000000
  70
    32
  0
VERTEX
  8
0
  5
77A5
 10
399.146
 20
260.948
 30
0.000000
  70
    32
  0
VERTEX
  8
0
  5
77A6
 10
399.223
 20
260.944
 30
0.000000
  70
    32
  0
VERTEX
  8
0
  5
77A7
 10
399.301
 20
260.940
 30
0.000000
  70
    32
  0
VERTEX
  8
0
  5
77A8
 10
399.378
 20
260.936
 30
0.000000
  70
    32
  0
VERTEX
  8
0
  5
77A9
 10
399.456
 20
260.933
 30
0.000000
  70
    32
  0
VERTEX
  8
0
  5
77AA
 10
399.533
 20
260.930
 30
0.000000
  70
    32
  0
VERTEX
  8
0
  5
77AB
 10
399.611
 20
260.927
 30
0.000000
  70
    32
  0
VERTEX
  8
0
  5
77AC
 10
399.689
 20
260.925
 30
0.000000
  70
    32
  0
VERTEX
  8
0
  5
77AD
 10
399.767
 20
260.924
 30
0.000000
  70
    32
  0
VERTEX
  8
0
  5
77AE
 10
399.844
 20
260.923
 30
0.000000
  70
    32
  0
VERTEX
  8
0
  5
77AF
 10
399.922
 20
260.922
 30
0.000000
  70
    32
  0
VERTEX
  8
0
  5
77B0
 10
400.000
 20
260.922
 30
0.000000
  70
    32
  0
VERTEX
  8
0
  5
77B1
 10
400.078
 20
260.922
 30
0.000000
  70
    32
  0
VERTEX
  8
0
  5
77B2
 10
400.156
 20
260.923
 30
0.000000
  70
    32
  0
VERTEX
  8
0
  5
77B3
 10
400.233
 20
260.924
 30
0.000000
  70
    32
  0
VERTEX
  8
0
  5
77B4
 10
400.311
 20
260.925
 30
0.000000
  70
    32
  0
VERTEX
  8
0
  5
77B5
 10
400.389
 20
260.927
 30
0.000000
  70
    32
  0
VERTEX
  8
0
  5
77B6
 10
400.467
 20
260.930
 30
0.000000
  70
    32
  0
VERTEX
  8
0
  5
77B7
 10
400.544
 20
260.933
 30
0.000000
  70
    32
  0
VERTEX
  8
0
  5
77B8
 10
400.622
 20
260.936
 30
0.000000
  70
    32
  0
VERTEX
  8
0
  5
77B9
 10
400.699
 20
260.940
 30
0.000000
  70
    32
  0
VERTEX
  8
0
  5
77BA
 10
400.777
 20
260.944
 30
0.000000
  70
    32
  0
VERTEX
  8
0
  5
77BB
 10
400.854
 20
260.948
 30
0.000000
  70
    32
  0
VERTEX
  8
0
  5
77BC
 10
400.931
 20
260.953
 30
0.000000
  70
    32
  0
VERTEX
  8
0
  5
77BD
 10
401.009
 20
260.959
 30
0.000000
  70
    32
  0
VERTEX
  8
0
  5
77BE
 10
401.086
 20
260.965
 30
0.000000
  70
    32
  0
VERTEX
  8
0
  5
77BF
 10
401.163
 20
260.971
 30
0.000000
  70
    32
  0
VERTEX
  8
0
  5
77C0
 10
401.240
 20
260.978
 30
0.000000
  70
    32
  0
VERTEX
  8
0
  5
77C1
 10
401.317
 20
260.985
 30
0.000000
  70
    32
  0
VERTEX
  8
0
  5
77C2
 10
401.393
 20
260.993
 30
0.000000
  70
    32
  0
VERTEX
  8
0
  5
77C3
 10
401.470
 20
261.001
 30
0.000000
  70
    32
  0
VERTEX
  8
0
  5
77C4
 10
401.546
 20
261.009
 30
0.000000
  70
    32
  0
VERTEX
  8
0
  5
77C5
 10
401.622
 20
261.018
 30
0.000000
  70
    32
  0
VERTEX
  8
0
  5
77C6
 10
401.698
 20
261.027
 30
0.000000
  70
    32
  0
VERTEX
  8
0
  5
77C7
 10
401.774
 20
261.037
 30
0.000000
  70
    32
  0
VERTEX
  8
0
  5
77C8
 10
401.850
 20
261.047
 30
0.000000
  70
    32
  0
VERTEX
  8
0
  5
77C9
 10
401.926
 20
261.058
 30
0.000000
  70
    32
  0
VERTEX
  8
0
  5
77CA
 10
402.001
 20
261.069
 30
0.000000
  70
    32
  0
VERTEX
  8
0
  5
77CB
 10
402.076
 20
261.080
 30
0.000000
  70
    32
  0
VERTEX
  8
0
  5
77CC
 10
402.151
 20
261.092
 30
0.000000
  70
    32
  0
VERTEX
  8
0
  5
77CD
 10
402.226
 20
261.104
 30
0.000000
  70
    32
  0
VERTEX
  8
0
  5
77CE
 10
402.301
 20
261.117
 30
0.000000
  70
    32
  0
VERTEX
  8
0
  5
77CF
 10
402.375
 20
261.130
 30
0.000000
  70
    32
  0
VERTEX
  8
0
  5
77D0
 10
402.449
 20
261.144
 30
0.000000
  70
    32
  0
VERTEX
  8
0
  5
77D1
 10
402.523
 20
261.158
 30
0.000000
  70
    32
  0
VERTEX
  8
0
  5
77D2
 10
402.597
 20
261.172
 30
0.000000
  70
    32
  0
VERTEX
  8
0
  5
77D3
 10
402.671
 20
261.187
 30
0.000000
  70
    32
  0
VERTEX
  8
0
  5
77D4
 10
402.744
 20
261.202
 30
0.000000
  70
    32
  0
VERTEX
  8
0
  5
77D5
 10
402.817
 20
261.218
 30
0.000000
  70
    32
  0
VERTEX
  8
0
  5
77D6
 10
402.889
 20
261.234
 30
0.000000
  70
    32
  0
VERTEX
  8
0
  5
77D7
 10
402.962
 20
261.250
 30
0.000000
  70
    32
  0
VERTEX
  8
0
  5
77D8
 10
403.034
 20
261.267
 30
0.000000
  70
    32
  0
VERTEX
  8
0
  5
77D9
 10
403.106
 20
261.284
 30
0.000000
  70
    32
  0
VERTEX
  8
0
  5
77DA
 10
403.177
 20
261.302
 30
0.000000
  70
    32
  0
VERTEX
  8
0
  5
77DB
 10
403.249
 20
261.320
 30
0.000000
  70
    32
  0
VERTEX
  8
0
  5
77DC
 10
403.320
 20
261.338
 30
0.000000
  70
    32
  0
VERTEX
  8
0
  5
77DD
 10
403.390
 20
261.357
 30
0.000000
  70
    32
  0
VERTEX
  8
0
  5
77DE
 10
403.460
 20
261.376
 30
0.000000
  70
    32
  0
VERTEX
  8
0
  5
77DF
 10
403.530
 20
261.396
 30
0.000000
  70
    32
  0
VERTEX
  8
0
  5
77E0
 10
403.600
 20
261.416
 30
0.000000
  70
    32
  0
VERTEX
  8
0
  5
77E1
 10
403.669
 20
261.436
 30
0.000000
  70
    32
  0
VERTEX
  8
0
  5
77E2
 10
403.738
 20
261.457
 30
0.000000
  70
    32
  0
VERTEX
  8
0
  5
77E3
 10
403.807
 20
261.478
 30
0.000000
  70
    32
  0
VERTEX
  8
0
  5
77E4
 10
403.875
 20
261.500
 30
0.000000
  70
    32
  0
VERTEX
  8
0
  5
77E5
 10
403.943
 20
261.522
 30
0.000000
  70
    32
  0
VERTEX
  8
0
  5
77E6
 10
404.011
 20
261.544
 30
0.000000
  70
    32
  0
VERTEX
  8
0
  5
77E7
 10
404.078
 20
261.567
 30
0.000000
  70
    32
  0
VERTEX
  8
0
  5
77E8
 10
404.144
 20
261.590
 30
0.000000
  70
    32
  0
VERTEX
  8
0
  5
77E9
 10
404.211
 20
261.614
 30
0.000000
  70
    32
  0
VERTEX
  8
0
  5
77EA
 10
404.277
 20
261.637
 30
0.000000
  70
    32
  0
VERTEX
  8
0
  5
77EB
 10
404.342
 20
261.662
 30
0.000000
  70
    32
  0
VERTEX
  8
0
  5
77EC
 10
404.407
 20
261.686
 30
0.000000
  70
    32
  0
VERTEX
  8
0
  5
77ED
 10
404.472
 20
261.711
 30
0.000000
  70
    32
  0
VERTEX
  8
0
  5
77EE
 10
404.536
 20
261.736
 30
0.000000
  70
    32
  0
VERTEX
  8
0
  5
77EF
 10
404.600
 20
261.762
 30
0.000000
  70
    32
  0
VERTEX
  8
0
  5
77F0
 10
404.664
 20
261.788
 30
0.000000
  70
    32
  0
SEQEND
  8
0
  5
77F1
  0
LINE
  5
68E0
  8
0
 10
404.66368952766061
 20
270.78799940645717
 30
0.0
 11
404.66368952766061
 21
261.78800351917772
 31
0.0
  0
LINE
  5
68E1
  8
0
 10
395.33631047233939
 20
270.78799940645717
 30
0.0
 11
391.99999962002039
 21
270.78799940645717
 31
0.0
  0
LINE
  5
68E2
  8
0
 10
408.00000037997961
 20
270.78799940645717
 30
0.0
 11
404.66368952766061
 21
270.78799940645717
 31
0.0
  0
LINE
  5
68E3
  8
0
 10
404.66368952766061
 20
261.78800351917772
 30
0.0
 11
395.33631047233939
 21
261.78800351917772
 31
0.0
  0
LINE
  5
68E6
  8
0
 10
392.99999978393311
 20
271.7880014330151
 30
0.0
 11
407.00000021606661
 21
271.7880014330151
 31
0.0
  0
LINE
  5
68E7
  8
0
 10
395.33631047233939
 20
270.78799940645717
 30
0.0
 11
397.4019238725304
 21
271.7880014330151
 31
0.0
  0
CIRCLE
  5
68E8
  8
0
 10
400.0
 20
267.78800053894543
 30
0.0
 40
2.6499999999999768
  0
CIRCLE
  5
68EA
  8
0
 10
400.0
 20
267.78800053894543
 30
0.0
 40
2.099999999999965
  0
LINE
  5
68EF
  8
0
 10
104.0000001899899
 20
259.78799946606182
 30
0.0
 11
103.0000000260771
 21
260.36535240709799
 31
0.0
  0
LINE
  5
68F0
  8
0
 10
96.999999973923096
 20
260.36535240709799
 30
0.0
 11
95.999999810010308
 21
259.78799946606182
 31
0.0
  0
LINE
  5
68F1
  8
0
 10
104.0000001899899
 20
224.78799931705021
 30
0.0
 11
104.0000001899899
 21
231.7880023270848
 31
0.0
  0
LINE
  5
68F2
  8
0
 10
95.999999810010308
 20
231.7880023270848
 30
0.0
 11
95.999999810010308
 21
224.78799931705021
 31
0.0
  0
LINE
  5
68F3
  8
0
 10
103.0000000260771
 20
260.36535240709799
 30
0.0
 11
103.0000000260771
 21
263.78800012171291
 31
0.0
  0
LINE
  5
68F4
  8
0
 10
96.999999973923096
 20
263.78800012171291
 30
0.0
 11
96.999999973923096
 21
260.36535240709799
 31
0.0
  0
ARC
  5
68F5
  8
0
 10
99.999999999999886
 20
259.78800053894543
 30
0.0
 40
5.0
 50
53.130102354154623
 51
126.8698976458453
  0
ARC
  5
68F8
  8
0
 10
114.5
 20
203.2880005389454
 30
0.0
 40
0.5
 50
270.0
 51
0.0
  0
ARC
  5
68F9
  8
0
 10
85.5
 20
203.2880005389454
 30
0.0
 40
0.5
 50
180.0
 51
270.0
  0
LINE
  5
68FA
  8
0
 10
114.9999996647238
 20
241.88800193362479
 30
0.0
 11
114.9999996647238
 21
259.78799946606182
 31
0.0
  0
LINE
  5
68FB
  8
0
 10
114.9999996647238
 20
203.2880004495384
 30
0.0
 11
114.9999996647238
 21
234.188000539016
 31
0.0
  0
LINE
  5
68FC
  8
0
 10
85.000000335276127
 20
234.1880005390141
 30
0.0
 11
85.000000335276127
 21
203.2880004495384
 31
0.0
  0
LINE
  5
68FD
  8
0
 10
85.000000335276127
 20
259.78799946606182
 30
0.0
 11
85.000000335276127
 21
241.88800193389179
 31
0.0
  0
LINE
  5
68FE
  8
0
 10
114.9999996647238
 20
259.78799946606182
 30
0.0
 11
114.0000004321336
 21
260.78800149261968
 31
0.0
  0
LINE
  5
68FF
  8
0
 10
85.999999567866325
 20
260.78800149261968
 30
0.0
 11
85.000000335276127
 21
259.78799946606182
 31
0.0
  0
LINE
  5
6900
  8
0
 10
67.500001192092896
 20
187.28800056269409
 30
0.0
 11
67.999998480081544
 21
186.7880005389454
 31
0.0
  0
ARC
  5
6901
  8
0
 10
68.0
 20
198.2880005389454
 30
0.0
 40
0.5
 50
90.0
 51
180.0
  0
LINE
  5
6902
  8
0
 10
67.500001192092896
 20
198.28800056129711
 30
0.0
 11
67.500001192092896
 21
187.28800056269409
 31
0.0
  0
LINE
  5
6903
  8
0
 10
132.00000151991841
 20
186.7880005389454
 30
0.0
 11
132.4999988079071
 21
187.28800056269409
 31
0.0
  0
ARC
  5
6904
  8
0
 10
132.0
 20
198.2880005389454
 30
0.0
 40
0.5
 50
0.0
 51
90.0
  0
LINE
  5
6905
  8
0
 10
132.4999988079071
 20
187.28800056269409
 30
0.0
 11
132.4999988079071
 21
198.28800056129711
 31
0.0
  0
LINE
  5
6906
  8
0
 10
114.99500032514329
 20
199.5880002155902
 30
0.0
 11
114.7949997335672
 21
199.7880008071663
 31
0.0
  0
LINE
  5
6907
  8
0
 10
85.205000266432762
 20
199.7880008071663
 30
0.0
 11
85.004999674856663
 21
199.5880002155902
 31
0.0
  0
LINE
  5
6908
  8
0
 10
114.99500032514329
 20
198.7880006432535
 30
0.0
 11
114.99500032514329
 21
199.5880002155902
 31
0.0
  0
LINE
  5
6909
  8
0
 10
85.004999674856663
 20
199.5880002155902
 30
0.0
 11
85.004999674856663
 21
198.7880006432535
 31
0.0
  0
LINE
  5
690A
  8
0
 10
85.999999567866325
 20
179.7880003228785
 30
0.0
 11
87.154700793325901
 21
177.78800092637559
 31
0.0
  0
LINE
  5
690B
  8
0
 10
112.8452992066741
 20
177.78800092637559
 30
0.0
 11
114.0000004321336
 21
179.7880003228785
 31
0.0
  0
LINE
  5
690C
  8
0
 10
114.0000004321336
 20
179.7880003228785
 30
0.0
 11
114.0000004321336
 21
186.7880005389454
 31
0.0
  0
LINE
  5
690D
  8
0
 10
85.999999567866325
 20
186.7880005389454
 30
0.0
 11
85.999999567866325
 21
179.7880003228785
 31
0.0
  0
ARC
  5
690E
  8
0
 10
87.5
 20
201.2880005389454
 30
0.0
 40
1.5
 50
270.0
 51
0.0
  0
ARC
  5
690F
  8
0
 10
112.5
 20
201.2880005389454
 30
0.0
 40
1.5
 50
180.0
 51
270.0
  0
LINE
  5
6910
  8
0
 10
110.9999999403953
 20
201.28800012171291
 30
0.0
 11
110.9999999403953
 21
202.78800129890459
 31
0.0
  0
LINE
  5
6911
  8
0
 10
89.000000059604645
 20
202.78800129890459
 30
0.0
 11
89.000000059604645
 21
201.28800012171291
 31
0.0
  0
LINE
  5
6912
  8
0
 10
108.0000003799796
 20
270.78799940645717
 30
0.0
 11
107.00000021606679
 21
271.7880014330151
 31
0.0
  0
LINE
  5
6913
  8
0
 10
92.999999783933163
 20
271.7880014330151
 30
0.0
 11
91.999999620020375
 21
270.78799940645717
 31
0.0
  0
LINE
  5
6914
  8
0
 10
108.0000003799796
 20
260.78800149261968
 30
0.0
 11
108.0000003799796
 21
270.78799940645717
 31
0.0
  0
LINE
  5
6915
  8
0
 10
91.999999620020375
 20
270.78799940645717
 30
0.0
 11
91.999999620020375
 21
260.78800149261968
 31
0.0
  0
LINE
  5
696D
  8
0
 10
106.50000013411049
 20
219.2879993468525
 30
0.0
 11
106.50000013411049
 21
224.78799931705021
 31
0.0
  0
LINE
  5
696E
  8
0
 10
106.50000013411049
 20
219.2879993468525
 30
0.0
 11
93.499999865889777
 21
219.2879993468525
 31
0.0
  0
LINE
  5
696F
  8
0
 10
99.999999999999886
 20
219.2879993468525
 30
0.0
 11
99.999999999999886
 21
224.78799931705021
 31
0.0
  0
LINE
  5
6970
  8
0
 10
106.50000013411049
 20
224.78799931705021
 30
0.0
 11
93.499999865889777
 21
224.78799931705021
 31
0.0
  0
LINE
  5
6971
  8
0
 10
93.499999865889663
 20
219.2879993468525
 30
0.0
 11
93.499999865889663
 21
224.78799931705021
 31
0.0
  0
LINE
  5
6974
  8
0
 10
103.0000000260771
 20
260.36535240709799
 30
0.0
 11
96.999999973923096
 21
260.36535240709799
 31
0.0
  0
LINE
  5
6976
  8
0
 10
103.0000000260772
 20
263.78800012171291
 30
0.0
 11
96.999999973923096
 21
263.78800012171291
 31
0.0
  0
LINE
  5
6978
  8
0
 10
99.999999999999886
 20
236.78800128400351
 30
0.0
 11
99.999999999999886
 21
231.7880023270848
 31
0.0
  0
LINE
  5
6979
  8
0
 10
106.50000013411049
 20
236.78800128400351
 30
0.0
 11
106.50000013411049
 21
231.7880023270848
 31
0.0
  0
LINE
  5
697A
  8
0
 10
106.50000013411049
 20
236.78800128400351
 30
0.0
 11
106.490370258689
 21
236.78800128400351
 31
0.0
  0
LINE
  5
697B
  8
0
 10
100.0096296507764
 20
236.78800128400351
 30
0.0
 11
99.999999999999886
 21
236.78800128400351
 31
0.0
  0
LINE
  5
697D
  8
0
 10
93.499999865889663
 20
236.78800128400351
 30
0.0
 11
93.499999865889663
 21
231.7880023270848
 31
0.0
  0
LINE
  5
697E
  8
0
 10
93.499999865889663
 20
236.78800128400351
 30
0.0
 11
93.509629741311187
 21
236.78800128400351
 31
0.0
  0
LINE
  5
697F
  8
0
 10
99.990370349223795
 20
236.78800128400351
 30
0.0
 11
99.999999999999886
 21
236.78800128400351
 31
0.0
  0
LINE
  5
6980
  8
0
 10
93.499999865889663
 20
231.7880023270848
 30
0.0
 11
106.50000013411049
 21
231.7880023270848
 31
0.0
  0
LINE
  5
6982
  8
0
 10
99.990370349223795
 20
254.7880042344334
 30
0.0
 11
99.999999999999886
 21
254.7880042344334
 31
0.0
  0
LINE
  5
6983
  8
0
 10
93.499999865889663
 20
259.78799946606182
 30
0.0
 11
93.499999865889663
 21
254.7880042344334
 31
0.0
  0
LINE
  5
6984
  8
0
 10
99.999999999999886
 20
259.78799946606182
 30
0.0
 11
99.999999999999886
 21
254.7880042344334
 31
0.0
  0
LINE
  5
6986
  8
0
 10
106.50000013411049
 20
259.78799946606182
 30
0.0
 11
106.50000013411049
 21
254.7880042344334
 31
0.0
  0
LINE
  5
6987
  8
0
 10
99.999999999999886
 20
254.7880042344334
 30
0.0
 11
100.0096296507764
 21
254.7880042344334
 31
0.0
  0
LINE
  5
6999
  8
0
 10
107.49999983236199
 20
236.78800128400351
 30
0.0
 11
92.500000167638177
 21
236.78800128400351
 31
0.0
  0
ARC
  5
699A
  8
0
 10
92.500000000000114
 20
237.2880005389454
 30
0.0
 40
0.5
 50
180.0
 51
270.0
  0
ARC
  5
699C
  8
0
 10
107.5000000000001
 20
237.2880005389454
 30
0.0
 40
0.5
 50
270.0
 51
0.0
  0
ARC
  5
699E
  8
0
 10
92.500000000000114
 20
254.2880005389454
 30
0.0
 40
0.5
 50
90.0
 51
180.0
  0
LINE
  5
699F
  8
0
 10
91.805017925798765
 20
254.78800423443329
 30
0.0
 11
108.19498207420121
 21
254.7880042344334
 31
0.0
  0
ARC
  5
69A0
  8
0
 10
107.5000000000001
 20
254.2880005389454
 30
0.0
 40
0.5
 50
0.0
 51
90.0
  0
LINE
  5
69A1
  8
0
 10
91.999999620020503
 20
236.62755303084941
 30
0.0
 11
91.999999620020503
 21
254.28800322115441
 31
0.0
  0
LINE
  5
69A2
  8
0
 10
108.0000003799797
 20
236.6275530308483
 30
0.0
 11
108.0000003799797
 21
254.28800322115441
 31
0.0
  0
ARC
  5
69AB
  8
0
 10
76.016609639899116
 20
239.86441219144351
 30
0.0
 40
16.307851252760639
 50
326.18128600767869
 51
348.55163690613591
  0
ARC
  5
69AC
  8
0
 10
123.9833903601001
 20
239.86441219144311
 30
0.0
 40
16.307851252759779
 50
191.4483630938648
 51
213.8187139923225
  0
LINE
  5
69AE
  8
0
 10
91.805017925798893
 20
254.7880042344334
 30
0.0
 11
91.672287695109844
 21
254.7699216753247
 31
0.0
  0
LINE
  5
69B0
  8
0
 10
89.565216936171055
 20
230.78800030052679
 30
0.0
 11
89.565216936171055
 21
254.28800322115441
 31
0.0
  0
LINE
  5
69B1
  8
0
 10
108.33003595471379
 20
254.7696087509396
 30
0.0
 11
108.19498207420111
 21
254.7880042344334
 31
0.0
  0
LINE
  5
69B4
  8
0
 10
110.4347830638289
 20
254.28800322115441
 30
0.0
 11
110.4347830638289
 21
230.78800030052679
 31
0.0
  0
LINE
  5
69B7
  8
0
 10
114.4999995827675
 20
202.78800129890459
 30
0.0
 11
85.500000417232513
 21
202.78800129890459
 31
0.0
  0
LINE
  5
69BD
  8
0
 10
114.9999996647238
 20
259.78799946606182
 30
0.0
 11
85.000000335276127
 21
259.78799946606182
 31
0.0
  0
LINE
  5
69BE
  8
0
 10
85.999999567866325
 20
260.78800149261968
 30
0.0
 11
96.999999973922954
 21
260.78800149261968
 31
0.0
  0
LINE
  5
69BF
  8
0
 10
103.000000026077
 20
260.78800149261968
 30
0.0
 11
114.0000004321336
 21
260.78800149261968
 31
0.0
  0
LINE
  5
69D8
  8
0
 10
132.00000151991841
 20
186.7880005389454
 30
0.0
 11
67.999998480081544
 21
186.7880005389454
 31
0.0
  0
LINE
  5
69DB
  8
0
 10
85.205000266432762
 20
199.7880008071663
 30
0.0
 11
114.7949997335672
 21
199.7880008071663
 31
0.0
  0
LINE
  5
69DC
  8
0
 10
112.8452992066741
 20
177.78800092637559
 30
0.0
 11
87.154700793325901
 21
177.78800092637559
 31
0.0
  0
LINE
  5
69DD
  8
0
 10
85.999999567866325
 20
179.7880003228785
 30
0.0
 11
114.0000004321336
 21
179.7880003228785
 31
0.0
  0
LINE
  5
69DE
  8
0
 10
108.0000003799796
 20
270.78799940645717
 30
0.0
 11
91.999999620020375
 21
270.78799940645717
 31
0.0
  0
LINE
  5
69DF
  8
0
 10
92.999999783933163
 20
271.7880014330151
 30
0.0
 11
107.00000021606679
 21
271.7880014330151
 31
0.0
  0
LINE
  5
69E0
  8
0
 10
110.4347830638289
 20
230.78800030052679
 30
0.0
 11
104.00000018998981
 21
230.78800030052679
 31
0.0
  0
LINE
  5
69E1
  8
0
 10
95.999999810010195
 20
230.78800030052679
 30
0.0
 11
89.565216936171055
 21
230.78800030052679
 31
0.0
  0
ARC
  5
69E2
  8
0
 10
93.589869243399775
 20
241.53847921254581
 30
0.0
 40
13.36967421593244
 50
98.246241043410663
 51
107.5193846846914
  0
ARC
  5
69E3
  8
0
 10
106.40963682588379
 20
241.53698109108041
 30
0.0
 40
13.37125153448547
 50
72.480529432660589
 51
81.742538866557396
  0
CIRCLE
  5
69EE
  8
0
 10
213.0
 20
354.28800143301498
 30
0.0
 40
2.9999999999999498
  0
CIRCLE
  5
69EF
  8
0
 10
213.0
 20
354.2880014330151
 30
0.0
 40
4.000000000000032
  0
LINE
  5
69F0
  8
0
 10
216.75277501344681
 20
360.78800156712532
 30
0.0
 11
220.5055542290211
 21
354.28800143301498
 31
0.0
  0
LINE
  5
69F1
  8
0
 10
216.75277501344681
 20
347.78800129890442
 30
0.0
 11
220.5055542290211
 21
354.28800143301498
 31
0.0
  0
LINE
  5
69F2
  8
0
 10
216.75277501344681
 20
347.78800129890442
 30
0.0
 11
209.2472240328789
 21
347.78800129890442
 31
0.0
  0
LINE
  5
69F3
  8
0
 10
205.49444481730461
 20
354.2880014330151
 30
0.0
 11
209.2472240328789
 21
347.78800129890442
 31
0.0
  0
LINE
  5
69F4
  8
0
 10
209.2472240328789
 20
360.78800156712532
 30
0.0
 11
205.49444481730461
 21
354.2880014330151
 31
0.0
  0
CIRCLE
  5
69F5
  8
0
 10
213.0
 20
354.2880014330151
 30
0.0
 40
4.0000000000000044
  0
LINE
  5
69F6
  8
0
 10
209.2472240328789
 20
360.78800156712532
 30
0.0
 11
216.75277501344681
 21
360.78800156712532
 31
0.0
  0
CIRCLE
  5
6A02
  8
0
 10
250.0
 20
354.28800143301493
 30
0.0
 40
14.99999999999994
  0
CIRCLE
  5
6A03
  8
0
 10
250.0
 20
354.28800143301493
 30
0.0
 40
14.0
  0
CIRCLE
  5
6A04
  8
0
 10
250.0
 20
354.28800143301493
 30
0.0
 40
9.0
  0
ARC
  5
6A0A
  8
0
 10
233.47728835814181
 20
370.28800143301493
 30
0.0
 40
8.0
 50
270.0
 51
315.9207901521105
  0
ARC
  5
6A0B
  8
0
 10
233.47728835814181
 20
338.28800143301493
 30
0.0
 40
8.0
 50
44.079209847889757
 51
90.0
  0
ARC
  5
6A0C
  8
0
 10
213.0
 20
354.28800143301493
 30
0.0
 40
8.0
 50
90.0
 51
270.0
  0
LINE
  5
6A0D
  8
0
 10
212.99999952316281
 20
362.28800181299448
 30
0.0
 11
233.47728885710239
 21
362.28800181299448
 31
0.0
  0
LINE
  5
6A0E
  8
0
 10
221.000000834465
 20
358.4880012832582
 30
0.0
 11
218.08068081736559
 21
358.4880012832582
 31
0.0
  0
ARC
  5
6A0F
  8
0
 10
221.0
 20
354.28800143301493
 30
0.0
 40
4.2000000000000446
 50
270.0
 51
90.0
  0
LINE
  5
6A10
  8
0
 10
218.08068081736559
 20
350.0880015827716
 30
0.0
 11
221.000000834465
 21
350.0880015827716
 31
0.0
  0
LINE
  5
6A11
  8
0
 10
233.47728885710239
 20
346.28800105303532
 30
0.0
 11
212.99999952316281
 21
346.28800105303532
 31
0.0
  0
ARC
  5
6A14
  8
0
 10
250.0
 20
354.28800143301493
 30
0.0
 40
7.0000000000000213
 50
21.786789298260938
 51
338.21321070173911
  0
LINE
  5
6A16
  8
0
 10
256.50000013411039
 20
358.95169077264319
 30
0.0
 11
256.50000013411039
 21
349.62431209338638
 31
0.0
  0
ARC
  5
6A1A
  8
0
 10
250.0
 20
371.7880014330151
 30
0.0
 40
15.0
 50
0.0
 51
180.0
  0
ARC
  5
6A1B
  8
0
 10
250.0
 20
354.2880014330151
 30
0.0
 40
28.199999999999989
 50
80.000000000001464
 51
99.999999999998565
  0
ARC
  5
6A1C
  8
0
 10
245.83244373599371
 20
377.92338750530803
 30
0.0
 40
4.2000000000000011
 50
99.999999999998565
 51
279.99999999999858
  0
ARC
  5
6A1D
  8
0
 10
254.16755626400641
 20
377.92338750530803
 30
0.0
 40
4.2000000000000011
 50
260.00000000000142
 51
80.000000000001464
  0
ARC
  5
6A1E
  8
0
 10
250.0
 20
354.2880014330151
 30
0.0
 40
19.800000000000001
 50
80.000000000001464
 51
99.999999999998565
  0
LINE
  5
6A1F
  8
0
 10
235.0000003352761
 20
362.4342539161446
 30
0.0
 11
235.0000003352761
 21
371.7880015075209
 31
0.0
  0
LINE
  5
6A21
  8
0
 10
235.0000003352761
 20
336.78800135850929
 30
0.0
 11
235.0000003352761
 21
346.1417489498856
 31
0.0
  0
LINE
  5
6A22
  8
0
 10
264.99999966472387
 20
371.79117291294892
 30
0.0
 11
264.99999966472387
 21
336.78800135850929
 31
0.0
  0
ARC
  5
6A23
  8
0
 10
250.0
 20
336.7880014330151
 30
0.0
 40
15.0
 50
180.0
 51
0.0
  0
ARC
  5
6A24
  8
0
 10
250.0
 20
354.2880014330151
 30
0.0
 40
19.800000000000001
 50
260.00000000000142
 51
279.99999999999858
  0
ARC
  5
6A25
  8
0
 10
245.83244373599371
 20
330.65261536072211
 30
0.0
 40
4.2000000000000481
 50
80.000000000001464
 51
260.00000000000142
  0
ARC
  5
6A26
  8
0
 10
254.16755626400641
 20
330.65261536072211
 30
0.0
 40
4.2000000000000481
 50
279.99999999999858
 51
99.999999999998565
  0
ARC
  5
6A27
  8
0
 10
250.0
 20
354.2880014330151
 30
0.0
 40
28.200000000000049
 50
260.00000000000142
 51
279.99999999999858
  0
CIRCLE
  5
6B0E
  8
0
 10
250.0
 20
354.28800143301493
 30
0.0
 40
8.0
  0
LINE
  5
6BE8
  8
1
 10
100.0
 20
157.5000000000002
 30
0.0
 11
100.0
 21
276.7880014330151
 31
0.0
  0
LINE
  5
6BEB
  8
1
 10
250.0
 20
276.7880014330151
 30
0.0
 11
250.0
 21
157.5000000000002
 31
0.0
  0
LINE
  5
6BEC
  8
1
 10
400.0
 20
157.5000000000002
 30
0.0
 11
400.0
 21
276.7880014330151
 31
0.0
  0
LINE
  5
6BFA
  8
3
 10
216.3234988675118
 20
224.78799931705021
 30
0.0
 11
216.323498867512
 21
231.78800232708471
 31
0.0
  0
LINE
  5
6BFB
  8
3
 10
209.6764988675117
 20
224.78799931705021
 30
0.0
 11
209.6764988675117
 21
231.78800232708471
 31
0.0
  0
LINE
  5
6BFC
  8
3
 10
103.323499344349
 20
224.7880011796953
 30
0.0
 11
103.3234993443491
 21
231.78800418972989
 31
0.0
  0
LINE
  5
6BFD
  8
3
 10
96.676499344348841
 20
224.7880011796953
 30
0.0
 11
96.676499344348841
 21
231.7880041897298
 31
0.0
  0
LINE
  5
6C02
  8
1
 10
200.0
 20
354.28800143301493
 30
0.0
 11
270.0
 21
354.28800143301493
 31
0.0
  0
LINE
  5
6C07
  8
1
 10
250.0
 20
391.7880014330151
 30
0.0
 11
250.0
 21
316.7880014330151
 31
0.0
  0
LINE
  5
6C08
  8
1
 10
200.0
 20
80.0
 30
0.0
 11
270.0
 21
80.0
 31
0.0
  0
LINE
  5
6C09
  8
1
 10
250.0
 20
117.5000000000002
 30
0.0
 11
250.0
 21
42.500000000000227
 31
0.0
  0
LINE
  5
6C5B
  8
0
 10
132.0
 20
198.7880005389454
 30
0.0
 11
67.999998480081544
 21
198.7880006432535
 31
0.0
  0
LINE
  5
6CA7
  8
0
 10
368.0
 20
198.7880005389454
 30
0.0
 11
432.0
 21
198.7880005389454
 31
0.0
  0
LINE
  5
6CAA
  8
1
 10
212.99999952316281
 20
363.78800156712532
 30
0.0
 11
212.99999952316281
 21
344.78800129890442
 31
0.0
  0
LINE
  5
6CAB
  8
1
 10
221.0
 20
346.78800143301493
 30
0.0
 11
221.0
 21
361.78800143301493
 31
0.0
  0
LINE
  5
6CAC
  8
1
 10
221.0
 20
72.500000000000085
 30
0.0
 11
221.0
 21
87.500000000000085
 31
0.0
  0
LINE
  5
6CAD
  8
1
 10
213.0
 20
89.500000134110508
 30
0.0
 11
213.0
 21
70.499999865889606
 31
0.0
  0
LINE
  5
6CB1
  8
1
 10
212.99999952316281
 20
216.2879993468525
 30
0.0
 11
212.99999952316281
 21
267.78800053894543
 31
0.0
  0
ARC
  5
6CF7
  8
1
 10
250.0
 20
80.003171479705685
 30
0.0
 40
24.0
 50
242.74614688263961
 51
297.25385311736028
  0
ARC
  5
6CF8
  8
1
 10
250.0
 20
80.003171479705685
 30
0.0
 40
24.0
 50
62.746146882639643
 51
117.25385311736029
  0
ARC
  5
6CF9
  8
1
 10
250.00000000000011
 20
354.28800143301498
 30
0.0
 40
24.0
 50
242.74614688263961
 51
297.25385311736028
  0
ARC
  5
6CFA
  8
1
 10
250.00000000000011
 20
354.28800143301498
 30
0.0
 40
24.0
 50
62.74614688263965
 51
117.25385311736029
  0
LINE
  5
6D01
  8
1
 10
395.84999999999991
 20
267.78800053894543
 30
0.0
 11
404.14999999999998
 21
267.78800053894543
 31
0.0
  0
LINE
  5
6D02
  8
1
 10
405.84999999999991
 20
192.7880005389454
 30
0.0
 11
414.14999999999998
 21
192.7880005389454
 31
0.0
  0
LINE
  5
6D03
  8
1
 10
410.0
 20
188.63800053894531
 30
0.0
 11
410.0
 21
196.93800053894549
 31
0.0
  0
LINE
  5
6D95
  8
1
 10
75.999999999999773
 20
201.78800064325409
 30
0.0
 11
75.999999999999773
 21
183.78800053894591
 31
0.0
  0
LINE
  5
6D96
  8
1
 10
123.9999999999997
 20
201.78800064325409
 30
0.0
 11
123.9999999999997
 21
183.78800053894591
 31
0.0
  0
LINE
  5
6D97
  8
1
 10
375.99999999999977
 20
201.78800064325409
 30
0.0
 11
375.99999999999977
 21
183.78800053894591
 31
0.0
  0
LINE
  5
6D98
  8
1
 10
423.99999999999972
 20
201.78800064325409
 30
0.0
 11
423.99999999999972
 21
183.78800053894591
 31
0.0
  0
LINE
  5
73B2
  8
0
 10
103.000000026077
 20
162.6999996602537
 30
0.0
 11
103.000000026077
 21
177.78800092637559
 31
0.0
  0
LINE
  5
73B3
  8
0
 10
96.999999973922954
 20
177.78800092637559
 30
0.0
 11
96.999999973922954
 21
162.6999996602537
 31
0.0
  0
LINE
  5
73B4
  8
0
 10
96.999999973922954
 20
162.6999996602537
 30
0.0
 11
97.200000099837766
 21
162.5000000000002
 31
0.0
  0
LINE
  5
73B5
  8
0
 10
102.79999990016221
 20
162.5000000000002
 30
0.0
 11
103.000000026077
 21
162.6999996602537
 31
0.0
  0
LINE
  5
73B6
  8
0
 10
101.6583123942838
 20
162.6999996602537
 30
0.0
 11
103.000000026077
 21
162.6999996602537
 31
0.0
  0
LINE
  5
73B7
  8
0
 10
101.6583123942838
 20
162.6999996602537
 30
0.0
 11
101.6583123942838
 21
167.9999999701979
 31
0.0
  0
ARC
  5
73B8
  8
0
 10
100.0000000000001
 20
165.50000053894539
 30
0.0
 40
2.9999999999999929
 50
56.44269023808075
 51
123.5573097619192
  0
LINE
  5
73B9
  8
0
 10
98.341687605716416
 20
167.9999999701979
 30
0.0
 11
98.341687605716416
 21
162.6999996602537
 31
0.0
  0
LINE
  5
73BA
  8
0
 10
96.999999973922954
 20
162.6999996602537
 30
0.0
 11
98.341687605716416
 21
162.6999996602537
 31
0.0
  0
LINE
  5
73BB
  8
0
 10
98.341687605716416
 20
167.9999999701979
 30
0.0
 11
101.6583123942838
 21
167.9999999701979
 31
0.0
  0
LINE
  5
73BC
  8
0
 10
102.79999990016221
 20
162.5000000000002
 30
0.0
 11
97.200000099837766
 21
162.5000000000002
 31
0.0
  0
LINE
  5
73BD
  8
0
 10
98.341687605716416
 20
162.6999996602537
 30
0.0
 11
98.739048023708278
 21
162.5000000000002
 31
0.0
  0
LINE
  5
73BE
  8
0
 10
101.26095197629191
 20
162.5000000000002
 30
0.0
 11
101.6583123942838
 21
162.6999996602537
 31
0.0
  0
LINE
  5
73BF
  8
0
 10
253.000000026077
 20
168.50000098347681
 30
0.0
 11
253.000000026077
 21
177.78800092637559
 31
0.0
  0
LINE
  5
73C0
  8
0
 10
246.999999973923
 20
177.78800092637559
 30
0.0
 11
246.999999973923
 21
168.50000098347681
 31
0.0
  0
LINE
  5
73C2
  8
0
 10
252.49999994412059
 20
167.9999999701979
 30
0.0
 11
252.4999999441209
 21
162.5000000000002
 31
0.0
  0
LINE
  5
73C3
  8
0
 10
247.5000000558795
 20
162.5000000000002
 30
0.0
 11
247.5000000558793
 21
167.9999999701979
 31
0.0
  0
LINE
  5
73C5
  8
0
 10
252.49999994412059
 20
162.5000000000002
 30
0.0
 11
247.5000000558793
 21
162.5000000000002
 31
0.0
  0
LINE
  5
73C6
  8
0
 10
403.00000002607698
 20
162.6999996602537
 30
0.0
 11
403.00000002607698
 21
177.78800092637559
 31
0.0
  0
LINE
  5
73C7
  8
0
 10
396.99999997392302
 20
177.78800092637559
 30
0.0
 11
396.99999997392302
 21
162.6999996602537
 31
0.0
  0
LINE
  5
73C8
  8
0
 10
402.79999990016222
 20
162.5000000000002
 30
0.0
 11
403.00000002607698
 21
162.6999996602537
 31
0.0
  0
LINE
  5
73C9
  8
0
 10
396.99999997392302
 20
162.6999996602537
 30
0.0
 11
397.20000009983778
 21
162.5000000000002
 31
0.0
  0
ARC
  5
73CA
  8
0
 10
400.0
 20
165.50000053894539
 30
0.0
 40
3.000000000000087
 50
56.44269023808075
 51
123.5573097619194
  0
LINE
  5
73CB
  8
0
 10
398.34168760571629
 20
167.9999999701979
 30
0.0
 11
398.34168760571629
 21
162.6999996602537
 31
0.0
  0
LINE
  5
73CC
  8
0
 10
396.99999997392302
 20
162.6999996602537
 30
0.0
 11
398.34168760571629
 21
162.6999996602537
 31
0.0
  0
LINE
  5
73CD
  8
0
 10
401.65831239428371
 20
162.6999996602537
 30
0.0
 11
403.00000002607698
 21
162.6999996602537
 31
0.0
  0
LINE
  5
73CE
  8
0
 10
401.65831239428371
 20
162.6999996602537
 30
0.0
 11
401.65831239428371
 21
167.9999999701979
 31
0.0
  0
LINE
  5
73CF
  8
0
 10
401.65831239428371
 20
167.9999999701979
 30
0.0
 11
398.34168760571629
 21
167.9999999701979
 31
0.0
  0
LINE
  5
73D0
  8
0
 10
401.26095197629178
 20
162.5000000000002
 30
0.0
 11
401.65831239428371
 21
162.6999996602537
 31
0.0
  0
LINE
  5
73D1
  8
0
 10
398.34168760571629
 20
162.6999996602537
 30
0.0
 11
398.73904802370822
 21
162.5000000000002
 31
0.0
  0
LINE
  5
73D2
  8
0
 10
402.79999990016222
 20
162.5000000000002
 30
0.0
 11
397.20000009983778
 21
162.5000000000002
 31
0.0
  0
LINE
  5
73DE
  8
0
 10
209.2472240328789
 20
73.499999865889535
 30
0.0
 11
216.75277501344681
 21
73.499999865889535
 31
0.0
  0
LINE
  5
73DF
  8
0
 10
205.49444481730461
 20
80.000000000000171
 30
0.0
 11
209.2472240328789
 21
73.499999865889535
 31
0.0
  0
LINE
  5
73E0
  8
0
 10
209.2472240328789
 20
86.500000134110451
 30
0.0
 11
205.49444481730461
 21
80.000000000000171
 31
0.0
  0
LINE
  5
73E1
  8
0
 10
216.75277501344681
 20
86.500000134110451
 30
0.0
 11
209.2472240328789
 21
86.500000134110451
 31
0.0
  0
LINE
  5
73E2
  8
0
 10
220.5055542290211
 20
80.000000000000114
 30
0.0
 11
216.75277501344681
 21
86.500000134110451
 31
0.0
  0
LINE
  5
73E3
  8
0
 10
216.75277501344681
 20
73.499999865889535
 30
0.0
 11
220.5055542290211
 21
80.000000000000114
 31
0.0
  0
POLYLINE
  5
73FE
  8
0
 66
     1
 10
0.0
 20
0.0
 30
0.0
 70
   128
  0
VERTEX
  5
7768
  8
0
 10
235.0000003352761
 20
71.842781193554345
 30
0.0
  0
VERTEX
  5
7769
  8
0
 10
234.85067486763
 20
71.881088353693428
 30
0.0
  0
VERTEX
  5
776A
  8
0
 10
233.47728885710239
 20
71.999999620020333
 30
0.0
  0
SEQEND
  5
776B
  8
0
  0
POLYLINE
  5
73FF
  8
0
 66
     1
 10
0.0
 20
0.0
 30
0.0
 70
   128
  0
VERTEX
  5
776C
  8
0
 10
233.47728885710239
 20
88.000000379979554
 30
0.0
  0
VERTEX
  5
776D
  8
0
 10
234.85067486763
 20
88.118911646306458
 30
0.0
  0
VERTEX
  5
776E
  8
0
 10
235.0000003352761
 20
88.157218806445542
 30
0.0
  0
SEQEND
  5
776F
  8
0
  0
LINE
  5
7400
  8
0
 10
233.47728885710239
 20
71.999999620020333
 30
0.0
 11
230.38495518267149
 21
71.999999620020333
 31
0.0
  0
LINE
  5
7401
  8
0
 10
230.38495518267149
 20
88.000000379979554
 30
0.0
 11
233.47728885710239
 21
88.000000379979554
 31
0.0
  0
LINE
  5
7402
  8
0
 10
230.38495518267149
 20
71.999999620020333
 30
0.0
 11
212.99999952316281
 21
71.999999620020333
 31
0.0
  0
ARC
  5
7403
  8
0
 10
213.0
 20
79.999999999999972
 30
0.0
 40
8.0
 50
90.0
 51
270.0
  0
ARC
  5
7404
  8
0
 10
221.0
 20
79.999999999999972
 30
0.0
 40
4.2000000000000171
 50
270.0
 51
90.0
  0
LINE
  5
7405
  8
0
 10
218.08068081736559
 20
75.800000149756613
 30
0.0
 11
221.000000834465
 21
75.800000149756613
 31
0.0
  0
LINE
  5
7406
  8
0
 10
221.000000834465
 20
84.199999850243273
 30
0.0
 11
218.08068081736559
 21
84.199999850243273
 31
0.0
  0
LINE
  5
7407
  8
0
 10
212.99999952316281
 20
88.000000379979554
 30
0.0
 11
230.38495518267149
 21
88.000000379979554
 31
0.0
  0
ARC
  5
740B
  8
0
 10
250.0
 20
62.500000000000107
 30
0.0
 40
15.00000000000006
 50
180.0
 51
0.0
  0
ARC
  5
740C
  8
0
 10
250.0
 20
80.000000000000114
 30
0.0
 40
28.199999999999999
 50
260.00000000000142
 51
279.99999999999858
  0
ARC
  5
740D
  8
0
 10
254.16755626400641
 20
56.364613927707119
 30
0.0
 40
4.2000000000000011
 50
279.99999999999858
 51
99.999999999998565
  0
ARC
  5
740E
  8
0
 10
245.83244373599371
 20
56.364613927707119
 30
0.0
 40
4.2000000000000011
 50
80.000000000001464
 51
260.00000000000142
  0
ARC
  5
740F
  8
0
 10
250.0
 20
80.000000000000114
 30
0.0
 40
19.800000000000001
 50
260.00000000000142
 51
279.99999999999858
  0
LINE
  5
7410
  8
0
 10
235.0000003352761
 20
62.499999925494301
 30
0.0
 11
235.0000003352761
 21
97.500000074505934
 31
0.0
  0
LINE
  5
7411
  8
0
 10
264.99999966472387
 20
97.500000074505934
 30
0.0
 11
264.99999966472387
 21
62.499999925494301
 31
0.0
  0
ARC
  5
7412
  8
0
 10
250.0
 20
97.500000000000114
 30
0.0
 40
15.00000000000006
 50
0.0
 51
180.0
  0
ARC
  5
7413
  8
0
 10
245.83244373599371
 20
103.6353860722931
 30
0.0
 40
4.2000000000000286
 50
99.999999999998565
 51
279.99999999999858
  0
ARC
  5
7414
  8
0
 10
254.16755626400641
 20
103.6353860722931
 30
0.0
 40
4.2000000000000188
 50
260.00000000000142
 51
80.000000000001464
  0
ARC
  5
7415
  8
0
 10
250.0
 20
80.000000000000114
 30
0.0
 40
19.800000000000001
 50
80.000000000001464
 51
99.999999999998565
  0
ARC
  5
7416
  8
0
 10
250.0
 20
80.000000000000114
 30
0.0
 40
28.199999999999999
 50
80.000000000001464
 51
99.999999999998565
  0
CIRCLE
  5
744A
  8
0
 10
254.99999999999989
 20
72.040100503147187
 30
0.0
 40
1.0
  0
LINE
  5
744B
  8
0
 10
253.03038442507389
 20
71.692803800106191
 30
0.0
 11
253.40966647490859
 21
69.541789516806745
 31
0.0
  0
ARC
  5
744C
  8
0
 10
254.99999999999989
 20
72.040100503147187
 30
0.0
 40
2.0000000000000209
 50
49.720368204833527
 51
190.0000000000002
  0
ARC
  5
744D
  8
0
 10
250.0
 20
80.000000000000142
 30
0.0
 40
9.0000000000000071
 50
314.36496759178101
 51
225.6350324082191
  0
ARC
  5
744E
  8
0
 10
245.0
 20
72.040100503147187
 30
0.0
 40
2.0000000000000209
 50
349.99999999999977
 51
130.27963179516649
  0
CIRCLE
  5
744F
  8
0
 10
245.0
 20
72.040100503147187
 30
0.0
 40
1.0
  0
LINE
  5
7450
  8
0
 10
246.59033352509141
 20
69.541789516806745
 30
0.0
 11
246.96961557492611
 21
71.692803800106191
 31
0.0
  0
LINE
  5
7458
  8
0
 10
252.49999994412059
 20
81.658312479419195
 30
0.0
 11
252.49999994412059
 21
78.341687520581203
 31
0.0
  0
LINE
  5
7459
  8
0
 10
247.5000000558793
 20
78.341687520581203
 30
0.0
 11
247.5000000558793
 21
81.658312479419195
 31
0.0
  0
CIRCLE
  5
745A
  8
0
 10
250.0
 20
80.000000000000227
 30
0.0
 40
1.25
  0
CIRCLE
  5
7460
  8
0
 10
250.0
 20
80.000000000000142
 30
0.0
 40
6.5000000000000604
  0
CIRCLE
  5
7463
  8
0
 10
250.0
 20
80.000000000000171
 30
0.0
 40
3.8000000000000518
  0
CIRCLE
  5
7465
  8
0
 10
250.0
 20
80.000000000000171
 30
0.0
 40
12.84529946162078
  0
CIRCLE
  5
7466
  8
0
 10
250.0
 20
80.000000000000142
 30
0.0
 40
14.0
  0
CIRCLE
  5
7467
  8
0
 10
250.0
 20
80.000000000000171
 30
0.0
 40
11.00000000000003
  0
CIRCLE
  5
7468
  8
0
 10
250.0
 20
80.000000000000227
 30
0.0
 40
3.0
  0
LINE
  5
7478
  8
0
 10
246.999999973923
 20
168.50000098347681
 30
0.0
 11
247.5000000558793
 21
167.9999999701979
 31
0.0
  0
LINE
  5
7479
  8
0
 10
253.000000026077
 20
168.50000098347681
 30
0.0
 11
252.49999994412059
 21
167.9999999701979
 31
0.0
  0
LINE
  5
7498
  8
0
 10
256.50000013411039
 20
261.78800351917772
 30
0.0
 11
258.00000037997961
 21
260.92197783291363
 31
0.0
  0
LINE
  5
7499
  8
0
 10
404.66368952766038
 20
270.78799940645752
 30
0.0
 11
402.59807612746931
 21
271.78800143301532
 31
0.0
  0
LINE
  5
752F
  8
2
 10
101.750000054
 20
162.5000000000002
 30
0.0
 11
101.2499999721
 21
163.00000101330019
 31
0.0
  0
LINE
  5
7530
  8
2
 10
101.2499999721
 20
163.00000101330019
 30
0.0
 11
101.2499999721
 21
171.00000046190021
 31
0.0
  0
LINE
  5
7531
  8
2
 10
101.2499999721
 20
171.00000046190021
 30
0.0
 11
100.0
 21
171.7510767281002
 31
0.0
  0
LINE
  5
7532
  8
2
 10
100.0
 20
171.7510767281002
 30
0.0
 11
98.750000027900015
 21
171.00000046190021
 31
0.0
  0
LINE
  5
7533
  8
2
 10
98.750000027900015
 20
171.00000046190021
 30
0.0
 11
98.750000027900015
 21
163.00000101330019
 31
0.0
  0
LINE
  5
7534
  8
2
 10
98.750000027900015
 20
163.00000101330019
 30
0.0
 11
98.249999945999946
 21
162.5000000000002
 31
0.0
  0
LINE
  5
7535
  8
2
 10
98.750000027900015
 20
163.00000101330019
 30
0.0
 11
101.2499999721
 21
163.00000101330019
 31
0.0
  0
LINE
  5
7536
  8
2
 10
98.750000027900015
 20
171.00000046190021
 30
0.0
 11
101.2499999721
 21
171.00000046190021
 31
0.0
  0
LINE
  5
7537
  8
2
 10
98.500000000000014
 20
162.7500005389002
 30
0.0
 11
98.500000000000014
 21
168.8811374988002
 31
0.0
  0
LINE
  5
7538
  8
2
 10
98.500000000000014
 20
168.8811374988002
 30
0.0
 11
101.5
 21
168.8811374988002
 31
0.0
  0
LINE
  5
7539
  8
2
 10
101.5
 20
162.7500005389002
 30
0.0
 11
101.5
 21
168.8811374988002
 31
0.0
  0
LINE
  5
753A
  8
2
 10
251.750000054
 20
162.5000000000002
 30
0.0
 11
251.2499999721
 21
163.00000101330019
 31
0.0
  0
LINE
  5
753B
  8
2
 10
251.2499999721
 20
163.00000101330019
 30
0.0
 11
251.2499999721
 21
171.00000046190021
 31
0.0
  0
LINE
  5
753C
  8
2
 10
251.2499999721
 20
171.00000046190021
 30
0.0
 11
250.0
 21
171.7510767281002
 31
0.0
  0
LINE
  5
753D
  8
2
 10
250.0
 20
171.7510767281002
 30
0.0
 11
248.7500000279
 21
171.00000046190021
 31
0.0
  0
LINE
  5
753E
  8
2
 10
248.7500000279
 20
171.00000046190021
 30
0.0
 11
248.7500000279
 21
163.00000101330019
 31
0.0
  0
LINE
  5
753F
  8
2
 10
248.7500000279
 20
163.00000101330019
 30
0.0
 11
248.24999994599989
 21
162.5000000000002
 31
0.0
  0
LINE
  5
7540
  8
2
 10
248.7500000279
 20
163.00000101330019
 30
0.0
 11
251.2499999721
 21
163.00000101330019
 31
0.0
  0
LINE
  5
7541
  8
2
 10
248.7500000279
 20
171.00000046190021
 30
0.0
 11
251.2499999721
 21
171.00000046190021
 31
0.0
  0
LINE
  5
7542
  8
2
 10
248.5
 20
162.7500005389002
 30
0.0
 11
248.5
 21
168.8811374988002
 31
0.0
  0
LINE
  5
7543
  8
2
 10
248.5
 20
168.8811374988002
 30
0.0
 11
251.5
 21
168.8811374988002
 31
0.0
  0
LINE
  5
7544
  8
2
 10
251.5
 20
162.7500005389002
 30
0.0
 11
251.5
 21
168.8811374988002
 31
0.0
  0
LINE
  5
7545
  8
2
 10
401.750000054
 20
162.5000000000002
 30
0.0
 11
401.2499999721
 21
163.00000101330019
 31
0.0
  0
LINE
  5
7546
  8
2
 10
401.2499999721
 20
163.00000101330019
 30
0.0
 11
401.2499999721
 21
171.00000046190021
 31
0.0
  0
LINE
  5
7547
  8
2
 10
401.2499999721
 20
171.00000046190021
 30
0.0
 11
400.0
 21
171.7510767281002
 31
0.0
  0
LINE
  5
7548
  8
2
 10
400.0
 20
171.7510767281002
 30
0.0
 11
398.7500000279
 21
171.00000046190021
 31
0.0
  0
LINE
  5
7549
  8
2
 10
398.7500000279
 20
171.00000046190021
 30
0.0
 11
398.7500000279
 21
163.00000101330019
 31
0.0
  0
LINE
  5
754A
  8
2
 10
398.7500000279
 20
163.00000101330019
 30
0.0
 11
398.24999994599989
 21
162.5000000000002
 31
0.0
  0
LINE
  5
754B
  8
2
 10
398.7500000279
 20
163.00000101330019
 30
0.0
 11
401.2499999721
 21
163.00000101330019
 31
0.0
  0
LINE
  5
754C
  8
2
 10
398.7500000279
 20
171.00000046190021
 30
0.0
 11
401.2499999721
 21
171.00000046190021
 31
0.0
  0
LINE
  5
754D
  8
2
 10
398.5
 20
162.7500005389002
 30
0.0
 11
398.5
 21
168.8811374988002
 31
0.0
  0
LINE
  5
754E
  8
2
 10
398.5
 20
168.8811374988002
 30
0.0
 11
401.49999999999989
 21
168.8811374988002
 31
0.0
  0
LINE
  5
754F
  8
2
 10
401.49999999999989
 20
162.7500005389002
 30
0.0
 11
401.49999999999989
 21
168.8811374988002
 31
0.0
  0
CIRCLE
  5
755B
  8
3
 10
250.0
 20
80.000000000000227
 30
0.0
 40
1.5
  0
LINE
  5
75D8
  8
0
 10
85.000000335250306
 20
234.7880009561151
 30
0.0
 11
84.500000253350322
 21
234.7880009561151
 31
0.0
  0
LINE
  5
75D9
  8
0
 10
84.500000253350322
 20
241.28799922761499
 30
0.0
 11
85.000000335250306
 21
241.28799922761499
 31
0.0
  0
LINE
  5
75DA
  8
0
 10
85.060496813677673
 20
234.42750501425439
 30
0.0
 11
85.000000335250306
 21
234.4879996031151
 31
0.0
  0
LINE
  5
75DB
  8
0
 10
85.000000335250306
 20
241.5880005806151
 30
0.0
 11
85.060820013036718
 21
241.6488193022933
 31
0.0
  0
LINE
  5
75DC
  8
0
 10
84.500000253350322
 20
241.28799922761499
 30
0.0
 11
84.500000253350322
 21
234.7880009561151
 31
0.0
  0
LINE
  5
75DD
  8
0
 10
82.000000774850264
 20
241.21342636641509
 30
0.0
 11
82.000000774850264
 21
238.33800144491511
 31
0.0
  0
LINE
  5
75DE
  8
0
 10
82.000000774850264
 20
239.6257150918151
 30
0.0
 11
84.500000253350322
 21
239.6257150918151
 31
0.0
  0
LINE
  5
75DF
  8
0
 10
82.000000774850264
 20
241.21342636641509
 30
0.0
 11
84.500000253350322
 21
241.21342636641509
 31
0.0
  0
LINE
  5
75E0
  8
0
 10
82.599999755650273
 20
237.73799873881501
 30
0.0
 11
82.000000774850264
 21
237.73799873881501
 31
0.0
  0
LINE
  5
75E1
  8
0
 10
82.000000774850264
 20
236.4502888172151
 30
0.0
 11
84.500000253350322
 21
236.4502888172151
 31
0.0
  0
LINE
  5
75E2
  8
0
 10
82.599999755650273
 20
238.33800144491511
 30
0.0
 11
82.000000774850264
 21
238.33800144491511
 31
0.0
  0
LINE
  5
75E3
  8
0
 10
82.599999755650273
 20
238.33800144491511
 30
0.0
 11
82.599999755650273
 21
237.73799873881501
 31
0.0
  0
LINE
  5
75E4
  8
0
 10
82.000000774850264
 20
237.73799873881501
 30
0.0
 11
82.000000774850264
 21
234.86257381731511
 31
0.0
  0
LINE
  5
75E5
  8
0
 10
82.000000774850264
 20
234.86257381731511
 30
0.0
 11
84.500000253350322
 21
234.86257381731511
 31
0.0
  0
LINE
  5
75E6
  8
0
 10
85.000000335250306
 20
241.587996855315
 30
0.0
 11
85.000000335250306
 21
234.4879996031151
 31
0.0
  0
ARC
  5
75E7
  8
0
 10
70.262261685155295
 20
238.038001236453
 30
0.0
 40
15.232315841313991
 50
345.35956932683177
 51
14.64043067196644
  0
LINE
  5
75E8
  8
0
 10
114.9391801755157
 20
241.64882006984939
 30
0.0
 11
114.99999966475021
 21
241.5880005806151
 31
0.0
  0
LINE
  5
75E9
  8
0
 10
114.99999966475021
 20
234.4879996031151
 30
0.0
 11
114.93950355693011
 21
234.42750349529501
 31
0.0
  0
LINE
  5
75EA
  8
0
 10
114.99999966475021
 20
234.4879996031151
 30
0.0
 11
114.99999966475021
 21
241.5880005806151
 31
0.0
  0
ARC
  5
75EB
  8
0
 10
129.73773831657439
 20
238.03800123632041
 30
0.0
 40
15.232315842953581
 50
165.35956932897281
 51
194.6404306710408
  0
LINE
  5
7606
  8
0
 10
414.99999966474979
 20
234.7880009561151
 30
0.0
 11
415.49999974664979
 21
234.7880009561151
 31
0.0
  0
LINE
  5
7607
  8
0
 10
415.49999974664979
 20
241.28799922761499
 30
0.0
 11
414.99999966474979
 21
241.28799922761499
 31
0.0
  0
LINE
  5
7608
  8
0
 10
414.93950318632238
 20
234.42750501425439
 30
0.0
 11
414.99999966474979
 21
234.4879996031151
 31
0.0
  0
LINE
  5
7609
  8
0
 10
414.99999966474979
 20
241.5880005806151
 30
0.0
 11
414.93917998696338
 21
241.6488193022933
 31
0.0
  0
LINE
  5
760A
  8
0
 10
385.06081982448438
 20
241.64882006984939
 30
0.0
 11
385.00000033524992
 21
241.5880005806151
 31
0.0
  0
LINE
  5
760B
  8
0
 10
385.00000033524992
 20
234.4879996031151
 30
0.0
 11
385.06049644306989
 21
234.42750349529501
 31
0.0
  0
LINE
  5
760C
  8
0
 10
415.49999974664979
 20
241.28799922761499
 30
0.0
 11
415.49999974664979
 21
234.7880009561151
 31
0.0
  0
LINE
  5
760D
  8
0
 10
417.99999922514979
 20
241.21342636641509
 30
0.0
 11
417.99999922514979
 21
238.33800144491511
 31
0.0
  0
LINE
  5
760E
  8
0
 10
417.99999922514979
 20
239.6257150918151
 30
0.0
 11
415.49999974664979
 21
239.6257150918151
 31
0.0
  0
LINE
  5
760F
  8
0
 10
417.99999922514979
 20
241.21342636641509
 30
0.0
 11
415.49999974664979
 21
241.21342636641509
 31
0.0
  0
LINE
  5
7610
  8
0
 10
417.40000024434983
 20
237.73799873881501
 30
0.0
 11
417.99999922514979
 21
237.73799873881501
 31
0.0
  0
LINE
  5
7611
  8
0
 10
417.99999922514979
 20
236.4502888172151
 30
0.0
 11
415.49999974664979
 21
236.4502888172151
 31
0.0
  0
LINE
  5
7612
  8
0
 10
417.40000024434983
 20
238.33800144491511
 30
0.0
 11
417.99999922514979
 21
238.33800144491511
 31
0.0
  0
LINE
  5
7613
  8
0
 10
417.40000024434983
 20
238.33800144491511
 30
0.0
 11
417.40000024434983
 21
237.73799873881501
 31
0.0
  0
LINE
  5
7614
  8
0
 10
417.99999922514979
 20
237.73799873881501
 30
0.0
 11
417.99999922514979
 21
234.86257381731511
 31
0.0
  0
LINE
  5
7615
  8
0
 10
417.99999922514979
 20
234.86257381731511
 30
0.0
 11
415.49999974664979
 21
234.86257381731511
 31
0.0
  0
LINE
  5
7616
  8
0
 10
414.99999966474979
 20
241.587996855315
 30
0.0
 11
414.99999966474979
 21
234.4879996031151
 31
0.0
  0
LINE
  5
7617
  8
0
 10
385.00000033524992
 20
234.4879996031151
 30
0.0
 11
385.00000033524992
 21
241.5880005806151
 31
0.0
  0
ARC
  5
7618
  8
0
 10
370.26226168342572
 20
238.03800123632041
 30
0.0
 40
15.232315842953581
 50
345.35956932895903
 51
14.640430671027589
  0
ARC
  5
7619
  8
0
 10
429.73773831484482
 20
238.038001236453
 30
0.0
 40
15.232315841313991
 50
165.3595693280339
 51
194.64043067316831
  0
LINE
  5
7631
  8
0
 10
246.75
 20
369.28800143301493
 30
0.0
 11
246.75
 21
369.78800143301493
 31
0.0
  0
LINE
  5
7632
  8
0
 10
253.25
 20
369.78800143301493
 30
0.0
 11
253.25
 21
369.28800143301493
 31
0.0
  0
LINE
  5
7633
  8
0
 10
246.25
 20
369.08800143301488
 30
0.0
 11
246.44999999999999
 21
369.28800143301493
 31
0.0
  0
LINE
  5
7634
  8
0
 10
253.55000000000001
 20
369.28800143301493
 30
0.0
 11
253.75
 21
369.08800143301488
 31
0.0
  0
LINE
  5
7635
  8
0
 10
246.25
 20
368.81168898121479
 30
0.0
 11
246.25
 21
369.08800143301488
 31
0.0
  0
LINE
  5
7636
  8
0
 10
253.75
 20
369.08800143301488
 30
0.0
 11
253.75
 21
368.81168898121479
 31
0.0
  0
LINE
  5
7637
  8
0
 10
246.25
 20
339.4880014330148
 30
0.0
 11
246.25
 21
339.7643138847148
 31
0.0
  0
LINE
  5
7638
  8
0
 10
253.75
 20
339.7643138847148
 30
0.0
 11
253.75
 21
339.4880014330148
 31
0.0
  0
LINE
  5
7639
  8
0
 10
253.75
 20
339.4880014330148
 30
0.0
 11
253.55000000000001
 21
339.28800143301493
 31
0.0
  0
LINE
  5
763A
  8
0
 10
246.44999999999999
 20
339.28800143301493
 30
0.0
 11
246.25
 21
339.4880014330148
 31
0.0
  0
LINE
  5
763B
  8
0
 10
253.25
 20
369.78800143301493
 30
0.0
 11
246.75
 21
369.78800143301493
 31
0.0
  0
LINE
  5
763C
  8
0
 10
247.25
 20
372.28800143301493
 30
0.0
 11
247.25
 21
369.78800143301493
 31
0.0
  0
LINE
  5
763D
  8
0
 10
250.0
 20
372.28800143301493
 30
0.0
 11
250.0
 21
369.78800143301493
 31
0.0
  0
LINE
  5
763E
  8
0
 10
252.75
 20
372.28800143301493
 30
0.0
 11
252.75
 21
369.78800143301493
 31
0.0
  0
LINE
  5
763F
  8
0
 10
252.75
 20
372.28800143301493
 30
0.0
 11
247.25
 21
372.28800143301493
 31
0.0
  0
LINE
  5
7640
  8
0
 10
253.55000000000001
 20
369.28800143301493
 30
0.0
 11
246.44999999999999
 21
369.2880014330147
 31
0.0
  0
LINE
  5
7641
  8
0
 10
246.44999999999999
 20
339.28800143301493
 30
0.0
 11
253.55000000000001
 21
339.28800143301493
 31
0.0
  0
ENDSEC
  0
EOF
