  0
SECTION
  2
HEADER
  9
$ACADVER
  1
AC1009
  9
$INSBASE
 10
0.0
 20
0.0
 30
0.0
  9
$EXTMIN
 10
-0.0204638472032742
 20
-2.960436562073669
 30
0.0
  9
$EXTMAX
 10
209.99999999999989
 20
115.0
 30
0.0
  9
$LIMMIN
 10
0.0
 20
0.0
  9
$LIMMAX
 10
385.0
 20
270.0
  9
$ORTHOMODE
 70
     1
  9
$REGENMODE
 70
     1
  9
$FILLMODE
 70
     1
  9
$QTEXTMODE
 70
     0
  9
$MIRRTEXT
 70
     0
  9
$DRAGMODE
 70
     2
  9
$LTSCALE
 40
5.0
  9
$OSMODE
 70
    37
  9
$ATTMODE
 70
     1
  9
$TEXTSIZE
 40
4.000000000000048
  9
$TRACEWID
 40
0.05
  9
$TEXTSTYLE
  7
STANDARD
  9
$CLAYER
  8
0
  9
$CELTYPE
  6
BYLAYER
  9
$CECOLOR
 62
   256
  9
$DIMSCALE
 40
1.0
  9
$DIMASZ
 40
3.0
  9
$DIMEXO
 40
2.0
  9
$DIMDLI
 40
0.38
  9
$DIMRND
 40
0.0
  9
$DIMDLE
 40
0.0
  9
$DIMEXE
 40
2.0
  9
$DIMTP
 40
0.0
  9
$DIMTM
 40
0.0
  9
$DIMTXT
 40
3.0
  9
$DIMCEN
 40
0.0
  9
$DIMTSZ
 40
0.0
  9
$DIMTOL
 70
     0
  9
$DIMLIM
 70
     0
  9
$DIMTIH
 70
     0
  9
$DIMTOH
 70
     0
  9
$DIMSE1
 70
     0
  9
$DIMSE2
 70
     0
  9
$DIMTAD
 70
     1
  9
$DIMZIN
 70
     0
  9
$DIMBLK
  1

  9
$DIMASO
 70
     0
  9
$DIMSHO
 70
     0
  9
$DIMPOST
  1

  9
$DIMAPOST
  1

  9
$DIMALT
 70
     0
  9
$DIMALTD
 70
     2
  9
$DIMALTF
 40
25.399999999999999
  9
$DIMLFAC
 40
1.0
  9
$DIMTOFL
 70
     1
  9
$DIMTVP
 40
1.6000000000000001
  9
$DIMTIX
 70
     1
  9
$DIMSOXD
 70
     0
  9
$DIMSAH
 70
     0
  9
$DIMBLK1
  1

  9
$DIMBLK2
  1

  9
$DIMSTYLE
  2
STANDARD
  9
$DIMCLRD
 70
     0
  9
$DIMCLRE
 70
     0
  9
$DIMCLRT
 70
     0
  9
$DIMTFAC
 40
1.0
  9
$DIMGAP
 40
1.0
  9
$LUNITS
 70
     2
  9
$LUPREC
 70
     4
  9
$SKETCHINC
 40
0.1
  9
$FILLETRAD
 40
0.0
  9
$AUNITS
 70
     0
  9
$AUPREC
 70
     4
  9
$MENU
  1
E:\r13\win\SUPPORT\ACAD
  9
$ELEVATION
 40
0.0
  9
$PELEVATION
 40
0.0
  9
$THICKNESS
 40
0.0
  9
$LIMCHECK
 70
     0
  9
$BLIPMODE
 70
     0
  9
$CHAMFERA
 40
0.0
  9
$CHAMFERB
 40
0.0
  9
$SKPOLY
 70
     0
  9
$TDCREATE
 40
2450280.598206134
  9
$TDUPDATE
 40
2456923.4968486689
  9
$TDINDWG
 40
0.1933933565
  9
$TDUSRTIMER
 40
0.1933933565
  9
$USRTIMER
 70
     1
  9
$ANGBASE
 50
0.0
  9
$ANGDIR
 70
     0
  9
$PDMODE
 70
     0
  9
$PDSIZE
 40
0.0
  9
$PLINEWID
 40
0.0
  9
$COORDS
 70
     1
  9
$SPLFRAME
 70
     0
  9
$SPLINETYPE
 70
     6
  9
$SPLINESEGS
 70
     8
  9
$ATTDIA
 70
     0
  9
$ATTREQ
 70
     1
  9
$HANDLING
 70
     1
  9
$HANDSEED
  5
1ADD
  9
$SURFTAB1
 70
     6
  9
$SURFTAB2
 70
     6
  9
$SURFTYPE
 70
     6
  9
$SURFU
 70
     6
  9
$SURFV
 70
     6
  9
$UCSNAME
  2

  9
$UCSORG
 10
0.0
 20
0.0
 30
0.0
  9
$UCSXDIR
 10
1.0
 20
0.0
 30
0.0
  9
$UCSYDIR
 10
0.0
 20
1.0
 30
0.0
  9
$PUCSNAME
  2

  9
$PUCSORG
 10
0.0
 20
0.0
 30
0.0
  9
$PUCSXDIR
 10
1.0
 20
0.0
 30
0.0
  9
$PUCSYDIR
 10
0.0
 20
1.0
 30
0.0
  9
$USERI1
 70
     3
  9
$USERI2
 70
     1
  9
$USERI3
 70
     1
  9
$USERI4
 70
     0
  9
$USERI5
 70
     0
  9
$USERR1
 40
1.0
  9
$USERR2
 40
3.0
  9
$USERR3
 40
3.0
  9
$USERR4
 40
3.0
  9
$USERR5
 40
10.0
  9
$WORLDVIEW
 70
     1
  9
$SHADEDGE
 70
     3
  9
$SHADEDIF
 70
    70
  9
$TILEMODE
 70
     1
  9
$MAXACTVP
 70
    16
  9
$PLIMCHECK
 70
     0
  9
$PEXTMIN
 10
1.0000000000000000E+020
 20
1.0000000000000000E+020
 30
1.0000000000000000E+020
  9
$PEXTMAX
 10
-1.0000000000000000E+020
 20
-1.0000000000000000E+020
 30
-1.0000000000000000E+020
  9
$PLIMMIN
 10
0.0
 20
0.0
  9
$PLIMMAX
 10
12.0
 20
9.0
  9
$UNITMODE
 70
     0
  9
$VISRETAIN
 70
     0
  9
$PLINEGEN
 70
     0
  9
$PSLTSCALE
 70
     0
  0
ENDSEC
  0
SECTION
  2
TABLES
  0
TABLE
  2
VPORT
 70
     1
  0
VPORT
  2
*ACTIVE
 70
     0
 10
0.0
 20
0.0
 11
1.0
 21
1.0
 12
314.18636995827541
 22
180.0
 13
0.0
 23
0.0
 14
5.0
 24
5.0
 15
10.0
 25
10.0
 16
0.0
 26
0.0
 36
1.0
 17
0.0
 27
0.0
 37
0.0
 40
360.0
 41
1.7454798331015291
 42
50.0
 43
0.0
 44
0.0
 50
0.0
 51
0.0
 71
     0
 72
   500
 73
     1
 74
     0
 75
     0
 76
     0
 77
     0
 78
     2
  0
ENDTAB
  0
TABLE
  2
LTYPE
 70
     3
  0
LTYPE
  2
CONTINUOUS
 70
     0
  3
Solid Line
 72
    65
 73
     0
 40
0.0
  0
LTYPE
  2
CENTER
 70
     0
  3
____ _ ____ _ ____ _ ____ _ ____ _ ____ _ ____
 72
    65
 73
     4
 40
2.0
 49
1.25
 49
-0.25
 49
0.25
 49
-0.25
  0
LTYPE
  2
PHANTOM2
 70
     0
  3
___ _ _ ___ _ _ ___ _ _ ___ _ _
 72
    65
 73
     6
 40
1.25
 49
0.625
 49
-0.125
 49
0.125
 49
-0.125
 49
0.125
 49
-0.125
  0
ENDTAB
  0
TABLE
  2
LAYER
 70
     3
  0
LAYER
  2
0
 70
     0
 62
     7
  6
CONTINUOUS
  0
LAYER
  2
1
 70
     0
 62
     1
  6
CENTER
  0
LAYER
  2
3
 70
     0
 62
     3
  6
CONTINUOUS
  0
ENDTAB
  0
TABLE
  2
STYLE
 70
     2
  0
STYLE
  2
STANDARD
 70
     0
 40
0.0
 41
1.0
 50
0.0
 71
     0
 42
4.000000000000048
  3
SIMPLEX
  4
BIGFONT
  0
STYLE
  2
STANDARD1
 70
     0
 40
0.0
 41
1.0
 50
0.0
 71
     0
 42
3.0
  3
txt
  4

  0
ENDTAB
  0
TABLE
  2
VIEW
 70
     0
  0
ENDTAB
  0
TABLE
  2
UCS
 70
     0
  0
ENDTAB
  0
TABLE
  2
APPID
 70
     4
  0
APPID
  2
ACAD
 70
     0
  0
APPID
  2
ACAD_MLEADERVER
 70
     0
  0
APPID
  2
ACAD_EXEMPT_FROM_CAD_STANDARDS
 70
     0
  0
APPID
  2
ACAD_NAV_VCDISPLAY
 70
     0
  0
ENDTAB
  0
TABLE
  2
DIMSTYLE
 70
     1
  0
DIMSTYLE
  2
STANDARD
 70
     0
  3

  4

  5

  6

  7

 40
1.0
 41
0.18
 42
0.0625
 43
0.38
 44
0.18
 45
0.0
 46
0.0
 47
0.0
 48
0.0
140
0.18
141
0.09
142
0.0
143
25.399999999999999
144
1.0
145
0.0
146
1.0
147
0.09
 71
     0
 72
     0
 73
     1
 74
     1
 75
     0
 76
     0
 77
     0
 78
     0
170
     0
171
     2
172
     0
173
     0
174
     0
175
     0
176
     0
177
     0
178
     0
  0
ENDTAB
  0
ENDSEC
  0
SECTION
  2
BLOCKS
  0
BLOCK
  8
0
  2
$MODEL_SPACE
 70
     0
 10
0.0
 20
0.0
 30
0.0
  3
$MODEL_SPACE
  1

  0
ENDBLK
  5
175
  8
0
  0
BLOCK
 67
     1
  8
0
  2
$PAPER_SPACE
 70
     0
 10
0.0
 20
0.0
 30
0.0
  3
$PAPER_SPACE
  1

  0
ENDBLK
  5
173
 67
     1
  8
0
  0
ENDSEC
  0
SECTION
  2
ENTITIES
  0
TEXT
  5
9BF
  8
0
 62
     3
 10
0.0
 20
0.0
 30
0.0
 40
10.0
  1
AMWPD63-M16
  7
STANDARD1
  0
LINE
  5
1534
  8
0
 10
108.7999999999998
 20
110.0
 30
0.0
 11
107.1999999999997
 21
110.0
 31
0.0
  0
LINE
  5
1535
  8
0
 10
107.1999999999999
 20
90.0
 30
0.0
 11
108.7999999999998
 21
90.0
 31
0.0
  0
LINE
  5
1536
  8
0
 10
108.7999999999998
 20
90.0
 30
0.0
 11
108.9999999999999
 21
90.200000000000045
 31
0.0
  0
LINE
  5
1537
  8
0
 10
108.9999999999996
 20
109.8
 30
0.0
 11
108.7999999999998
 21
110.0
 31
0.0
  0
LINE
  5
1538
  8
0
 10
107.1999999999997
 20
110.0
 30
0.0
 11
106.9999999999996
 21
109.8
 31
0.0
  0
LINE
  5
1539
  8
0
 10
106.9999999999999
 20
90.200000000000045
 30
0.0
 11
107.1999999999999
 21
90.0
 31
0.0
  0
LINE
  5
153A
  8
0
 10
91.999999999999886
 20
108.0
 30
0.0
 11
89.999999999999886
 21
106.0
 31
0.0
  0
LINE
  5
153B
  8
0
 10
89.999999999999886
 20
94.0
 30
0.0
 11
91.999999999999886
 21
92.0
 31
0.0
  0
LINE
  5
153C
  8
0
 10
102.9999999999999
 20
108.0
 30
0.0
 11
91.999999999999886
 21
108.0
 31
0.0
  0
LINE
  5
153D
  8
0
 10
91.999999999999886
 20
92.0
 30
0.0
 11
102.9999999999999
 21
92.0
 31
0.0
  0
ARC
  5
153E
  8
0
 10
103.9999999999999
 20
107.5
 30
0.0
 40
1.0
 50
180.0
 51
270.0
  0
ARC
  5
153F
  8
0
 10
103.9999999999999
 20
92.5
 30
0.0
 40
1.0
 50
90.0
 51
180.0
  0
ARC
  5
1540
  8
0
 10
105.9999999999999
 20
92.5
 30
0.0
 40
1.0
 50
0.0
 51
90.0
  0
ARC
  5
1541
  8
0
 10
105.9999999999999
 20
107.5
 30
0.0
 40
1.0
 50
270.0
 51
0.0
  0
LINE
  5
1542
  8
0
 10
103.9999999999999
 20
93.499999999999986
 30
0.0
 11
105.9999999999999
 21
93.499999999999986
 31
0.0
  0
LINE
  5
1543
  8
0
 10
105.9999999999999
 20
106.5
 30
0.0
 11
103.9999999999999
 21
106.5
 31
0.0
  0
ARC
  5
1544
  8
0
 10
109.39999999999969
 20
106.40000000000011
 30
0.0
 40
0.4000000000000057
 50
180.0
 51
270.0
  0
ARC
  5
1545
  8
0
 10
109.39999999999969
 20
93.600000000000023
 30
0.0
 40
0.4000000000000341
 50
90.0
 51
180.0
  0
LINE
  5
1546
  8
0
 10
151.99999999999989
 20
106.0000000000002
 30
0.0
 11
149.9131397208142
 21
106.0000000000002
 31
0.0
  0
LINE
  5
1547
  8
0
 10
149.9131397208142
 20
94.000000000000227
 30
0.0
 11
151.99999999999989
 21
94.000000000000227
 31
0.0
  0
LINE
  5
1548
  8
0
 10
149.9131397208142
 20
106.0000000000002
 30
0.0
 11
145.14999999999969
 21
103.2500000000002
 31
0.0
  0
LINE
  5
1549
  8
0
 10
145.14999999999969
 20
96.750000000000227
 30
0.0
 11
149.9131397208142
 21
94.000000000000227
 31
0.0
  0
LINE
  5
154A
  8
0
 10
138.29999999999981
 20
94.000000000000227
 30
0.0
 11
138.49999999999989
 21
94.200000000000145
 31
0.0
  0
LINE
  5
154B
  8
0
 10
138.49999999999989
 20
105.8000000000002
 30
0.0
 11
138.29999999999981
 21
106.0000000000002
 31
0.0
  0
LINE
  5
154C
  8
0
 10
138.29999999999981
 20
106.0000000000002
 30
0.0
 11
109.39999999999969
 21
106.0
 31
0.0
  0
LINE
  5
154D
  8
0
 10
109.39999999999969
 20
94.0
 30
0.0
 11
138.29999999999981
 21
94.000000000000227
 31
0.0
  0
ARC
  5
154E
  8
0
 10
141.1958301133414
 20
94.050000000000182
 30
0.0
 40
2.7000000000000259
 50
90.0
 51
176.81526146328031
  0
ARC
  5
154F
  8
0
 10
141.1958301133414
 20
105.9500000000001
 30
0.0
 40
2.6999999999999988
 50
183.18473853671969
 51
270.0
  0
ARC
  5
1550
  8
0
 10
151.99999999999989
 20
103.0000000000002
 30
0.0
 40
3.0
 50
0.0
 51
90.0
  0
ARC
  5
1551
  8
0
 10
151.99999999999989
 20
97.000000000000242
 30
0.0
 40
3.0
 50
270.0
 51
0.0
  0
LINE
  5
1552
  8
0
 10
145.14999999999969
 20
103.2500000000002
 30
0.0
 11
141.1958301133414
 21
103.2500000000002
 31
0.0
  0
LINE
  5
1553
  8
0
 10
141.1958301133414
 20
96.750000000000227
 30
0.0
 11
145.14999999999969
 21
96.750000000000227
 31
0.0
  0
LINE
  5
1556
  8
0
 10
108.9999999999996
 20
109.8
 30
0.0
 11
108.9999999999999
 21
90.200000000000045
 31
0.0
  0
LINE
  5
1557
  8
0
 10
106.9999999999999
 20
90.200000000000045
 30
0.0
 11
106.9999999999996
 21
109.8
 31
0.0
  0
LINE
  5
1558
  8
0
 10
89.999999999999886
 20
94.0
 30
0.0
 11
89.999999999999886
 21
106.0
 31
0.0
  0
LINE
  5
1559
  8
0
 10
91.999999999999886
 20
108.0
 30
0.0
 11
91.999999999999886
 21
92.0
 31
0.0
  0
LINE
  5
155A
  8
0
 10
102.9999999999999
 20
108.0
 30
0.0
 11
102.9999999999999
 21
92.0
 31
0.0
  0
LINE
  5
155B
  8
0
 10
149.9131397208142
 20
106.0000000000002
 30
0.0
 11
149.9131397208142
 21
94.000000000000227
 31
0.0
  0
LINE
  5
155C
  8
0
 10
150.99999999999989
 20
103.3166247903556
 30
0.0
 11
150.99999999999989
 21
96.683375209644737
 31
0.0
  0
LINE
  5
155D
  8
0
 10
150.99999999999989
 20
96.683375209644737
 30
0.0
 11
151.99999999999989
 21
96.683375209644737
 31
0.0
  0
LINE
  5
155E
  8
0
 10
151.99999999999989
 20
103.3166247903556
 30
0.0
 11
150.99999999999989
 21
103.3166247903556
 31
0.0
  0
LINE
  5
155F
  8
0
 10
145.14999999999969
 20
103.2500000000002
 30
0.0
 11
145.14999999999969
 21
96.750000000000227
 31
0.0
  0
LINE
  5
1560
  8
0
 10
138.49999999999989
 20
105.8000000000002
 30
0.0
 11
138.49999999999989
 21
94.200000000000145
 31
0.0
  0
LINE
  5
1562
  8
0
 10
154.99999999999989
 20
103.0000000000002
 30
0.0
 11
154.99999999999989
 21
97.000000082288125
 31
0.0
  0
POLYLINE
  5
1563
  8
0
 66
     1
 10
0.0
 20
0.0
 30
0.0
 70
   128
  0
VERTEX
  5
1ACB
  8
0
 10
151.99999999999989
 20
96.683375209644737
 30
0.0
  0
VERTEX
  5
1ACC
  8
0
 10
152.2307652961295
 20
96.699482502863134
 30
0.0
  0
VERTEX
  5
1ACD
  8
0
 10
152.76536274339341
 20
96.866537903950643
 30
0.0
  0
VERTEX
  5
1ACE
  8
0
 10
153.24425274528659
 20
97.201667487469535
 30
0.0
  0
VERTEX
  5
1ACF
  8
0
 10
153.52933249297561
 20
97.521040453206766
 30
0.0
  0
VERTEX
  5
1AD0
  8
0
 10
153.75954884879491
 20
97.882723047756826
 30
0.0
  0
VERTEX
  5
1AD1
  8
0
 10
154.00349469475699
 20
98.455910583408013
 30
0.0
  0
VERTEX
  5
1AD2
  8
0
 10
154.1547705151653
 20
99.061400417681185
 30
0.0
  0
VERTEX
  5
1AD3
  8
0
 10
154.2360679774996
 20
100.0000000000002
 30
0.0
  0
VERTEX
  5
1AD4
  8
0
 10
154.18875139327389
 20
100.72368457502991
 30
0.0
  0
VERTEX
  5
1AD5
  8
0
 10
154.03839472052169
 20
101.43237254218811
 30
0.0
  0
VERTEX
  5
1AD6
  8
0
 10
153.86824441301189
 20
101.8954938116993
 30
0.0
  0
VERTEX
  5
1AD7
  8
0
 10
153.6341627094626
 20
102.32908251796989
 30
0.0
  0
VERTEX
  5
1AD8
  8
0
 10
153.39663136586941
 20
102.64167535467421
 30
0.0
  0
VERTEX
  5
1AD9
  8
0
 10
153.1124958887566
 20
102.911864104145
 30
0.0
  0
VERTEX
  5
1ADA
  8
0
 10
152.56455012196841
 20
103.2186477820848
 30
0.0
  0
VERTEX
  5
1ADB
  8
0
 10
151.99999999999989
 20
103.3166247903556
 30
0.0
  0
SEQEND
  5
1ADC
  8
0
  0
LINE
  5
1564
  8
0
 10
103.9999999999999
 20
106.5
 30
0.0
 11
103.9999999999999
 21
93.499999999999986
 31
0.0
  0
LINE
  5
1565
  8
0
 10
105.9999999999999
 20
93.499999999999986
 30
0.0
 11
105.9999999999999
 21
106.5
 31
0.0
  0
LINE
  5
1567
  8
0
 10
151.99999999999989
 20
94.000000000000227
 30
0.0
 11
151.99999999999989
 21
96.683375209644737
 31
0.0
  0
LINE
  5
1568
  8
0
 10
151.99999999999989
 20
103.3166247903556
 30
0.0
 11
151.99999999999989
 21
106.0000000000002
 31
0.0
  0
LINE
  5
1569
  8
0
 10
141.1958301133414
 20
103.2500000000002
 30
0.0
 11
141.1958301133414
 21
96.750000000000227
 31
0.0
  0
LINE
  5
156A
  8
3
 10
90.999999240040665
 20
92.999999783933163
 30
0.0
 11
102.9999998100101
 21
92.999999783933163
 31
0.0
  0
LINE
  5
156B
  8
3
 10
102.9999998100101
 20
107.00000021606679
 30
0.0
 11
90.999999240040665
 21
107.00000021606679
 31
0.0
  0
LINE
  5
156C
  8
0
 10
108.7999999999998
 20
60.0
 30
0.0
 11
107.1999999999999
 21
60.0
 31
0.0
  0
LINE
  5
156D
  8
0
 10
107.1999999999999
 20
40.0
 30
0.0
 11
108.7999999999998
 21
40.0
 31
0.0
  0
LINE
  5
156E
  8
0
 10
107.1999999999999
 20
60.0
 30
0.0
 11
106.9999999999999
 21
59.800000000000061
 31
0.0
  0
LINE
  5
156F
  8
0
 10
106.9999999999999
 20
40.200000000000038
 30
0.0
 11
107.1999999999999
 21
40.0
 31
0.0
  0
LINE
  5
1570
  8
0
 10
108.7999999999998
 20
40.0
 30
0.0
 11
108.9999999999999
 21
40.200000000000038
 31
0.0
  0
LINE
  5
1571
  8
0
 10
108.9999999999999
 20
59.800000000000061
 30
0.0
 11
108.7999999999998
 21
60.0
 31
0.0
  0
LINE
  5
1572
  8
0
 10
91.999999999999886
 20
57.999999999999993
 30
0.0
 11
89.999999999999886
 21
55.999999999999993
 31
0.0
  0
LINE
  5
1573
  8
0
 10
89.999999999999886
 20
43.999999999999993
 30
0.0
 11
91.999999999999886
 21
41.999999999999993
 31
0.0
  0
LINE
  5
1574
  8
0
 10
102.9999999999999
 20
57.999999999999993
 30
0.0
 11
91.999999999999886
 21
57.999999999999993
 31
0.0
  0
LINE
  5
1575
  8
0
 10
91.999999999999886
 20
41.999999999999993
 30
0.0
 11
102.9999999999999
 21
41.999999999999993
 31
0.0
  0
ARC
  5
1576
  8
0
 10
103.9999999999999
 20
57.5
 30
0.0
 40
1.0
 50
180.0
 51
270.0
  0
ARC
  5
1577
  8
0
 10
103.9999999999999
 20
42.499999999999993
 30
0.0
 40
1.0
 50
90.0
 51
180.0
  0
ARC
  5
1578
  8
0
 10
105.9999999999999
 20
42.499999999999993
 30
0.0
 40
1.0
 50
0.0
 51
90.0
  0
ARC
  5
1579
  8
0
 10
105.9999999999999
 20
57.5
 30
0.0
 40
1.0
 50
270.0
 51
0.0
  0
LINE
  5
157A
  8
0
 10
103.9999999999999
 20
43.499999999999993
 30
0.0
 11
105.9999999999999
 21
43.499999999999993
 31
0.0
  0
LINE
  5
157B
  8
0
 10
105.9999999999999
 20
56.499999999999993
 30
0.0
 11
103.9999999999999
 21
56.499999999999993
 31
0.0
  0
ARC
  5
157C
  8
0
 10
109.39999999999969
 20
56.39999999999997
 30
0.0
 40
0.4000000000000341
 50
180.0
 51
270.0
  0
ARC
  5
157D
  8
0
 10
109.39999999999969
 20
43.600000000000023
 30
0.0
 40
0.4000000000000341
 50
90.0
 51
180.0
  0
LINE
  5
157E
  8
0
 10
138.29999999999981
 20
55.999999999999993
 30
0.0
 11
109.39999999999969
 21
55.999999999999993
 31
0.0
  0
LINE
  5
157F
  8
0
 10
109.39999999999969
 20
43.999999999999993
 30
0.0
 11
138.29999999999981
 21
43.999999999999993
 31
0.0
  0
LINE
  5
1580
  8
0
 10
138.29999999999981
 20
43.999999999999993
 30
0.0
 11
138.49999999999989
 21
44.200000000000038
 31
0.0
  0
LINE
  5
1581
  8
0
 10
138.49999999999989
 20
55.800000000000061
 30
0.0
 11
138.29999999999981
 21
55.999999999999993
 31
0.0
  0
LINE
  5
1582
  8
0
 10
149.9131397208142
 20
55.999999999999993
 30
0.0
 11
145.14999999999969
 21
53.249999999999993
 31
0.0
  0
LINE
  5
1583
  8
0
 10
145.14999999999969
 20
46.749999999999993
 30
0.0
 11
149.9131397208142
 21
43.999999999999993
 31
0.0
  0
LINE
  5
1584
  8
0
 10
150.99999999999989
 20
55.999999999999993
 30
0.0
 11
149.9131397208142
 21
55.999999999999993
 31
0.0
  0
LINE
  5
1585
  8
0
 10
149.9131397208142
 20
43.999999999999993
 30
0.0
 11
150.99999999999989
 21
43.999999999999993
 31
0.0
  0
ARC
  5
1586
  8
0
 10
151.99999999999989
 20
52.999999999999993
 30
0.0
 40
3.0
 50
0.0
 51
41.804298531537732
  0
ARC
  5
1587
  8
0
 10
151.99999999999989
 20
46.999999999999993
 30
0.0
 40
3.0
 50
318.20112323241381
 51
0.0
  0
ARC
  5
1588
  8
0
 10
141.1958301133414
 20
44.050000000000061
 30
0.0
 40
2.700000000000002
 50
90.0
 51
176.81526146328031
  0
ARC
  5
1589
  8
0
 10
141.1958301133414
 20
55.950000000000038
 30
0.0
 40
2.699999999999998
 50
183.18473853671969
 51
270.0
  0
LINE
  5
158A
  8
0
 10
145.14999999999969
 20
53.249999999999993
 30
0.0
 11
141.1958301133414
 21
53.249999999999993
 31
0.0
  0
LINE
  5
158B
  8
0
 10
141.1958301133414
 20
46.749999999999993
 30
0.0
 11
145.14999999999969
 21
46.749999999999993
 31
0.0
  0
LINE
  5
1590
  8
0
 10
106.9999999999999
 20
40.200000000000038
 30
0.0
 11
107.0
 21
59.800000000000061
 31
0.0
  0
LINE
  5
1591
  8
0
 10
108.9999999999999
 20
59.800000000000061
 30
0.0
 11
108.9999999999999
 21
40.200000000000038
 31
0.0
  0
LINE
  5
1593
  8
0
 10
89.999999999999886
 20
43.999999999999993
 30
0.0
 11
89.999999999999758
 21
55.999999999999993
 31
0.0
  0
LINE
  5
1594
  8
0
 10
91.999999999999886
 20
57.999999999999993
 30
0.0
 11
91.999999999999886
 21
41.999999999999993
 31
0.0
  0
LINE
  5
1596
  8
0
 10
102.9999999999999
 20
57.999999999999993
 30
0.0
 11
102.9999999999999
 21
41.999999999999993
 31
0.0
  0
LINE
  5
1598
  8
0
 10
138.49999999999989
 20
55.800000000000061
 30
0.0
 11
138.49999999999989
 21
44.200000000000038
 31
0.0
  0
LINE
  5
1599
  8
0
 10
149.9131397208142
 20
55.999999999999993
 30
0.0
 11
149.9131397208142
 21
43.999999999999993
 31
0.0
  0
LINE
  5
159A
  8
0
 10
145.14999999999969
 20
53.249999999999993
 30
0.0
 11
145.14999999999969
 21
46.749999999999993
 31
0.0
  0
LINE
  5
159B
  8
0
 10
150.99999999999989
 20
55.999999999999993
 30
0.0
 11
150.99999999999989
 21
55.0
 31
0.0
  0
LINE
  5
159D
  8
0
 10
151.99999999999989
 20
44.999999999999993
 30
0.0
 11
151.99999999999989
 21
55.0
 31
0.0
  0
LINE
  5
159F
  8
0
 10
150.99999999999989
 20
44.999999999999993
 30
0.0
 11
150.99999999999989
 21
43.999999999999993
 31
0.0
  0
LINE
  5
15A0
  8
0
 10
154.99999999999989
 20
52.999999999999993
 30
0.0
 11
154.99999999999989
 21
46.999999999999993
 31
0.0
  0
LINE
  5
15A1
  8
0
 10
150.9999999999998
 20
44.999999999999993
 30
0.0
 11
154.2360679774996
 21
44.999999999999993
 31
0.0
  0
LINE
  5
15A2
  8
0
 10
151.0
 20
55.0
 30
0.0
 11
154.2358903335911
 21
55.0
 31
0.0
  0
LINE
  5
15A3
  8
0
 10
103.9999999999999
 20
56.499999999999993
 30
0.0
 11
103.9999999999999
 21
43.499999999999993
 31
0.0
  0
LINE
  5
15A5
  8
0
 10
105.9999999999999
 20
43.499999999999993
 30
0.0
 11
105.9999999999999
 21
56.499999999999993
 31
0.0
  0
LINE
  5
15A7
  8
0
 10
141.1958301133414
 20
53.249999999999993
 30
0.0
 11
141.1958301133414
 21
46.749999999999993
 31
0.0
  0
LINE
  5
15A9
  8
3
 10
90.999999240040665
 20
42.999999783933148
 30
0.0
 11
102.9999998100101
 21
42.999999783933148
 31
0.0
  0
LINE
  5
15AA
  8
3
 10
102.9999998100101
 20
57.00000021606683
 30
0.0
 11
90.999999240040665
 21
57.00000021606683
 31
0.0
  0
CIRCLE
  5
15AB
  8
3
 10
50.000000000000227
 20
100.0
 30
0.0
 40
7.0000002160668373
  0
CIRCLE
  5
15AC
  8
0
 10
50.000000000000227
 20
100.0
 30
0.0
 40
8.0000000000000142
  0
CIRCLE
  5
15AD
  8
0
 10
50.0
 20
100.0
 30
0.0
 40
10.0
  0
CIRCLE
  5
15B0
  8
0
 10
194.9999999999996
 20
100.0000000000002
 30
0.0
 40
3.0
  0
LINE
  5
15B2
  8
0
 10
199.9999999999996
 20
103.3166247903556
 30
0.0
 11
199.9999999999996
 21
96.683375209644851
 31
0.0
  0
LINE
  5
15B4
  8
0
 10
189.9999999999996
 20
96.683375209644737
 30
0.0
 11
189.9999999999996
 21
103.3166247903556
 31
0.0
  0
CIRCLE
  5
15B9
  8
0
 10
194.99999999999989
 20
100.0
 30
0.0
 40
10.0
  0
CIRCLE
  5
18E3
  8
0
 10
194.9999999999996
 20
100.0000000000002
 30
0.0
 40
6.0
  0
LINE
  5
18EA
  8
1
 10
209.99999999999989
 20
100.0
 30
0.0
 11
179.99999999999989
 21
100.0
 31
0.0
  0
LINE
  5
18EB
  8
1
 10
159.99999999999989
 20
50.0
 30
0.0
 11
84.999999999999886
 21
50.0
 31
0.0
  0
LINE
  5
18EC
  8
1
 10
50.000000000000227
 20
115.0
 30
0.0
 11
50.000000000000227
 21
85.0
 31
0.0
  0
LINE
  5
18ED
  8
1
 10
194.99999999999989
 20
115.0
 30
0.0
 11
194.99999999999989
 21
85.0
 31
0.0
  0
LINE
  5
18F2
  8
1
 10
65.0
 20
100.0
 30
0.0
 11
35.0
 21
100.0
 31
0.0
  0
LINE
  5
18F3
  8
1
 10
159.99999999999989
 20
100.0
 30
0.0
 11
84.999999999999886
 21
100.0
 31
0.0
  0
ENDSEC
  0
EOF
