  0
SECTION
  2
HEADER
  9
$ACADVER
  1
AC1009
  9
$INSBASE
 10
0.0
 20
0.0
 30
0.0
  9
$EXTMIN
 10
-0.0204638472032742
 20
-2.960436562073669
 30
0.0
  9
$EXTMAX
 10
206.0
 20
115.0000000000001
 30
0.0
  9
$LIMMIN
 10
0.0
 20
0.0
  9
$LIMMAX
 10
385.0
 20
270.0
  9
$ORTHOMODE
 70
     1
  9
$REGENMODE
 70
     1
  9
$FILLMODE
 70
     1
  9
$QTEXTMODE
 70
     0
  9
$MIRRTEXT
 70
     0
  9
$DRAGMODE
 70
     2
  9
$LTSCALE
 40
5.0
  9
$OSMODE
 70
    37
  9
$ATTMODE
 70
     1
  9
$TEXTSIZE
 40
4.000000000000048
  9
$TRACEWID
 40
0.05
  9
$TEXTSTYLE
  7
STANDARD
  9
$CLAYER
  8
0
  9
$CELTYPE
  6
BYLAYER
  9
$CECOLOR
 62
   256
  9
$DIMSCALE
 40
1.0
  9
$DIMASZ
 40
3.0
  9
$DIMEXO
 40
2.0
  9
$DIMDLI
 40
0.38
  9
$DIMRND
 40
0.0
  9
$DIMDLE
 40
0.0
  9
$DIMEXE
 40
2.0
  9
$DIMTP
 40
0.0
  9
$DIMTM
 40
0.0
  9
$DIMTXT
 40
3.0
  9
$DIMCEN
 40
0.0
  9
$DIMTSZ
 40
0.0
  9
$DIMTOL
 70
     0
  9
$DIMLIM
 70
     0
  9
$DIMTIH
 70
     0
  9
$DIMTOH
 70
     0
  9
$DIMSE1
 70
     0
  9
$DIMSE2
 70
     0
  9
$DIMTAD
 70
     1
  9
$DIMZIN
 70
     0
  9
$DIMBLK
  1

  9
$DIMASO
 70
     0
  9
$DIMSHO
 70
     0
  9
$DIMPOST
  1

  9
$DIMAPOST
  1

  9
$DIMALT
 70
     0
  9
$DIMALTD
 70
     2
  9
$DIMALTF
 40
25.399999999999999
  9
$DIMLFAC
 40
1.0
  9
$DIMTOFL
 70
     1
  9
$DIMTVP
 40
1.6000000000000001
  9
$DIMTIX
 70
     1
  9
$DIMSOXD
 70
     0
  9
$DIMSAH
 70
     0
  9
$DIMBLK1
  1

  9
$DIMBLK2
  1

  9
$DIMSTYLE
  2
STANDARD
  9
$DIMCLRD
 70
     0
  9
$DIMCLRE
 70
     0
  9
$DIMCLRT
 70
     0
  9
$DIMTFAC
 40
1.0
  9
$DIMGAP
 40
1.0
  9
$LUNITS
 70
     2
  9
$LUPREC
 70
     4
  9
$SKETCHINC
 40
0.1
  9
$FILLETRAD
 40
0.0
  9
$AUNITS
 70
     0
  9
$AUPREC
 70
     4
  9
$MENU
  1
E:\r13\win\SUPPORT\ACAD
  9
$ELEVATION
 40
0.0
  9
$PELEVATION
 40
0.0
  9
$THICKNESS
 40
0.0
  9
$LIMCHECK
 70
     0
  9
$BLIPMODE
 70
     0
  9
$CHAMFERA
 40
0.0
  9
$CHAMFERB
 40
0.0
  9
$SKPOLY
 70
     0
  9
$TDCREATE
 40
2450280.598206134
  9
$TDUPDATE
 40
2456923.4968396411
  9
$TDINDWG
 40
0.1919478588
  9
$TDUSRTIMER
 40
0.1919478588
  9
$USRTIMER
 70
     1
  9
$ANGBASE
 50
0.0
  9
$ANGDIR
 70
     0
  9
$PDMODE
 70
     0
  9
$PDSIZE
 40
0.0
  9
$PLINEWID
 40
0.0
  9
$COORDS
 70
     1
  9
$SPLFRAME
 70
     0
  9
$SPLINETYPE
 70
     6
  9
$SPLINESEGS
 70
     8
  9
$ATTDIA
 70
     0
  9
$ATTREQ
 70
     1
  9
$HANDLING
 70
     1
  9
$HANDSEED
  5
1AA2
  9
$SURFTAB1
 70
     6
  9
$SURFTAB2
 70
     6
  9
$SURFTYPE
 70
     6
  9
$SURFU
 70
     6
  9
$SURFV
 70
     6
  9
$UCSNAME
  2

  9
$UCSORG
 10
0.0
 20
0.0
 30
0.0
  9
$UCSXDIR
 10
1.0
 20
0.0
 30
0.0
  9
$UCSYDIR
 10
0.0
 20
1.0
 30
0.0
  9
$PUCSNAME
  2

  9
$PUCSORG
 10
0.0
 20
0.0
 30
0.0
  9
$PUCSXDIR
 10
1.0
 20
0.0
 30
0.0
  9
$PUCSYDIR
 10
0.0
 20
1.0
 30
0.0
  9
$USERI1
 70
     3
  9
$USERI2
 70
     1
  9
$USERI3
 70
     1
  9
$USERI4
 70
     0
  9
$USERI5
 70
     0
  9
$USERR1
 40
1.0
  9
$USERR2
 40
3.0
  9
$USERR3
 40
3.0
  9
$USERR4
 40
3.0
  9
$USERR5
 40
10.0
  9
$WORLDVIEW
 70
     1
  9
$SHADEDGE
 70
     3
  9
$SHADEDIF
 70
    70
  9
$TILEMODE
 70
     1
  9
$MAXACTVP
 70
    16
  9
$PLIMCHECK
 70
     0
  9
$PEXTMIN
 10
1.0000000000000000E+020
 20
1.0000000000000000E+020
 30
1.0000000000000000E+020
  9
$PEXTMAX
 10
-1.0000000000000000E+020
 20
-1.0000000000000000E+020
 30
-1.0000000000000000E+020
  9
$PLIMMIN
 10
0.0
 20
0.0
  9
$PLIMMAX
 10
12.0
 20
9.0
  9
$UNITMODE
 70
     0
  9
$VISRETAIN
 70
     0
  9
$PLINEGEN
 70
     0
  9
$PSLTSCALE
 70
     0
  0
ENDSEC
  0
SECTION
  2
TABLES
  0
TABLE
  2
VPORT
 70
     1
  0
VPORT
  2
*ACTIVE
 70
     0
 10
0.0
 20
0.0
 11
1.0
 21
1.0
 12
314.18636995827541
 22
180.0
 13
0.0
 23
0.0
 14
5.0
 24
5.0
 15
10.0
 25
10.0
 16
0.0
 26
0.0
 36
1.0
 17
0.0
 27
0.0
 37
0.0
 40
360.0
 41
1.7454798331015291
 42
50.0
 43
0.0
 44
0.0
 50
0.0
 51
0.0
 71
     0
 72
   500
 73
     1
 74
     0
 75
     0
 76
     0
 77
     0
 78
     2
  0
ENDTAB
  0
TABLE
  2
LTYPE
 70
     3
  0
LTYPE
  2
CONTINUOUS
 70
     0
  3
Solid Line
 72
    65
 73
     0
 40
0.0
  0
LTYPE
  2
CENTER
 70
     0
  3
____ _ ____ _ ____ _ ____ _ ____ _ ____ _ ____
 72
    65
 73
     4
 40
2.0
 49
1.25
 49
-0.25
 49
0.25
 49
-0.25
  0
LTYPE
  2
PHANTOM2
 70
     0
  3
___ _ _ ___ _ _ ___ _ _ ___ _ _
 72
    65
 73
     6
 40
1.25
 49
0.625
 49
-0.125
 49
0.125
 49
-0.125
 49
0.125
 49
-0.125
  0
ENDTAB
  0
TABLE
  2
LAYER
 70
     3
  0
LAYER
  2
0
 70
     0
 62
     7
  6
CONTINUOUS
  0
LAYER
  2
1
 70
     0
 62
     1
  6
CENTER
  0
LAYER
  2
3
 70
     0
 62
     3
  6
CONTINUOUS
  0
ENDTAB
  0
TABLE
  2
STYLE
 70
     2
  0
STYLE
  2
STANDARD
 70
     0
 40
0.0
 41
1.0
 50
0.0
 71
     0
 42
4.000000000000048
  3
SIMPLEX
  4
BIGFONT
  0
STYLE
  2
STANDARD1
 70
     0
 40
0.0
 41
1.0
 50
0.0
 71
     0
 42
3.0
  3
txt
  4

  0
ENDTAB
  0
TABLE
  2
VIEW
 70
     0
  0
ENDTAB
  0
TABLE
  2
UCS
 70
     0
  0
ENDTAB
  0
TABLE
  2
APPID
 70
     4
  0
APPID
  2
ACAD
 70
     0
  0
APPID
  2
ACAD_MLEADERVER
 70
     0
  0
APPID
  2
ACAD_EXEMPT_FROM_CAD_STANDARDS
 70
     0
  0
APPID
  2
ACAD_NAV_VCDISPLAY
 70
     0
  0
ENDTAB
  0
TABLE
  2
DIMSTYLE
 70
     1
  0
DIMSTYLE
  2
STANDARD
 70
     0
  3

  4

  5

  6

  7

 40
1.0
 41
0.18
 42
0.0625
 43
0.38
 44
0.18
 45
0.0
 46
0.0
 47
0.0
 48
0.0
140
0.18
141
0.09
142
0.0
143
25.399999999999999
144
1.0
145
0.0
146
1.0
147
0.09
 71
     0
 72
     0
 73
     1
 74
     1
 75
     0
 76
     0
 77
     0
 78
     0
170
     0
171
     2
172
     0
173
     0
174
     0
175
     0
176
     0
177
     0
178
     0
  0
ENDTAB
  0
ENDSEC
  0
SECTION
  2
BLOCKS
  0
BLOCK
  8
0
  2
$MODEL_SPACE
 70
     0
 10
0.0
 20
0.0
 30
0.0
  3
$MODEL_SPACE
  1

  0
ENDBLK
  5
175
  8
0
  0
BLOCK
 67
     1
  8
0
  2
$PAPER_SPACE
 70
     0
 10
0.0
 20
0.0
 30
0.0
  3
$PAPER_SPACE
  1

  0
ENDBLK
  5
173
 67
     1
  8
0
  0
ENDSEC
  0
SECTION
  2
ENTITIES
  0
TEXT
  5
9BF
  8
0
 62
     3
 10
0.0
 20
0.0
 30
0.0
 40
10.0
  1
AMWPD63-M12
  7
STANDARD1
  0
LINE
  5
11F2
  8
0
 10
103.2
 20
109.9999999999999
 30
0.0
 11
103.0
 21
109.7999999999999
 31
0.0
  0
LINE
  5
11F3
  8
0
 10
103.0000000000001
 20
90.199999999999946
 30
0.0
 11
103.2
 21
90.0
 31
0.0
  0
LINE
  5
11F4
  8
0
 10
104.8
 20
110.0
 30
0.0
 11
103.2
 21
109.9999999999999
 31
0.0
  0
LINE
  5
11F5
  8
0
 10
103.2
 20
90.0
 30
0.0
 11
104.8000000000002
 21
90.0
 31
0.0
  0
LINE
  5
11F6
  8
0
 10
104.8000000000002
 20
90.0
 30
0.0
 11
105.0000000000001
 21
90.199999999999946
 31
0.0
  0
LINE
  5
11F7
  8
0
 10
105.0
 20
109.7999999999999
 30
0.0
 11
104.8
 21
110.0
 31
0.0
  0
ARC
  5
11F8
  8
0
 10
105.40000000000011
 20
106.40000000000001
 30
0.0
 40
0.3999999999999772
 50
180.0
 51
270.0
  0
ARC
  5
11F9
  8
0
 10
105.40000000000011
 20
93.600000000000023
 30
0.0
 40
0.4000000000000057
 50
90.0
 51
180.0
  0
LINE
  5
11FA
  8
0
 10
145.9131397208144
 20
106.0000000000001
 30
0.0
 11
141.15000000000009
 21
103.2500000000001
 31
0.0
  0
LINE
  5
11FB
  8
0
 10
141.15000000000009
 20
96.750000000000114
 30
0.0
 11
145.9131397208144
 21
94.000000000000114
 31
0.0
  0
LINE
  5
11FC
  8
0
 10
148.0
 20
106.0000000000001
 30
0.0
 11
145.9131397208144
 21
106.0000000000001
 31
0.0
  0
LINE
  5
11FD
  8
0
 10
145.9131397208144
 20
94.000000000000114
 30
0.0
 11
148.00000000000011
 21
94.000000000000114
 31
0.0
  0
LINE
  5
11FE
  8
0
 10
134.30000000000001
 20
106.0000000000001
 30
0.0
 11
105.40000000000011
 21
106.0
 31
0.0
  0
LINE
  5
11FF
  8
0
 10
105.40000000000011
 20
94.0
 30
0.0
 11
134.3000000000001
 21
94.000000000000114
 31
0.0
  0
LINE
  5
1200
  8
0
 10
134.3000000000001
 20
94.000000000000114
 30
0.0
 11
134.50000000000011
 21
94.200000000000045
 31
0.0
  0
LINE
  5
1201
  8
0
 10
134.5
 20
105.8
 30
0.0
 11
134.30000000000001
 21
106.0000000000001
 31
0.0
  0
LINE
  5
1202
  8
0
 10
99.500000000000014
 20
105.9999999999999
 30
0.0
 11
92.0
 21
105.9999999999999
 31
0.0
  0
LINE
  5
1203
  8
0
 10
92.000000000000114
 20
93.999999999999886
 30
0.0
 11
99.500000000000114
 21
94.0
 31
0.0
  0
LINE
  5
1204
  8
0
 10
92.0
 20
105.9999999999999
 30
0.0
 11
90.0
 21
103.9999999999999
 31
0.0
  0
LINE
  5
1205
  8
0
 10
90.000000000000114
 20
95.999999999999886
 30
0.0
 11
92.000000000000114
 21
93.999999999999886
 31
0.0
  0
ARC
  5
1206
  8
0
 10
137.1958301133418
 20
94.050000000000054
 30
0.0
 40
2.7000000000000282
 50
90.0
 51
176.81526146328031
  0
ARC
  5
1207
  8
0
 10
137.1958301133418
 20
105.9500000000001
 30
0.0
 40
2.7000000000000171
 50
183.18473853671969
 51
270.0
  0
ARC
  5
1208
  8
0
 10
100.5
 20
105.6999999999999
 30
0.0
 40
1.0
 50
180.0
 51
270.0
  0
ARC
  5
1209
  8
0
 10
100.5000000000001
 20
94.299999999999955
 30
0.0
 40
1.0
 50
90.0
 51
180.0
  0
ARC
  5
120A
  8
0
 10
102.0000000000001
 20
94.299999999999955
 30
0.0
 40
1.0
 50
0.0
 51
90.0
  0
ARC
  5
120B
  8
0
 10
102.0
 20
105.6999999999999
 30
0.0
 40
1.0
 50
270.0
 51
0.0
  0
ARC
  5
120C
  8
0
 10
148.0
 20
103.0000000000001
 30
0.0
 40
3.0
 50
0.0
 51
90.0
  0
ARC
  5
120D
  8
0
 10
148.00000000000011
 20
97.000000000000114
 30
0.0
 40
3.0000000000000142
 50
270.0
 51
0.0
  0
LINE
  5
120E
  8
0
 10
100.5000000000001
 20
95.299999999999955
 30
0.0
 11
102.0000000000001
 21
95.299999999999955
 31
0.0
  0
LINE
  5
120F
  8
0
 10
102.0
 20
104.6999999999999
 30
0.0
 11
100.5
 21
104.6999999999999
 31
0.0
  0
LINE
  5
1210
  8
0
 10
141.15000000000009
 20
103.2500000000001
 30
0.0
 11
137.1958301133418
 21
103.2500000000001
 31
0.0
  0
LINE
  5
1211
  8
0
 10
137.1958301133418
 20
96.750000000000114
 30
0.0
 11
141.15000000000009
 21
96.750000000000114
 31
0.0
  0
LINE
  5
1213
  8
0
 10
103.0000000000001
 20
90.199999999999946
 30
0.0
 11
103.0
 21
109.7999999999999
 31
0.0
  0
LINE
  5
1215
  8
0
 10
105.0
 20
109.7999999999999
 30
0.0
 11
105.0000000000001
 21
90.199999999999946
 31
0.0
  0
LINE
  5
1216
  8
0
 10
145.9131397208144
 20
106.0000000000001
 30
0.0
 11
145.9131397208144
 21
94.000000000000114
 31
0.0
  0
LINE
  5
1217
  8
0
 10
141.15000000000009
 20
103.2500000000001
 30
0.0
 11
141.15000000000009
 21
96.750000000000114
 31
0.0
  0
LINE
  5
1218
  8
0
 10
147.0
 20
103.3166247903556
 30
0.0
 11
147.00000000000011
 21
96.683375209644623
 31
0.0
  0
LINE
  5
1219
  8
0
 10
147.00000000000011
 20
96.683375209644623
 30
0.0
 11
148.00000000000011
 21
96.683375209644737
 31
0.0
  0
LINE
  5
121A
  8
0
 10
148.0
 20
103.3166247903556
 30
0.0
 11
147.0
 21
103.3166247903556
 31
0.0
  0
LINE
  5
121C
  8
0
 10
134.5
 20
105.8
 30
0.0
 11
134.50000000000011
 21
94.200000000000045
 31
0.0
  0
LINE
  5
121D
  8
0
 10
99.500000000000014
 20
105.9999999999999
 30
0.0
 11
99.500000000000114
 21
94.0
 31
0.0
  0
LINE
  5
121E
  8
0
 10
92.0
 20
105.9999999999999
 30
0.0
 11
92.000000000000114
 21
93.999999999999886
 31
0.0
  0
LINE
  5
121F
  8
0
 10
90.000000000000114
 20
95.999999999999886
 30
0.0
 11
90.0
 21
103.9999999999999
 31
0.0
  0
LINE
  5
1220
  8
0
 10
151.0
 20
103.0000000000001
 30
0.0
 11
151.00000000000011
 21
97.000000000578666
 31
0.0
  0
POLYLINE
  5
1221
  8
0
 66
     1
 10
0.0
 20
0.0
 30
0.0
 70
   128
  0
VERTEX
  5
1A90
  8
0
 10
148.00000000000011
 20
96.683375209644737
 30
0.0
  0
VERTEX
  5
1A91
  8
0
 10
148.2307652961299
 20
96.699482502863134
 30
0.0
  0
VERTEX
  5
1A92
  8
0
 10
148.7653627433935
 20
96.866537903950643
 30
0.0
  0
VERTEX
  5
1A93
  8
0
 10
149.24425274528679
 20
97.201667487469422
 30
0.0
  0
VERTEX
  5
1A94
  8
0
 10
149.5293324929759
 20
97.521040453206766
 30
0.0
  0
VERTEX
  5
1A95
  8
0
 10
149.75954884879511
 20
97.882723047756826
 30
0.0
  0
VERTEX
  5
1A96
  8
0
 10
150.00349469475719
 20
98.455910583407899
 30
0.0
  0
VERTEX
  5
1A97
  8
0
 10
150.15477051516561
 20
99.061400417681057
 30
0.0
  0
VERTEX
  5
1A98
  8
0
 10
150.2360679774998
 20
100.0000000000001
 30
0.0
  0
VERTEX
  5
1A99
  8
0
 10
150.18875139327409
 20
100.72368457502979
 30
0.0
  0
VERTEX
  5
1A9A
  8
0
 10
150.03839472052201
 20
101.43237254218811
 30
0.0
  0
VERTEX
  5
1A9B
  8
0
 10
149.86824441301221
 20
101.8954938116993
 30
0.0
  0
VERTEX
  5
1A9C
  8
0
 10
149.6341627094628
 20
102.32908251796989
 30
0.0
  0
VERTEX
  5
1A9D
  8
0
 10
149.39663136586961
 20
102.64167535467421
 30
0.0
  0
VERTEX
  5
1A9E
  8
0
 10
149.11249588875691
 20
102.911864104145
 30
0.0
  0
VERTEX
  5
1A9F
  8
0
 10
148.56455012196869
 20
103.2186477820848
 30
0.0
  0
VERTEX
  5
1AA0
  8
0
 10
148.0
 20
103.3166247903556
 30
0.0
  0
SEQEND
  5
1AA1
  8
0
  0
LINE
  5
1223
  8
0
 10
148.00000000000011
 20
94.000000000000114
 30
0.0
 11
148.00000000000011
 21
96.683375209644737
 31
0.0
  0
LINE
  5
1224
  8
0
 10
148.0
 20
103.3166247903556
 30
0.0
 11
148.0
 21
106.0000000000001
 31
0.0
  0
LINE
  5
1225
  8
0
 10
137.1958301133418
 20
103.2500000000001
 30
0.0
 11
137.1958301133418
 21
96.750000000000114
 31
0.0
  0
LINE
  5
1226
  8
0
 10
100.5
 20
104.6999999999999
 30
0.0
 11
100.5000000000001
 21
95.299999999999955
 31
0.0
  0
LINE
  5
1227
  8
0
 10
102.0000000000001
 20
95.299999999999955
 30
0.0
 11
102.0
 21
104.6999999999999
 31
0.0
  0
LINE
  5
1228
  8
3
 10
91.149999640882115
 20
94.849999900907164
 30
0.0
 11
99.499999891966695
 21
94.849999900907264
 31
0.0
  0
LINE
  5
1229
  8
3
 10
99.499999891966581
 20
105.15000009909269
 30
0.0
 11
91.149999640882015
 21
105.15000009909259
 31
0.0
  0
LINE
  5
122A
  8
0
 10
103.2
 20
60.0
 30
0.0
 11
103.0
 21
59.800000000000061
 31
0.0
  0
LINE
  5
122B
  8
0
 10
103.0
 20
40.200000000000038
 30
0.0
 11
103.2
 21
40.00000000000005
 31
0.0
  0
LINE
  5
122C
  8
0
 10
104.8
 20
60.0
 30
0.0
 11
103.2
 21
60.0
 31
0.0
  0
LINE
  5
122D
  8
0
 10
103.2
 20
40.00000000000005
 30
0.0
 11
104.8
 21
40.00000000000005
 31
0.0
  0
LINE
  5
122E
  8
0
 10
104.8
 20
40.00000000000005
 30
0.0
 11
105.0
 21
40.200000000000038
 31
0.0
  0
LINE
  5
122F
  8
0
 10
105.0
 20
59.800000000000061
 30
0.0
 11
104.8
 21
60.0
 31
0.0
  0
ARC
  5
1230
  8
0
 10
105.40000000000011
 20
56.400000000000077
 30
0.0
 40
0.4000000000000057
 50
180.0
 51
270.0
  0
ARC
  5
1231
  8
0
 10
105.40000000000011
 20
43.600000000000023
 30
0.0
 40
0.4000000000000057
 50
90.0
 51
180.0
  0
LINE
  5
1232
  8
0
 10
92.000000000000114
 20
55.999999999999993
 30
0.0
 11
90.000000000000114
 21
53.999999999999993
 31
0.0
  0
LINE
  5
1233
  8
0
 10
90.000000000000114
 20
46.000000000000043
 30
0.0
 11
92.000000000000114
 21
43.999999999999993
 31
0.0
  0
LINE
  5
1234
  8
0
 10
99.500000000000114
 20
55.999999999999993
 30
0.0
 11
92.000000000000114
 21
55.999999999999993
 31
0.0
  0
LINE
  5
1235
  8
0
 10
92.000000000000114
 20
43.999999999999993
 30
0.0
 11
99.500000000000114
 21
43.999999999999993
 31
0.0
  0
LINE
  5
1236
  8
0
 10
134.30000000000001
 20
55.999999999999993
 30
0.0
 11
105.40000000000011
 21
55.999999999999993
 31
0.0
  0
LINE
  5
1237
  8
0
 10
105.40000000000011
 20
43.999999999999993
 30
0.0
 11
134.30000000000001
 21
43.999999999999993
 31
0.0
  0
LINE
  5
1238
  8
0
 10
134.30000000000001
 20
43.999999999999993
 30
0.0
 11
134.50000000000011
 21
44.200000000000038
 31
0.0
  0
LINE
  5
1239
  8
0
 10
134.50000000000011
 20
55.800000000000061
 30
0.0
 11
134.30000000000001
 21
55.999999999999993
 31
0.0
  0
LINE
  5
123A
  8
0
 10
145.9131397208144
 20
55.999999999999993
 30
0.0
 11
141.15000000000009
 21
53.249999999999993
 31
0.0
  0
LINE
  5
123B
  8
0
 10
141.15000000000009
 20
46.749999999999993
 30
0.0
 11
145.9131397208144
 21
43.999999999999993
 31
0.0
  0
LINE
  5
123C
  8
0
 10
147.00000000000011
 20
55.999999999999993
 30
0.0
 11
145.9131397208144
 21
55.999999999999993
 31
0.0
  0
LINE
  5
123D
  8
0
 10
145.9131397208144
 20
43.999999999999993
 30
0.0
 11
147.00000000000011
 21
43.999999999999993
 31
0.0
  0
ARC
  5
123E
  8
0
 10
148.00000000000011
 20
52.999999999999993
 30
0.0
 40
3.0
 50
0.0
 51
41.808550688136478
  0
ARC
  5
123F
  8
0
 10
148.00000000000011
 20
46.999999999999993
 30
0.0
 40
3.0000000000000031
 50
318.18399596383358
 51
0.0
  0
ARC
  5
1240
  8
0
 10
137.1958301133418
 20
44.050000000000061
 30
0.0
 40
2.700000000000002
 50
90.0
 51
176.81526146328031
  0
ARC
  5
1241
  8
0
 10
137.1958301133418
 20
55.950000000000038
 30
0.0
 40
2.699999999999998
 50
183.18473853671969
 51
270.0
  0
ARC
  5
1242
  8
0
 10
100.5000000000001
 20
55.700000000000031
 30
0.0
 40
1.0
 50
180.0
 51
270.0
  0
ARC
  5
1243
  8
0
 10
100.5000000000001
 20
44.300000000000047
 30
0.0
 40
1.0
 50
90.0
 51
180.0
  0
ARC
  5
1244
  8
0
 10
102.0
 20
44.300000000000047
 30
0.0
 40
1.0
 50
0.0
 51
90.0
  0
ARC
  5
1245
  8
0
 10
102.0
 20
55.700000000000031
 30
0.0
 40
1.0
 50
270.0
 51
0.0
  0
LINE
  5
1246
  8
0
 10
100.5000000000001
 20
45.300000000000061
 30
0.0
 11
102.0
 21
45.300000000000061
 31
0.0
  0
LINE
  5
1247
  8
0
 10
102.0
 20
54.700000000000038
 30
0.0
 11
100.5000000000001
 21
54.700000000000038
 31
0.0
  0
LINE
  5
1248
  8
0
 10
141.15000000000009
 20
53.249999999999993
 30
0.0
 11
137.1958301133418
 21
53.249999999999993
 31
0.0
  0
LINE
  5
1249
  8
0
 10
137.1958301133418
 20
46.749999999999993
 30
0.0
 11
141.15000000000009
 21
46.749999999999993
 31
0.0
  0
LINE
  5
124D
  8
0
 10
103.0
 20
40.200000000000038
 30
0.0
 11
103.0000000000002
 21
59.800000000000281
 31
0.0
  0
LINE
  5
124F
  8
0
 10
105.0
 20
59.800000000000061
 30
0.0
 11
105.0
 21
40.200000000000038
 31
0.0
  0
LINE
  5
1251
  8
0
 10
90.000000000000114
 20
46.000000000000043
 30
0.0
 11
90.000000000000114
 21
53.999999999999872
 31
0.0
  0
LINE
  5
1252
  8
0
 10
92.000000000000114
 20
55.999999999999993
 30
0.0
 11
92.000000000000114
 21
43.999999999999993
 31
0.0
  0
LINE
  5
1254
  8
0
 10
99.500000000000114
 20
55.999999999999993
 30
0.0
 11
99.500000000000114
 21
43.999999999999993
 31
0.0
  0
LINE
  5
1256
  8
0
 10
134.50000000000011
 20
55.800000000000061
 30
0.0
 11
134.50000000000011
 21
44.200000000000038
 31
0.0
  0
LINE
  5
1257
  8
0
 10
145.9131397208144
 20
55.999999999999993
 30
0.0
 11
145.9131397208144
 21
43.999999999999993
 31
0.0
  0
LINE
  5
1258
  8
0
 10
141.15000000000009
 20
53.249999999999993
 30
0.0
 11
141.15000000000009
 21
46.749999999999993
 31
0.0
  0
LINE
  5
1259
  8
0
 10
147.00000000000011
 20
55.999999999999993
 30
0.0
 11
147.00000000000011
 21
55.0
 31
0.0
  0
LINE
  5
125B
  8
0
 10
148.00000000000011
 20
45.00000000000005
 30
0.0
 11
148.00000000000011
 21
55.0
 31
0.0
  0
LINE
  5
125D
  8
0
 10
147.00000000000011
 20
45.00000000000005
 30
0.0
 11
147.00000000000011
 21
43.999999999999993
 31
0.0
  0
LINE
  5
125E
  8
0
 10
151.00000000000011
 20
52.999999999999993
 30
0.0
 11
151.00000000000011
 21
46.999999999999993
 31
0.0
  0
LINE
  5
125F
  8
0
 10
147.00000000000011
 20
44.999999999999993
 30
0.0
 11
150.2360679774998
 21
45.00000000000005
 31
0.0
  0
LINE
  5
1260
  8
0
 10
147.00000000000011
 20
55.0
 30
0.0
 11
150.23588716713039
 21
55.0
 31
0.0
  0
LINE
  5
1262
  8
0
 10
137.1958301133418
 20
53.249999999999993
 30
0.0
 11
137.1958301133418
 21
46.749999999999993
 31
0.0
  0
LINE
  5
1264
  8
0
 10
100.5000000000001
 20
54.700000000000038
 30
0.0
 11
100.5000000000001
 21
45.300000000000061
 31
0.0
  0
LINE
  5
1266
  8
0
 10
102.0
 20
45.299999999999997
 30
0.0
 11
102.0000000000001
 21
54.700000000000038
 31
0.0
  0
LINE
  5
1267
  8
3
 10
91.149999640882015
 20
44.849999900907328
 30
0.0
 11
99.499999891966581
 21
44.849999900907328
 31
0.0
  0
LINE
  5
1268
  8
3
 10
99.499999891966581
 20
55.150000099092722
 30
0.0
 11
91.149999640882015
 21
55.150000099092722
 31
0.0
  0
CIRCLE
  5
1269
  8
3
 10
50.0
 20
100.0
 30
0.0
 40
5.1500000990927211
  0
CIRCLE
  5
126A
  8
0
 10
50.0
 20
100.0
 30
0.0
 40
5.9999999999999849
  0
CIRCLE
  5
126B
  8
0
 10
50.0
 20
100.0000000000001
 30
0.0
 40
10.000000000000011
  0
CIRCLE
  5
126E
  8
0
 10
190.9999999999998
 20
100.0000000000002
 30
0.0
 40
3.0
  0
LINE
  5
1270
  8
0
 10
195.99999999999989
 20
103.3166247903556
 30
0.0
 11
195.9999999999998
 21
96.683375209644851
 31
0.0
  0
LINE
  5
1272
  8
0
 10
185.99999999999969
 20
96.683375209644851
 30
0.0
 11
185.99999999999989
 21
103.3166247903557
 31
0.0
  0
CIRCLE
  5
1277
  8
0
 10
191.0
 20
100.0000000000001
 30
0.0
 40
10.0
  0
CIRCLE
  5
1850
  8
0
 10
190.99999999999989
 20
100.0000000000002
 30
0.0
 40
6.0
  0
LINE
  5
1851
  8
1
 10
206.0
 20
100.0000000000002
 30
0.0
 11
176.0
 21
100.0000000000002
 31
0.0
  0
LINE
  5
1852
  8
1
 10
156.00000000000091
 20
50.0
 30
0.0
 11
85.000000000000696
 21
50.0
 31
0.0
  0
LINE
  5
1853
  8
1
 10
190.99999999999989
 20
85.000000000000114
 30
0.0
 11
190.99999999999989
 21
115.0000000000001
 31
0.0
  0
LINE
  5
1854
  8
1
 10
50.0
 20
85.000000000000114
 30
0.0
 11
50.0
 21
115.0000000000001
 31
0.0
  0
LINE
  5
1859
  8
1
 10
156.00000000000011
 20
100.0000000000001
 30
0.0
 11
85.0
 21
100.0000000000001
 31
0.0
  0
LINE
  5
185A
  8
1
 10
65.0
 20
100.0000000000002
 30
0.0
 11
35.0
 21
100.0000000000002
 31
0.0
  0
ENDSEC
  0
EOF
