  0
SECTION
  2
HEADER
  9
$ACADVER
  1
AC1009
  9
$INSBASE
 10
0.0
 20
0.0
 30
0.0
  9
$EXTMIN
 10
-0.0204638472032742
 20
-2.960436562073669
 30
0.0
  9
$EXTMAX
 10
415.00000894069672
 20
404.99999877065437
 30
0.0
  9
$LIMMIN
 10
0.0
 20
0.0
  9
$LIMMAX
 10
390.0
 20
270.0
  9
$ORTHOMODE
 70
     1
  9
$REGENMODE
 70
     1
  9
$FILLMODE
 70
     1
  9
$QTEXTMODE
 70
     0
  9
$MIRRTEXT
 70
     1
  9
$DRAGMODE
 70
     2
  9
$LTSCALE
 40
5.0
  9
$OSMODE
 70
    37
  9
$ATTMODE
 70
     1
  9
$TEXTSIZE
 40
2.5
  9
$TRACEWID
 40
1.0
  9
$TEXTSTYLE
  7
STANDARD
  9
$CLAYER
  8
0
  9
$CELTYPE
  6
BYLAYER
  9
$CECOLOR
 62
   256
  9
$DIMSCALE
 40
1.0
  9
$DIMASZ
 40
3.0
  9
$DIMEXO
 40
1.0
  9
$DIMDLI
 40
6.0
  9
$DIMRND
 40
0.0
  9
$DIMDLE
 40
0.0
  9
$DIMEXE
 40
1.0
  9
$DIMTP
 40
495.0
  9
$DIMTM
 40
0.0
  9
$DIMTXT
 40
2.5
  9
$DIMCEN
 40
0.0
  9
$DIMTSZ
 40
0.0
  9
$DIMTOL
 70
     0
  9
$DIMLIM
 70
     0
  9
$DIMTIH
 70
     0
  9
$DIMTOH
 70
     0
  9
$DIMSE1
 70
     0
  9
$DIMSE2
 70
     0
  9
$DIMTAD
 70
     1
  9
$DIMZIN
 70
     8
  9
$DIMBLK
  1

  9
$DIMASO
 70
     0
  9
$DIMSHO
 70
     1
  9
$DIMPOST
  1

  9
$DIMAPOST
  1

  9
$DIMALT
 70
     0
  9
$DIMALTD
 70
     2
  9
$DIMALTF
 40
25.399999999999999
  9
$DIMLFAC
 40
1.0
  9
$DIMTOFL
 70
     1
  9
$DIMTVP
 40
0.0
  9
$DIMTIX
 70
     1
  9
$DIMSOXD
 70
     0
  9
$DIMSAH
 70
     0
  9
$DIMBLK1
  1

  9
$DIMBLK2
  1

  9
$DIMSTYLE
  2
ITM
  9
$DIMCLRD
 70
   256
  9
$DIMCLRE
 70
   256
  9
$DIMCLRT
 70
   256
  9
$DIMTFAC
 40
1.0
  9
$DIMGAP
 40
1.0
  9
$LUNITS
 70
     2
  9
$LUPREC
 70
     2
  9
$SKETCHINC
 40
1.0
  9
$FILLETRAD
 40
0.4
  9
$AUNITS
 70
     0
  9
$AUPREC
 70
     0
  9
$MENU
  1
.
  9
$ELEVATION
 40
0.0
  9
$PELEVATION
 40
0.0
  9
$THICKNESS
 40
0.0
  9
$LIMCHECK
 70
     0
  9
$BLIPMODE
 70
     0
  9
$CHAMFERA
 40
1.1999999999999991
  9
$CHAMFERB
 40
1.1999999999999991
  9
$SKPOLY
 70
     0
  9
$TDCREATE
 40
2453354.0921258219
  9
$TDUPDATE
 40
2456931.6994776041
  9
$TDINDWG
 40
513.79842920140004
  9
$TDUSRTIMER
 40
513.79815122690002
  9
$USRTIMER
 70
     1
  9
$ANGBASE
 50
0.0
  9
$ANGDIR
 70
     0
  9
$PDMODE
 70
     0
  9
$PDSIZE
 40
0.0
  9
$PLINEWID
 40
0.0
  9
$COORDS
 70
     1
  9
$SPLFRAME
 70
     0
  9
$SPLINETYPE
 70
     6
  9
$SPLINESEGS
 70
     8
  9
$ATTDIA
 70
     0
  9
$ATTREQ
 70
     1
  9
$HANDLING
 70
     1
  9
$HANDSEED
  5
5A2F
  9
$SURFTAB1
 70
     6
  9
$SURFTAB2
 70
     6
  9
$SURFTYPE
 70
     6
  9
$SURFU
 70
     6
  9
$SURFV
 70
     6
  9
$UCSNAME
  2

  9
$UCSORG
 10
0.0
 20
0.0
 30
0.0
  9
$UCSXDIR
 10
1.0
 20
0.0
 30
0.0
  9
$UCSYDIR
 10
0.0
 20
1.0
 30
0.0
  9
$PUCSNAME
  2

  9
$PUCSORG
 10
0.0
 20
0.0
 30
0.0
  9
$PUCSXDIR
 10
1.0
 20
0.0
 30
0.0
  9
$PUCSYDIR
 10
0.0
 20
1.0
 30
0.0
  9
$USERI1
 70
     4
  9
$USERI2
 70
     1
  9
$USERI3
 70
     1
  9
$USERI4
 70
     0
  9
$USERI5
 70
     0
  9
$USERR1
 40
1.0
  9
$USERR2
 40
3.0
  9
$USERR3
 40
3.2000000000000002
  9
$USERR4
 40
3.0
  9
$USERR5
 40
10.0
  9
$WORLDVIEW
 70
     1
  9
$SHADEDGE
 70
     3
  9
$SHADEDIF
 70
    70
  9
$TILEMODE
 70
     1
  9
$MAXACTVP
 70
    16
  9
$PLIMCHECK
 70
     0
  9
$PEXTMIN
 10
0.0
 20
0.0
 30
0.0
  9
$PEXTMAX
 10
0.0
 20
0.0
 30
0.0
  9
$PLIMMIN
 10
0.0
 20
0.0
  9
$PLIMMAX
 10
12.0
 20
9.0
  9
$UNITMODE
 70
     0
  9
$VISRETAIN
 70
     0
  9
$PLINEGEN
 70
     0
  9
$PSLTSCALE
 70
     1
  0
ENDSEC
  0
SECTION
  2
TABLES
  0
TABLE
  2
VPORT
 70
     1
  0
VPORT
  2
*ACTIVE
 70
     0
 10
0.0
 20
0.0
 11
1.0
 21
1.0
 12
471.27955493741302
 22
270.0
 13
0.0
 23
0.0
 14
5.0
 24
5.0
 15
10.0
 25
10.0
 16
0.0
 26
0.0
 36
1.0
 17
0.0
 27
0.0
 37
0.0
 40
540.0
 41
1.7454798331015291
 42
50.0
 43
0.0
 44
0.0
 50
0.0
 51
0.0
 71
    16
 72
   500
 73
     1
 74
     1
 75
     0
 76
     0
 77
     0
 78
     1
  0
ENDTAB
  0
TABLE
  2
LTYPE
 70
     4
  0
LTYPE
  2
CONTINUOUS
 70
     0
  3
Solid line
 72
    65
 73
     0
 40
0.0
  0
LTYPE
  2
CENTER
 70
     0
  3
____ _ ____ _ ____ _ ____ _ ____ _ ____ _ ____
 72
    65
 73
     4
 40
2.0
 49
1.25
 49
-0.25
 49
0.25
 49
-0.25
  0
LTYPE
  2
PHANTOM2
 70
     0
  3
___ _ _ ___ _ _ ___ _ _ ___ _ _
 72
    65
 73
     6
 40
1.25
 49
0.625
 49
-0.125
 49
0.125
 49
-0.125
 49
0.125
 49
-0.125
  0
LTYPE
  2
HIDDEN
 70
     0
  3
Hidden __ __ __ __ __ __ __ __ __ __ __ __ __ __
 72
    65
 73
     2
 40
1.905
 49
1.27
 49
-0.635
  0
ENDTAB
  0
TABLE
  2
LAYER
 70
     5
  0
LAYER
  2
0
 70
     0
 62
     7
  6
CONTINUOUS
  0
LAYER
  2
1
 70
     0
 62
     1
  6
CENTER
  0
LAYER
  2
WAKU
 70
     0
 62
     5
  6
CONTINUOUS
  0
LAYER
  2
2
 70
     0
 62
     2
  6
HIDDEN
  0
LAYER
  2
3
 70
     0
 62
     3
  6
CONTINUOUS
  0
ENDTAB
  0
TABLE
  2
STYLE
 70
     3
  0
STYLE
  2
STANDARD
 70
     0
 40
0.0
 41
1.0
 50
0.0
 71
     0
 42
2.5
  3
ROMANS
  4
EXTFONT
  0
STYLE
  2
K
 70
     0
 40
0.0
 41
0.75
 50
0.0
 71
     0
 42
3.2000000000000002
  3
ROMANS.shx
  4
EXTFONT.shx
  0
STYLE
  2
STANDARD1
 70
     0
 40
0.0
 41
1.0
 50
0.0
 71
     0
 42
3.0
  3
txt
  4

  0
ENDTAB
  0
TABLE
  2
VIEW
 70
     1
  0
VIEW
  2
OLE1
 70
     0
 40
134.48330012831909
 10
731.54724278943695
 20
898.25493835195198
 41
169.08337249143031
 11
0.0
 21
0.0
 31
1.0
 12
0.0
 22
0.0
 32
0.0
 42
50.0
 43
0.0
 44
0.0
 50
0.0
 71
    16
  0
ENDTAB
  0
TABLE
  2
UCS
 70
     0
  0
ENDTAB
  0
TABLE
  2
APPID
 70
     4
  0
APPID
  2
ACAD
 70
     0
  0
APPID
  2
ACAD_MLEADERVER
 70
     0
  0
APPID
  2
ACAD_NAV_VCDISPLAY
 70
     0
  0
APPID
  2
ACAD_EXEMPT_FROM_CAD_STANDARDS
 70
     0
  0
ENDTAB
  0
TABLE
  2
DIMSTYLE
 70
     2
  0
DIMSTYLE
  2
ITM
 70
     0
  3

  4

  5

  6

  7

 40
0.0
 41
2.5
 42
1.0
 43
6.0
 44
1.0
 45
0.0
 46
0.0
 47
495.0
 48
0.0
140
3.0
141
0.0
142
0.0
143
25.399999999999999
144
1.0
145
0.0
146
1.0
147
1.0
 71
     0
 72
     0
 73
     0
 74
     0
 75
     0
 76
     0
 77
     3
 78
     8
170
     0
171
     2
172
     1
173
     0
174
     0
175
     0
176
     0
177
     0
178
     0
  0
DIMSTYLE
  2
STANDARD
 70
     0
  3

  4

  5

  6

  7

 40
1.0
 41
0.18
 42
0.0625
 43
0.38
 44
0.18
 45
0.0
 46
0.0
 47
0.0
 48
0.0
140
0.18
141
0.09
142
0.0
143
25.399999999999999
144
1.0
145
0.0
146
1.0
147
0.09
 71
     0
 72
     0
 73
     1
 74
     1
 75
     0
 76
     0
 77
     0
 78
     0
170
     0
171
     2
172
     0
173
     0
174
     0
175
     0
176
     0
177
     0
178
     0
  0
ENDTAB
  0
ENDSEC
  0
SECTION
  2
BLOCKS
  0
BLOCK
  8
0
  2
$MODEL_SPACE
 70
     0
 10
0.0
 20
0.0
 30
0.0
  3
$MODEL_SPACE
  1

  0
ENDBLK
  5
12
  8
0
  0
BLOCK
 67
     1
  8
0
  2
$PAPER_SPACE
 70
     0
 10
0.0
 20
0.0
 30
0.0
  3
$PAPER_SPACE
  1

  0
ENDBLK
  5
19
 67
     1
  8
0
  0
BLOCK
  8
0
  2
ARROW1
 70
     0
 10
0.0
 20
0.0
 30
0.0
  3
ARROW1
  1

  0
SOLID
  5
4B
  8
WAKU
  6
CONTINUOUS
 62
     4
 10
-1.0
 20
0.1666666666666714
 30
0.0
 11
-1.0
 21
-0.1666666666666714
 31
0.0
 12
0.0
 22
0.0
 32
0.0
 13
0.0
 23
0.0
 33
0.0
  0
ENDBLK
  5
4D
  8
0
  0
ENDSEC
  0
SECTION
  2
ENTITIES
  0
TEXT
  5
2A6
  8
0
 62
     3
 10
0.0
 20
0.0
 30
0.0
 40
10.0
  1
AMWPD40-W
  7
STANDARD1
  0
LINE
  5
5C4
  8
0
 10
270.00000596046448
 20
210.4999996884726
 30
0.0
 11
270.00000596046448
 21
245.40663760155439
 31
0.0
  0
LINE
  5
5C5
  8
0
 10
195.00000298023221
 20
229.99999921768901
 30
0.0
 11
195.00000298023221
 21
210.4999996884726
 31
0.0
  0
LINE
  5
5C7
  8
0
 10
195.00000298023221
 20
210.4999996884726
 30
0.0
 11
195.5000039935112
 21
209.99999966472379
 31
0.0
  0
LINE
  5
5C8
  8
0
 10
269.50000494718552
 20
209.99999966472379
 30
0.0
 11
270.00000596046448
 21
210.4999996884726
 31
0.0
  0
LINE
  5
5C9
  8
0
 10
269.50540289282799
 20
246.0732745751738
 30
0.0
 11
256.50000467896461
 21
247.9999984428286
 31
0.0
  0
LINE
  5
5CA
  8
0
 10
208.5000042617321
 20
247.9999984428286
 30
0.0
 11
195.5000039935112
 21
246.0732745751738
 31
0.0
  0
LINE
  5
5CB
  8
0
 10
207.5000040978193
 20
197.9999995604158
 30
0.0
 11
209.2320554703474
 21
195.00000000000011
 31
0.0
  0
LINE
  5
5CC
  8
0
 10
255.76795347034931
 20
195.00000000000011
 30
0.0
 11
257.50000484287739
 21
197.9999995604158
 31
0.0
  0
LINE
  5
5CD
  8
0
 10
257.50000484287739
 20
207.99999956972891
 30
0.0
 11
257.00000382959843
 21
208.4999996516853
 31
0.0
  0
LINE
  5
5CE
  8
0
 10
208.00000511109829
 20
208.4999996516853
 30
0.0
 11
207.5000040978193
 21
207.99999956972891
 31
0.0
  0
LINE
  5
5CF
  8
0
 10
257.50000484287739
 20
197.9999995604158
 30
0.0
 11
257.50000484287739
 21
207.99999956972891
 31
0.0
  0
LINE
  5
5D0
  8
0
 10
207.5000040978193
 20
207.99999956972891
 30
0.0
 11
207.5000040978193
 21
197.9999995604158
 31
0.0
  0
LINE
  5
5D1
  8
0
 10
208.00000511109829
 20
209.99999966472379
 30
0.0
 11
208.00000511109829
 21
208.4999996516853
 31
0.0
  0
LINE
  5
5D2
  8
0
 10
257.00000382959843
 20
208.4999996516853
 30
0.0
 11
257.00000382959843
 21
209.99999966472379
 31
0.0
  0
LINE
  5
5D3
  8
0
 10
270.00000596046448
 20
245.40663760155439
 30
0.0
 11
269.50540289282799
 21
246.0732745751738
 31
0.0
  0
LINE
  5
5D4
  8
0
 10
254.5000043511391
 20
247.9999984428286
 30
0.0
 11
252.50000402331349
 21
249.9999987706542
 31
0.0
  0
LINE
  5
5D5
  8
0
 10
212.50000491738319
 20
249.9999987706542
 30
0.0
 11
210.5000045895577
 21
247.9999984428286
 31
0.0
  0
LINE
  5
60F
  8
0
 10
269.924635887146
 20
221.999999769032
 30
0.0
 11
267.17875793576241
 21
221.999999769032
 31
0.0
  0
LINE
  5
610
  8
0
 10
267.17875793576241
 20
221.999999769032
 30
0.0
 11
267.17875793576241
 21
210.4999996884726
 31
0.0
  0
LINE
  5
613
  8
0
 10
269.924635887146
 20
210.4999996884726
 30
0.0
 11
269.924635887146
 21
221.999999769032
 31
0.0
  0
LINE
  5
614
  8
0
 10
202.3811627924442
 20
245.40663760155439
 30
0.0
 11
195.5000039935112
 21
245.40663760155439
 31
0.0
  0
LINE
  5
615
  8
0
 10
202.3811627924442
 20
239.99999899417159
 30
0.0
 11
202.3811627924442
 21
245.40663760155439
 31
0.0
  0
LINE
  5
616
  8
0
 10
202.3811627924442
 20
239.99999899417159
 30
0.0
 11
210.1593379676342
 21
239.99999899417159
 31
0.0
  0
LINE
  5
617
  8
0
 10
210.1593379676342
 20
239.99999899417159
 30
0.0
 11
210.1593379676342
 21
245.40663760155439
 31
0.0
  0
LINE
  5
618
  8
0
 10
254.84067097306249
 20
245.40663760155439
 30
0.0
 11
210.1593379676342
 21
245.40663760155439
 31
0.0
  0
LINE
  5
619
  8
0
 10
254.84067097306249
 20
239.99999899417159
 30
0.0
 11
254.84067097306249
 21
245.40663760155439
 31
0.0
  0
LINE
  5
61A
  8
0
 10
254.84067097306249
 20
239.99999899417159
 30
0.0
 11
262.61884614825249
 21
239.99999899417159
 31
0.0
  0
LINE
  5
61B
  8
0
 10
262.61884614825249
 20
239.99999899417159
 30
0.0
 11
262.61884614825249
 21
245.40663760155439
 31
0.0
  0
LINE
  5
61C
  8
0
 10
270.00000596046448
 20
245.40663760155439
 30
0.0
 11
262.61884614825249
 21
245.40663760155439
 31
0.0
  0
LINE
  5
61D
  8
0
 10
195.00000298023221
 20
229.99999921768901
 30
0.0
 11
195.5000039935112
 21
229.99999921768901
 31
0.0
  0
LINE
  5
61E
  8
0
 10
195.5000039935112
 20
229.99999921768901
 30
0.0
 11
195.5000039935112
 21
246.073274575174
 31
0.0
  0
LINE
  5
61F
  8
0
 10
269.5000049471854
 20
209.9999996647237
 30
0.0
 11
195.5000039935112
 21
209.99999966472379
 31
0.0
  0
POLYLINE
  5
621
  8
0
 66
     1
 10
0.0
 20
0.0
 30
0.0
 70
   128
  0
VERTEX
  5
548B
  8
0
 10
268.55169504880911
 20
209.99999966472379
 30
0.0
  0
VERTEX
  5
548C
  8
0
 10
269.23816546797752
 20
210.12563097639941
 30
0.0
  0
VERTEX
  5
548D
  8
0
 10
269.924635887146
 20
210.4999996884726
 30
0.0
  0
SEQEND
  5
548E
  8
0
  0
POLYLINE
  5
622
  8
0
 66
     1
 10
0.0
 20
0.0
 30
0.0
 70
   128
  0
VERTEX
  5
548F
  8
0
 10
267.17875793576241
 20
210.4999996884726
 30
0.0
  0
VERTEX
  5
5490
  8
0
 10
267.86073565483088
 20
210.12727807858019
 30
0.0
  0
VERTEX
  5
5491
  8
0
 10
268.55169504880911
 20
209.99999966472379
 30
0.0
  0
SEQEND
  5
5492
  8
0
  0
LINE
  5
623
  8
0
 10
210.1593379676342
 20
245.40663760155439
 30
0.0
 11
210.5129499733448
 21
246.0732745751738
 31
0.0
  0
LINE
  5
625
  8
0
 10
254.48705896735191
 20
246.0732745751738
 30
0.0
 11
254.84067097306249
 21
245.40663760155439
 31
0.0
  0
LINE
  5
626
  8
0
 10
256.50000467896461
 20
247.9999984428286
 30
0.0
 11
208.5000042617321
 21
247.9999984428286
 31
0.0
  0
LINE
  5
628
  8
0
 10
262.26523414254189
 20
246.0732745751738
 30
0.0
 11
258.66295479238028
 21
246.8182879313826
 31
0.0
  0
POLYLINE
  5
629
  8
0
 66
     1
 10
0.0
 20
0.0
 30
0.0
 70
   128
  0
VERTEX
  5
5493
  8
0
 10
258.66295479238028
 20
246.8182879313826
 30
0.0
  0
VERTEX
  5
5494
  8
0
 10
257.94702291488647
 20
246.95639189332721
 30
0.0
  0
VERTEX
  5
5495
  8
0
 10
257.13986054062838
 20
247.09455918520689
 30
0.0
  0
VERTEX
  5
5496
  8
0
 10
256.2629234790802
 20
247.22875159233811
 30
0.0
  0
VERTEX
  5
5497
  8
0
 10
255.34197397530079
 20
247.35455464571709
 30
0.0
  0
VERTEX
  5
5498
  8
0
 10
254.40546207129961
 20
247.4669727310538
 30
0.0
  0
VERTEX
  5
5499
  8
0
 10
253.47774744033811
 20
247.56201233714819
 30
0.0
  0
VERTEX
  5
549A
  8
0
 10
252.5958427041769
 20
247.63445805758229
 30
0.0
  0
VERTEX
  5
549B
  8
0
 10
251.7744813859463
 20
247.6823615655303
 30
0.0
  0
VERTEX
  5
549C
  8
0
 10
251.04867748916149
 20
247.70273890346289
 30
0.0
  0
VERTEX
  5
549D
  8
0
 10
250.4261311888695
 20
247.6958582922816
 30
0.0
  0
VERTEX
  5
549E
  8
0
 10
249.92976792156699
 20
247.66197305172679
 30
0.0
  0
VERTEX
  5
549F
  8
0
 10
249.5660268515349
 20
247.6032736524939
 30
0.0
  0
VERTEX
  5
54A0
  8
0
 10
249.3457336723805
 20
247.52180900424719
 30
0.0
  0
VERTEX
  5
54A1
  8
0
 10
249.2739249765873
 20
247.4216881021857
 30
0.0
  0
VERTEX
  5
54A2
  8
0
 10
249.35573607683179
 20
247.30520945042369
 30
0.0
  0
VERTEX
  5
54A3
  8
0
 10
249.5879781246185
 20
247.17804666608569
 30
0.0
  0
VERTEX
  5
54A4
  8
0
 10
249.9714725464583
 20
247.04267706722021
 30
0.0
  0
VERTEX
  5
54A5
  8
0
 10
250.49125857651231
 20
246.9049009308219
 30
0.0
  0
VERTEX
  5
54A6
  8
0
 10
250.88478147983551
 20
246.8182879313826
 30
0.0
  0
SEQEND
  5
54A7
  8
0
  0
LINE
  5
62A
  8
0
 10
250.88478147983551
 20
246.8182879313826
 30
0.0
 11
254.48705896735191
 21
246.0732745751738
 31
0.0
  0
LINE
  5
62B
  8
0
 10
210.5129499733448
 20
246.0732745751738
 30
0.0
 11
214.11522746086121
 21
246.8182879313826
 31
0.0
  0
POLYLINE
  5
62C
  8
0
 66
     1
 10
0.0
 20
0.0
 30
0.0
 70
   128
  0
VERTEX
  5
54A8
  8
0
 10
214.11522746086121
 20
246.8182879313826
 30
0.0
  0
VERTEX
  5
54A9
  8
0
 10
214.7178024798632
 20
246.95639189332721
 30
0.0
  0
VERTEX
  5
54AA
  8
0
 10
215.1912272721529
 20
247.09455918520689
 30
0.0
  0
VERTEX
  5
54AB
  8
0
 10
215.5201536417008
 20
247.22875159233811
 30
0.0
  0
VERTEX
  5
54AC
  8
0
 10
215.696721225977
 20
247.35455464571709
 30
0.0
  0
VERTEX
  5
54AD
  8
0
 10
215.71321122348311
 20
247.4669727310538
 30
0.0
  0
VERTEX
  5
54AE
  8
0
 10
215.57123854756361
 20
247.56201233714819
 30
0.0
  0
VERTEX
  5
54AF
  8
0
 10
215.2758714556694
 20
247.63445805758229
 30
0.0
  0
VERTEX
  5
54B0
  8
0
 10
214.83631327748299
 20
247.6823615655303
 30
0.0
  0
VERTEX
  5
54B1
  8
0
 10
214.2717157304287
 20
247.70273890346289
 30
0.0
  0
VERTEX
  5
54B2
  8
0
 10
213.5946982353926
 20
247.6958582922816
 30
0.0
  0
VERTEX
  5
54B3
  8
0
 10
212.8297396749258
 20
247.66197305172679
 30
0.0
  0
VERTEX
  5
54B4
  8
0
 10
211.9948648661375
 20
247.6032736524939
 30
0.0
  0
VERTEX
  5
54B5
  8
0
 10
211.10909886658189
 20
247.52180900424719
 30
0.0
  0
VERTEX
  5
54B6
  8
0
 10
210.20098298788071
 20
247.4216881021857
 30
0.0
  0
VERTEX
  5
54B7
  8
0
 10
209.28374759852889
 20
247.30520945042369
 30
0.0
  0
VERTEX
  5
54B8
  8
0
 10
208.3940551429987
 20
247.17804666608569
 30
0.0
  0
VERTEX
  5
54B9
  8
0
 10
207.54638768732551
 20
247.04267706722021
 30
0.0
  0
VERTEX
  5
54BA
  8
0
 10
206.7751631885767
 20
246.9049009308219
 30
0.0
  0
VERTEX
  5
54BB
  8
0
 10
206.33705414831641
 20
246.8182879313826
 30
0.0
  0
SEQEND
  5
54BC
  8
0
  0
LINE
  5
62D
  8
0
 10
206.33705414831641
 20
246.8182879313826
 30
0.0
 11
202.7347747981548
 21
246.0732745751738
 31
0.0
  0
LINE
  5
632
  8
0
 10
255.76795347034931
 20
195.00000000000011
 30
0.0
 11
209.2320554703474
 21
195.00000000000011
 31
0.0
  0
LINE
  5
633
  8
0
 10
207.5000040978193
 20
197.9999995604158
 30
0.0
 11
257.50000484287739
 21
197.9999995604158
 31
0.0
  0
LINE
  5
634
  8
0
 10
208.00000511109829
 20
208.4999996516853
 30
0.0
 11
257.00000382959843
 21
208.4999996516853
 31
0.0
  0
LINE
  5
636
  8
0
 10
262.61884614825249
 20
245.40663760155439
 30
0.0
 11
262.26523414254189
 21
246.0732745751738
 31
0.0
  0
LINE
  5
637
  8
0
 10
202.7347747981548
 20
246.0732745751738
 30
0.0
 11
202.3811627924442
 21
245.40663760155439
 31
0.0
  0
LINE
  5
639
  8
0
 10
252.50000402331349
 20
249.9999987706542
 30
0.0
 11
212.50000491738319
 21
249.9999987706542
 31
0.0
  0
ARC
  5
63D
  8
0
 10
226.33804985221181
 20
353.94239261313902
 30
0.0
 40
4.0000000000000151
 50
2.7981406746876369
 51
57.201859325310018
  0
ARC
  5
63E
  8
0
 10
238.66195908848491
 20
353.94239261313919
 30
0.0
 40
4.0000000000000124
 50
122.79814067469
 51
177.2018593253124
  0
ARC
  5
63F
  8
0
 10
232.50000447034839
 20
364.61521108568542
 30
0.0
 40
4.0
 50
270.0
 51
297.20185932531109
  0
ARC
  5
640
  8
0
 10
232.50000447034839
 20
364.61521108568542
 30
0.0
 40
4.0000000000000027
 50
242.79814067469059
 51
270.0
  0
CIRCLE
  5
64F
  8
0
 10
232.50000447034839
 20
357.49999877065437
 30
0.0
 40
19.999999999999972
  0
CIRCLE
  5
650
  8
0
 10
232.50000447034839
 20
357.49999877065437
 30
0.0
 40
22.000000000000028
  0
CIRCLE
  5
652
  8
0
 10
217.50000447034839
 20
357.49999877065437
 30
0.0
 40
0.75
  0
CIRCLE
  5
653
  8
0
 10
232.50000447034839
 20
357.49999877065437
 30
0.0
 40
9.6999999999999886
  0
CIRCLE
  5
655
  8
0
 10
232.50000447034839
 20
357.49999877065437
 30
0.0
 40
6.2499999999999707
  0
CIRCLE
  5
656
  8
0
 10
232.50000447034839
 20
357.49999877065437
 30
0.0
 40
24.000000000000028
  0
LINE
  5
658
  8
0
 10
202.38116275083539
 20
379.84066513213361
 30
0.0
 11
206.3370541488255
 21
375.88477577963249
 31
0.0
  0
ARC
  5
659
  8
0
 10
210.22574751467241
 20
379.7742557263303
 30
0.0
 40
5.4999991226677833
 50
225.0057941244969
 51
44.994205875504697
  0
LINE
  5
65A
  8
0
 10
214.11522746086121
 20
383.6629490926864
 30
0.0
 11
210.15933810886901
 21
387.61884049016732
 31
0.0
  0
LINE
  5
65C
  8
0
 10
254.84067083182759
 20
387.61884049016732
 30
0.0
 11
250.88478147983551
 21
383.6629490926864
 31
0.0
  0
ARC
  5
65D
  8
0
 10
254.77426142602431
 20
379.7742557263303
 30
0.0
 40
5.4999991226678233
 50
135.00579412449531
 51
314.99420587550298
  0
LINE
  5
65E
  8
0
 10
258.66295479237169
 20
375.88477578013271
 30
0.0
 11
262.6188461898613
 21
379.84066513213361
 31
0.0
  0
LINE
  5
660
  8
0
 10
262.6188461898613
 20
335.15933240917519
 30
0.0
 11
258.66295479238028
 21
339.11522176116728
 31
0.0
  0
ARC
  5
661
  8
0
 10
254.77426142602431
 20
335.22574181497862
 30
0.0
 40
5.499999122667762
 50
45.005794124496958
 51
224.99420587550469
  0
LINE
  5
662
  8
0
 10
250.88478147983551
 20
331.3370484486224
 30
0.0
 11
254.84067083182771
 21
327.3811570511416
 31
0.0
  0
LINE
  5
664
  8
0
 10
210.15933810886909
 20
327.3811570511416
 30
0.0
 11
214.11522746086121
 21
331.3370484486224
 31
0.0
  0
ARC
  5
665
  8
0
 10
210.22574751467241
 20
335.22574181497862
 30
0.0
 40
5.4999991226678029
 50
315.00579412449531
 51
134.99420587550301
  0
LINE
  5
666
  8
0
 10
206.33705414831641
 20
339.11522176116728
 30
0.0
 11
202.3811627508355
 21
335.15933240917519
 31
0.0
  0
CIRCLE
  5
66A
  8
0
 10
232.50000447034839
 20
357.49999877065437
 30
0.0
 40
4.0
  0
LINE
  5
66C
  8
0
 10
195.5000039935112
 20
351.39672385352583
 30
0.0
 11
195.5000039935112
 21
363.60327644273661
 31
0.0
  0
CIRCLE
  5
67A
  8
0
 10
210.2261408629723
 20
379.7738623780308
 30
0.0
 40
3.3000000000000389
  0
CIRCLE
  5
67C
  8
0
 10
254.7738680777245
 20
379.7738623780308
 30
0.0
 40
3.2999999999999821
  0
CIRCLE
  5
67E
  8
0
 10
254.77386807772459
 20
335.22613516327812
 30
0.0
 40
3.2999999999999821
  0
CIRCLE
  5
680
  8
0
 10
210.22614086297199
 20
335.22613516327829
 30
0.0
 40
3.2999999999999541
  0
CIRCLE
  5
683
  8
0
 10
263.19266151108332
 20
80.414041788168191
 30
0.0
 40
1.699999999999988
  0
CIRCLE
  5
684
  8
0
 10
201.00000447034839
 20
87.499999999999986
 30
0.0
 40
1.6999999999999931
  0
CIRCLE
  5
685
  8
0
 10
263.19266151108332
 20
94.585958211831752
 30
0.0
 40
1.699999999999994
  0
CIRCLE
  5
68C
  8
0
 10
240.86456421218341
 20
105.0595170869039
 30
0.0
 40
1.2499999999999141
  0
LINE
  5
68D
  8
0
 10
226.71818582341081
 20
107.6883763074874
 30
0.0
 11
227.0898678153753
 21
105.580461770296
 31
0.0
  0
ARC
  5
68E
  8
0
 10
224.13544472851331
 20
105.0595170869039
 30
0.0
 40
2.9999999999999991
 50
233.16709941493951
 51
9.9999999999986766
  0
ARC
  5
68F
  8
0
 10
232.50000447034839
 20
87.499999999999986
 30
0.0
 40
18.250000000000021
 50
123.84011202047211
 51
56.159887979527831
  0
ARC
  5
690
  8
0
 10
240.86456421218341
 20
105.0595170869039
 30
0.0
 40
3.0000000000000191
 50
170.00000000000131
 51
306.83290058506049
  0
LINE
  5
691
  8
0
 10
237.91014112532139
 20
105.580461770296
 30
0.0
 11
238.281823117286
 21
107.6883763074874
 31
0.0
  0
CIRCLE
  5
692
  8
0
 10
224.13544472851331
 20
105.0595170869039
 30
0.0
 40
1.2499999999999141
  0
CIRCLE
  5
694
  8
0
 10
232.50000447034839
 20
87.499999999999986
 30
0.0
 40
15.0
  0
CIRCLE
  5
696
  8
0
 10
232.50000447034839
 20
87.499999999999986
 30
0.0
 40
23.267949192431129
  0
CIRCLE
  5
697
  8
0
 10
232.50000447034839
 20
87.499999999999986
 30
0.0
 40
25.0
  0
CIRCLE
  5
698
  8
0
 10
232.50000447034839
 20
87.499999999999986
 30
0.0
 40
21.000000000000011
  0
CIRCLE
  5
69F
  8
0
 10
201.00000447034839
 20
87.499999999999986
 30
0.0
 40
3.5999999999999939
  0
CIRCLE
  5
6A0
  8
0
 10
263.19266151108332
 20
80.414041788168191
 30
0.0
 40
3.600000000000001
  0
CIRCLE
  5
6A1
  8
0
 10
263.19266151108332
 20
94.585958211831752
 30
0.0
 40
3.6000000000000081
  0
POLYLINE
  5
6A2
  8
0
 66
     1
 10
0.0
 20
0.0
 30
0.0
 70
   128
  0
VERTEX
  5
54BD
  8
0
 10
268.55169504880911
 20
95.823188871145234
 30
0.0
  0
VERTEX
  5
54BE
  8
0
 10
269.23816546797752
 20
92.849763203412266
 30
0.0
  0
VERTEX
  5
54BF
  8
0
 10
269.924635887146
 20
89.876337768509956
 30
0.0
  0
SEQEND
  5
54C0
  8
0
  0
POLYLINE
  5
6A4
  8
0
 66
     1
 10
0.0
 20
0.0
 30
0.0
 70
   128
  0
VERTEX
  5
54C1
  8
0
 10
267.17875793576241
 20
101.7700402066111
 30
0.0
  0
VERTEX
  5
54C2
  8
0
 10
267.86073565483088
 20
98.816075921058626
 30
0.0
  0
VERTEX
  5
54C3
  8
0
 10
268.55169504880911
 20
95.823188871145234
 30
0.0
  0
SEQEND
  5
54C4
  8
0
  0
CIRCLE
  5
6A5
  8
0
 10
210.2261408629723
 20
65.226136392623488
 30
0.0
 40
3.2999999999999821
  0
CIRCLE
  5
6A6
  8
0
 10
254.7738680777245
 20
65.226136392623715
 30
0.0
 40
3.2999999999999821
  0
CIRCLE
  5
6A8
  8
0
 10
254.77386807772459
 20
109.7738636073762
 30
0.0
 40
3.2999999999999972
  0
CIRCLE
  5
6A9
  8
0
 10
210.22614086297199
 20
109.7738636073761
 30
0.0
 40
3.2999999999999972
  0
CIRCLE
  5
6AA
  8
0
 10
263.19266151108332
 20
80.414041788168191
 30
0.0
 40
1.2499999999999849
  0
CIRCLE
  5
6AB
  8
0
 10
201.00000447034839
 20
87.499999999999986
 30
0.0
 40
1.25
  0
CIRCLE
  5
6AC
  8
0
 10
263.19266151108332
 20
94.585958211831752
 30
0.0
 40
1.2499999999999849
  0
LINE
  5
6B7
  8
0
 10
50.0
 20
210.4999996884726
 30
0.0
 11
50.500001013278961
 21
209.99999966472379
 31
0.0
  0
LINE
  5
6B8
  8
0
 10
124.50000196695321
 20
209.99999966472379
 30
0.0
 11
125.0000029802322
 21
210.4999996884726
 31
0.0
  0
LINE
  5
6B9
  8
0
 10
125.0000029802322
 20
210.4999996884726
 30
0.0
 11
125.0000029802322
 21
245.40663760155439
 31
0.0
  0
LINE
  5
6BA
  8
0
 10
50.0
 20
245.40663760155439
 30
0.0
 11
50.0
 21
210.4999996884726
 31
0.0
  0
LINE
  5
6BB
  8
0
 10
124.50539991259571
 20
246.0732745751738
 30
0.0
 11
111.50000169873231
 21
247.9999984428286
 31
0.0
  0
LINE
  5
6BC
  8
0
 10
63.500001281499863
 20
247.9999984428286
 30
0.0
 11
50.494603067636483
 21
246.0732745751738
 31
0.0
  0
LINE
  5
6BD
  8
0
 10
62.500001117587082
 20
197.9999995604158
 30
0.0
 11
64.232052490115166
 21
195.00000000000011
 31
0.0
  0
LINE
  5
6BE
  8
0
 10
110.767950490117
 20
195.00000000000011
 30
0.0
 11
112.50000186264511
 21
197.9999995604158
 31
0.0
  0
LINE
  5
6BF
  8
0
 10
112.50000186264511
 20
197.9999995604158
 30
0.0
 11
112.50000186264511
 21
207.99999956972891
 31
0.0
  0
LINE
  5
6C0
  8
0
 10
62.500001117587082
 20
207.99999956972891
 30
0.0
 11
62.500001117587082
 21
197.9999995604158
 31
0.0
  0
LINE
  5
6C1
  8
0
 10
112.50000186264511
 20
207.99999956972891
 30
0.0
 11
112.0000008493662
 21
208.4999996516853
 31
0.0
  0
LINE
  5
6C2
  8
0
 10
63.000002130866051
 20
208.4999996516853
 30
0.0
 11
62.500001117587082
 21
207.99999956972891
 31
0.0
  0
LINE
  5
6C3
  8
0
 10
63.000002130866051
 20
209.99999966472379
 30
0.0
 11
63.000002130866051
 21
208.4999996516853
 31
0.0
  0
LINE
  5
6C4
  8
0
 10
112.0000008493662
 20
208.4999996516853
 30
0.0
 11
112.0000008493662
 21
209.99999966472379
 31
0.0
  0
LINE
  5
6C5
  8
0
 10
125.0000029802322
 20
245.40663760155439
 30
0.0
 11
124.50539991259571
 21
246.0732745751738
 31
0.0
  0
LINE
  5
6C6
  8
0
 10
50.494603067636483
 20
246.0732745751738
 30
0.0
 11
50.0
 21
245.40663760155439
 31
0.0
  0
LINE
  5
6C7
  8
0
 10
109.5000013709068
 20
247.9999984428286
 30
0.0
 11
107.5000010430813
 21
249.9999987706542
 31
0.0
  0
LINE
  5
6C8
  8
0
 10
67.500001937150955
 20
249.9999987706542
 30
0.0
 11
65.500001609325395
 21
247.9999984428286
 31
0.0
  0
CIRCLE
  5
776
  8
0
 10
87.500001490117143
 20
242.9999996647239
 30
0.0
 40
1.399999999999989
  0
LINE
  5
777
  8
0
 10
124.50000196695321
 20
209.99999966472379
 30
0.0
 11
50.500001013278961
 21
209.99999966472379
 31
0.0
  0
LINE
  5
779
  8
0
 10
109.8406679928304
 20
245.40663760155439
 30
0.0
 11
93.603279162198419
 21
245.40663760155439
 31
0.0
  0
LINE
  5
77A
  8
0
 10
109.8406679928304
 20
239.99999899417159
 30
0.0
 11
109.8406679928304
 21
245.40663760155439
 31
0.0
  0
LINE
  5
77B
  8
0
 10
109.8406679928304
 20
239.99999899417159
 30
0.0
 11
117.61884316802031
 21
239.99999899417159
 31
0.0
  0
LINE
  5
77C
  8
0
 10
117.61884316802031
 20
239.99999899417159
 30
0.0
 11
117.61884316802031
 21
245.40663760155439
 31
0.0
  0
LINE
  5
77D
  8
0
 10
125.0000029802322
 20
245.40663760155439
 30
0.0
 11
117.61884316802031
 21
245.40663760155439
 31
0.0
  0
LINE
  5
77E
  8
0
 10
57.381159812212047
 20
245.40663760155439
 30
0.0
 11
50.0
 21
245.40663760155439
 31
0.0
  0
LINE
  5
77F
  8
0
 10
57.381159812212047
 20
239.99999899417159
 30
0.0
 11
57.381159812212047
 21
245.40663760155439
 31
0.0
  0
LINE
  5
780
  8
0
 10
57.381159812212047
 20
239.99999899417159
 30
0.0
 11
65.159334987402076
 21
239.99999899417159
 31
0.0
  0
LINE
  5
781
  8
0
 10
65.159334987402076
 20
239.99999899417159
 30
0.0
 11
65.159334987402076
 21
245.40663760155439
 31
0.0
  0
LINE
  5
782
  8
0
 10
81.396723818034047
 20
245.40663760155439
 30
0.0
 11
65.159334987402076
 21
245.40663760155439
 31
0.0
  0
LINE
  5
783
  8
0
 10
81.396723818034047
 20
245.40663760155439
 30
0.0
 11
81.396723818034047
 21
229.99999921768901
 31
0.0
  0
LINE
  5
784
  8
0
 10
81.396723818034047
 20
229.99999921768901
 30
0.0
 11
93.603279162198419
 21
229.99999921768901
 31
0.0
  0
LINE
  5
785
  8
0
 10
93.603279162198419
 20
229.99999921768901
 30
0.0
 11
93.603279162198419
 21
245.40663760155439
 31
0.0
  0
LINE
  5
786
  8
0
 10
111.50000169873231
 20
247.9999984428286
 30
0.0
 11
63.500001281499863
 21
247.9999984428286
 31
0.0
  0
LINE
  5
788
  8
0
 10
65.512946993112664
 20
246.0732745751738
 30
0.0
 11
69.115224480629053
 21
246.8182879313826
 31
0.0
  0
POLYLINE
  5
789
  8
0
 66
     1
 10
0.0
 20
0.0
 30
0.0
 70
   128
  0
VERTEX
  5
54C5
  8
0
 10
69.115224480629053
 20
246.8182879313826
 30
0.0
  0
VERTEX
  5
54C6
  8
0
 10
69.717799499631013
 20
246.95639189332721
 30
0.0
  0
VERTEX
  5
54C7
  8
0
 10
70.191224291920747
 20
247.09455918520689
 30
0.0
  0
VERTEX
  5
54C8
  8
0
 10
70.520150661468591
 20
247.22875159233811
 30
0.0
  0
VERTEX
  5
54C9
  8
0
 10
70.69671824574479
 20
247.35455464571709
 30
0.0
  0
VERTEX
  5
54CA
  8
0
 10
70.713208243250932
 20
247.4669727310538
 30
0.0
  0
VERTEX
  5
54CB
  8
0
 10
70.571235567331371
 20
247.56201233714819
 30
0.0
  0
VERTEX
  5
54CC
  8
0
 10
70.275868475437221
 20
247.63445805758229
 30
0.0
  0
VERTEX
  5
54CD
  8
0
 10
69.836310297250805
 20
247.6823615655303
 30
0.0
  0
VERTEX
  5
54CE
  8
0
 10
69.271712750196514
 20
247.70273890346289
 30
0.0
  0
VERTEX
  5
54CF
  8
0
 10
68.594695255160389
 20
247.6958582922816
 30
0.0
  0
VERTEX
  5
54D0
  8
0
 10
67.829736694693622
 20
247.66197305172679
 30
0.0
  0
VERTEX
  5
54D1
  8
0
 10
66.994861885905323
 20
247.6032736524939
 30
0.0
  0
VERTEX
  5
54D2
  8
0
 10
66.109095886349735
 20
247.52180900424719
 30
0.0
  0
VERTEX
  5
54D3
  8
0
 10
65.200980007648525
 20
247.4216881021857
 30
0.0
  0
VERTEX
  5
54D4
  8
0
 10
64.28374461829668
 20
247.30520945042369
 30
0.0
  0
VERTEX
  5
54D5
  8
0
 10
63.394052162766513
 20
247.17804666608569
 30
0.0
  0
VERTEX
  5
54D6
  8
0
 10
62.546384707093303
 20
247.04267706722021
 30
0.0
  0
VERTEX
  5
54D7
  8
0
 10
61.775160208344523
 20
246.9049009308219
 30
0.0
  0
VERTEX
  5
54D8
  8
0
 10
61.337051168084201
 20
246.8182879313826
 30
0.0
  0
SEQEND
  5
54D9
  8
0
  0
LINE
  5
78A
  8
0
 10
61.337051168084201
 20
246.8182879313826
 30
0.0
 11
57.734771817922649
 21
246.0732745751738
 31
0.0
  0
LINE
  5
78D
  8
0
 10
117.2652311623097
 20
246.0732745751738
 30
0.0
 11
113.66295181214809
 21
246.8182879313826
 31
0.0
  0
POLYLINE
  5
78E
  8
0
 66
     1
 10
0.0
 20
0.0
 30
0.0
 70
   128
  0
VERTEX
  5
54DA
  8
0
 10
113.66295181214809
 20
246.8182879313826
 30
0.0
  0
VERTEX
  5
54DB
  8
0
 10
112.94701993465431
 20
246.95639189332721
 30
0.0
  0
VERTEX
  5
54DC
  8
0
 10
112.13985756039619
 20
247.09455918520689
 30
0.0
  0
VERTEX
  5
54DD
  8
0
 10
111.262920498848
 20
247.22875159233811
 30
0.0
  0
VERTEX
  5
54DE
  8
0
 10
110.34197099506861
 20
247.35455464571709
 30
0.0
  0
VERTEX
  5
54DF
  8
0
 10
109.4054590910674
 20
247.4669727310538
 30
0.0
  0
VERTEX
  5
54E0
  8
0
 10
108.4777444601059
 20
247.56201233714819
 30
0.0
  0
VERTEX
  5
54E1
  8
0
 10
107.59583972394471
 20
247.63445805758229
 30
0.0
  0
VERTEX
  5
54E2
  8
0
 10
106.77447840571411
 20
247.6823615655303
 30
0.0
  0
VERTEX
  5
54E3
  8
0
 10
106.0486745089293
 20
247.70273890346289
 30
0.0
  0
VERTEX
  5
54E4
  8
0
 10
105.42612820863729
 20
247.6958582922816
 30
0.0
  0
VERTEX
  5
54E5
  8
0
 10
104.9297649413348
 20
247.66197305172679
 30
0.0
  0
VERTEX
  5
54E6
  8
0
 10
104.5660238713026
 20
247.6032736524939
 30
0.0
  0
VERTEX
  5
54E7
  8
0
 10
104.34573069214829
 20
247.52180900424719
 30
0.0
  0
VERTEX
  5
54E8
  8
0
 10
104.2739219963551
 20
247.4216881021857
 30
0.0
  0
VERTEX
  5
54E9
  8
0
 10
104.35573309659959
 20
247.30520945042369
 30
0.0
  0
VERTEX
  5
54EA
  8
0
 10
104.58797514438641
 20
247.17804666608569
 30
0.0
  0
VERTEX
  5
54EB
  8
0
 10
104.97146956622611
 20
247.04267706722021
 30
0.0
  0
VERTEX
  5
54EC
  8
0
 10
105.4912555962802
 20
246.9049009308219
 30
0.0
  0
VERTEX
  5
54ED
  8
0
 10
105.8847784996033
 20
246.8182879313826
 30
0.0
  0
SEQEND
  5
54EE
  8
0
  0
LINE
  5
78F
  8
0
 10
105.8847784996033
 20
246.8182879313826
 30
0.0
 11
109.4870559871198
 21
246.0732745751738
 31
0.0
  0
LINE
  5
791
  8
0
 10
88.132062414661164
 20
246.0732745751738
 30
0.0
 11
86.867940565571317
 21
246.0732745751738
 31
0.0
  0
LINE
  5
792
  8
0
 10
65.159334987402076
 20
245.40663760155439
 30
0.0
 11
65.512946993112664
 21
246.0732745751738
 31
0.0
  0
POLYLINE
  5
793
  8
0
 66
     1
 10
0.0
 20
0.0
 30
0.0
 70
   128
  0
VERTEX
  5
54EF
  8
0
 10
86.867940565571317
 20
246.0732745751738
 30
0.0
  0
VERTEX
  5
54F0
  8
0
 10
84.067372558638567
 20
245.86639802902931
 30
0.0
  0
VERTEX
  5
54F1
  8
0
 10
81.396723818034047
 20
245.40663760155439
 30
0.0
  0
SEQEND
  5
54F2
  8
0
  0
POLYLINE
  5
795
  8
0
 66
     1
 10
0.0
 20
0.0
 30
0.0
 70
   128
  0
VERTEX
  5
54F3
  8
0
 10
93.603279162198419
 20
245.40663760155439
 30
0.0
  0
VERTEX
  5
54F4
  8
0
 10
90.896392194554323
 20
245.87088700383899
 30
0.0
  0
VERTEX
  5
54F5
  8
0
 10
88.132062414661164
 20
246.0732745751738
 30
0.0
  0
SEQEND
  5
54F6
  8
0
  0
LINE
  5
797
  8
0
 10
109.4870559871198
 20
246.0732745751738
 30
0.0
 11
109.8406679928304
 21
245.40663760155439
 31
0.0
  0
CIRCLE
  5
798
  8
0
 10
87.500001490116233
 20
242.9999996647239
 30
0.0
 40
1.5499999999999969
  0
LINE
  5
79C
  8
0
 10
110.767950490117
 20
195.00000000000011
 30
0.0
 11
64.232052490115166
 21
195.00000000000011
 31
0.0
  0
LINE
  5
79D
  8
0
 10
62.500001117587082
 20
197.9999995604158
 30
0.0
 11
112.50000186264511
 21
197.9999995604158
 31
0.0
  0
LINE
  5
7A1
  8
0
 10
63.000002130866051
 20
208.4999996516853
 30
0.0
 11
112.0000008493662
 21
208.4999996516853
 31
0.0
  0
LINE
  5
7A2
  8
0
 10
117.61884316802031
 20
245.40663760155439
 30
0.0
 11
117.2652311623097
 21
246.0732745751738
 31
0.0
  0
LINE
  5
7A3
  8
0
 10
57.734771817922649
 20
246.0732745751738
 30
0.0
 11
57.381159812212047
 21
245.40663760155439
 31
0.0
  0
LINE
  5
7A4
  8
0
 10
107.5000010430813
 20
249.9999987706542
 30
0.0
 11
67.500001937150955
 21
249.9999987706542
 31
0.0
  0
LINE
  5
7A8
  8
0
 10
382.44787954613912
 20
229.9999996647239
 30
0.0
 11
389.19851337646787
 21
229.9999996647239
 31
0.0
  0
LINE
  5
7AE
  8
0
 10
415.00000894069672
 20
210.4999996884726
 30
0.0
 11
415.00000894069672
 21
245.40663760155439
 31
0.0
  0
LINE
  5
7AF
  8
0
 10
340.00000596046448
 20
245.40663760155439
 30
0.0
 11
340.00000596046448
 21
210.4999996884726
 31
0.0
  0
LINE
  5
7B0
  8
0
 10
340.00000596046448
 20
210.4999996884726
 30
0.0
 11
340.50000697374338
 21
209.99999966472379
 31
0.0
  0
LINE
  5
7B1
  8
0
 10
414.5000079274177
 20
209.99999966472379
 30
0.0
 11
415.00000894069672
 21
210.4999996884726
 31
0.0
  0
LINE
  5
7B2
  8
0
 10
414.50540587306023
 20
246.0732745751738
 30
0.0
 11
401.5000076591968
 21
247.9999984428286
 31
0.0
  0
LINE
  5
7B3
  8
0
 10
353.50000724196428
 20
247.9999984428286
 30
0.0
 11
340.49460902810102
 21
246.0732745751738
 31
0.0
  0
LINE
  5
7B4
  8
0
 10
402.50000782310963
 20
207.99999956972891
 30
0.0
 11
402.00000680983072
 21
208.4999996516853
 31
0.0
  0
LINE
  5
7B5
  8
0
 10
353.00000809133053
 20
208.4999996516853
 30
0.0
 11
352.50000707805162
 21
207.99999956972891
 31
0.0
  0
LINE
  5
7B6
  8
0
 10
402.50000782310963
 20
197.9999995604158
 30
0.0
 11
402.50000782310963
 21
207.99999956972891
 31
0.0
  0
LINE
  5
7B7
  8
0
 10
352.50000707805162
 20
207.99999956972891
 30
0.0
 11
352.50000707805162
 21
197.9999995604158
 31
0.0
  0
LINE
  5
7B8
  8
0
 10
352.50000707805162
 20
197.9999995604158
 30
0.0
 11
354.23205845057959
 21
195.00000000000011
 31
0.0
  0
LINE
  5
7B9
  8
0
 10
400.76795645058149
 20
195.00000000000011
 30
0.0
 11
402.50000782310963
 21
197.9999995604158
 31
0.0
  0
LINE
  5
7BA
  8
0
 10
353.00000809133053
 20
209.99999966472379
 30
0.0
 11
353.00000809133053
 21
208.4999996516853
 31
0.0
  0
LINE
  5
7BB
  8
0
 10
402.00000680983072
 20
208.4999996516853
 30
0.0
 11
402.00000680983072
 21
209.99999966472379
 31
0.0
  0
LINE
  5
7BC
  8
0
 10
415.00000894069672
 20
245.40663760155439
 30
0.0
 11
414.50540587306023
 21
246.0732745751738
 31
0.0
  0
LINE
  5
7BD
  8
0
 10
340.49460902810102
 20
246.0732745751738
 30
0.0
 11
340.00000596046448
 21
245.40663760155439
 31
0.0
  0
LINE
  5
7BE
  8
0
 10
399.50000733137131
 20
247.9999984428286
 30
0.0
 11
397.5000070035457
 21
249.9999987706542
 31
0.0
  0
LINE
  5
7BF
  8
0
 10
357.50000789761538
 20
249.9999987706542
 30
0.0
 11
355.50000756978989
 21
247.9999984428286
 31
0.0
  0
LINE
  5
7C0
  8
0
 10
375.1236696820705
 20
221.999999769032
 30
0.0
 11
363.22996724396933
 21
221.999999769032
 31
0.0
  0
LINE
  5
7C1
  8
0
 10
363.22996724396933
 20
221.999999769032
 30
0.0
 11
363.22996724396933
 21
210.4999996884726
 31
0.0
  0
LINE
  5
7C4
  8
0
 10
375.1236696820705
 20
210.4999996884726
 30
0.0
 11
375.1236696820705
 21
221.999999769032
 31
0.0
  0
LINE
  5
7C5
  8
0
 10
379.87634521909052
 20
242.00000118464229
 30
0.0
 11
379.87634521909052
 21
229.99999921768901
 31
0.0
  0
LINE
  5
7C6
  8
0
 10
379.87634521909052
 20
229.99999921768901
 30
0.0
 11
391.7700476571917
 21
229.99999921768901
 31
0.0
  0
LINE
  5
7C7
  8
0
 10
391.7700476571917
 20
229.99999921768901
 30
0.0
 11
391.7700476571917
 21
242.00000118464229
 31
0.0
  0
LINE
  5
7C8
  8
0
 10
391.7700476571917
 20
242.00000118464229
 30
0.0
 11
379.87634521909052
 21
242.00000118464229
 31
0.0
  0
LINE
  5
7C9
  8
0
 10
347.38116577267641
 20
245.40663760155439
 30
0.0
 11
340.00000596046448
 21
245.40663760155439
 31
0.0
  0
LINE
  5
7CA
  8
0
 10
347.38116577267641
 20
239.99999899417159
 30
0.0
 11
347.38116577267641
 21
245.40663760155439
 31
0.0
  0
LINE
  5
7CB
  8
0
 10
347.38116577267641
 20
239.99999899417159
 30
0.0
 11
355.15934094786633
 21
239.99999899417159
 31
0.0
  0
LINE
  5
7CC
  8
0
 10
355.15934094786633
 20
239.99999899417159
 30
0.0
 11
355.15934094786633
 21
245.40663760155439
 31
0.0
  0
LINE
  5
7CD
  8
0
 10
399.8406739532947
 20
245.40663760155439
 30
0.0
 11
355.15934094786633
 21
245.40663760155439
 31
0.0
  0
LINE
  5
7CE
  8
0
 10
399.8406739532947
 20
239.99999899417159
 30
0.0
 11
399.8406739532947
 21
245.40663760155439
 31
0.0
  0
LINE
  5
7CF
  8
0
 10
399.8406739532947
 20
239.99999899417159
 30
0.0
 11
407.61884912848461
 21
239.99999899417159
 31
0.0
  0
LINE
  5
7D0
  8
0
 10
407.61884912848461
 20
239.99999899417159
 30
0.0
 11
407.61884912848461
 21
245.40663760155439
 31
0.0
  0
LINE
  5
7D1
  8
0
 10
415.00000894069672
 20
245.40663760155439
 30
0.0
 11
407.61884912848461
 21
245.40663760155439
 31
0.0
  0
LINE
  5
7D2
  8
0
 10
414.5000079274177
 20
209.99999966472379
 30
0.0
 11
340.50000697374338
 21
209.99999966472379
 31
0.0
  0
POLYLINE
  5
7D4
  8
0
 66
     1
 10
0.0
 20
0.0
 30
0.0
 70
   128
  0
VERTEX
  5
54F7
  8
0
 10
369.17681857943518
 20
209.99999966472379
 30
0.0
  0
VERTEX
  5
54F8
  8
0
 10
372.15024424716819
 20
210.12563097639941
 30
0.0
  0
VERTEX
  5
54F9
  8
0
 10
375.1236696820705
 20
210.4999996884726
 30
0.0
  0
SEQEND
  5
54FA
  8
0
  0
POLYLINE
  5
7D5
  8
0
 66
     1
 10
0.0
 20
0.0
 30
0.0
 70
   128
  0
VERTEX
  5
54FB
  8
0
 10
363.22996724396933
 20
210.4999996884726
 30
0.0
  0
VERTEX
  5
54FC
  8
0
 10
366.18393152952177
 20
210.12727807858019
 30
0.0
  0
VERTEX
  5
54FD
  8
0
 10
369.17681857943518
 20
209.99999966472379
 30
0.0
  0
SEQEND
  5
54FE
  8
0
  0
LINE
  5
7D6
  8
0
 10
355.15934094786633
 20
245.40663760155439
 30
0.0
 11
355.51295295357693
 21
246.0732745751738
 31
0.0
  0
LINE
  5
7D8
  8
0
 10
399.48706194758398
 20
246.0732745751738
 30
0.0
 11
399.8406739532947
 21
245.40663760155439
 31
0.0
  0
LINE
  5
7DB
  8
0
 10
401.5000076591968
 20
247.9999984428286
 30
0.0
 11
353.50000724196428
 21
247.9999984428286
 31
0.0
  0
LINE
  5
7DD
  8
0
 10
407.26523712277401
 20
246.0732745751738
 30
0.0
 11
403.66295777261251
 21
246.8182879313826
 31
0.0
  0
POLYLINE
  5
7DE
  8
0
 66
     1
 10
0.0
 20
0.0
 30
0.0
 70
   128
  0
VERTEX
  5
54FF
  8
0
 10
403.66295777261251
 20
246.8182879313826
 30
0.0
  0
VERTEX
  5
5500
  8
0
 10
402.9470258951186
 20
246.95639189332721
 30
0.0
  0
VERTEX
  5
5501
  8
0
 10
402.13986352086062
 20
247.09455918520689
 30
0.0
  0
VERTEX
  5
5502
  8
0
 10
401.26292645931233
 20
247.22875159233811
 30
0.0
  0
VERTEX
  5
5503
  8
0
 10
400.34197695553291
 20
247.35455464571709
 30
0.0
  0
VERTEX
  5
5504
  8
0
 10
399.40546505153168
 20
247.4669727310538
 30
0.0
  0
VERTEX
  5
5505
  8
0
 10
398.47775042057032
 20
247.56201233714819
 30
0.0
  0
VERTEX
  5
5506
  8
0
 10
397.59584568440908
 20
247.63445805758229
 30
0.0
  0
VERTEX
  5
5507
  8
0
 10
396.77448436617851
 20
247.6823615655303
 30
0.0
  0
VERTEX
  5
5508
  8
0
 10
396.04868046939367
 20
247.70273890346289
 30
0.0
  0
VERTEX
  5
5509
  8
0
 10
395.42613416910172
 20
247.6958582922816
 30
0.0
  0
VERTEX
  5
550A
  8
0
 10
394.9297709017992
 20
247.66197305172679
 30
0.0
  0
VERTEX
  5
550B
  8
0
 10
394.56602983176703
 20
247.6032736524939
 30
0.0
  0
VERTEX
  5
550C
  8
0
 10
394.34573665261257
 20
247.52180900424719
 30
0.0
  0
VERTEX
  5
550D
  8
0
 10
394.27392795681948
 20
247.4216881021857
 30
0.0
  0
VERTEX
  5
550E
  8
0
 10
394.355739057064
 20
247.30520945042369
 30
0.0
  0
VERTEX
  5
550F
  8
0
 10
394.58798110485071
 20
247.17804666608569
 30
0.0
  0
VERTEX
  5
5510
  8
0
 10
394.97147552669043
 20
247.04267706722021
 30
0.0
  0
VERTEX
  5
5511
  8
0
 10
395.49126155674452
 20
246.9049009308219
 30
0.0
  0
VERTEX
  5
5512
  8
0
 10
395.88478446006758
 20
246.8182879313826
 30
0.0
  0
SEQEND
  5
5513
  8
0
  0
LINE
  5
7DF
  8
0
 10
395.88478446006758
 20
246.8182879313826
 30
0.0
 11
399.48706194758398
 21
246.0732745751738
 31
0.0
  0
LINE
  5
7E0
  8
0
 10
355.51295295357693
 20
246.0732745751738
 30
0.0
 11
359.11523044109327
 21
246.8182879313826
 31
0.0
  0
POLYLINE
  5
7E1
  8
0
 66
     1
 10
0.0
 20
0.0
 30
0.0
 70
   128
  0
VERTEX
  5
5514
  8
0
 10
359.11523044109327
 20
246.8182879313826
 30
0.0
  0
VERTEX
  5
5515
  8
0
 10
359.71780546009529
 20
246.95639189332721
 30
0.0
  0
VERTEX
  5
5516
  8
0
 10
360.19123025238503
 20
247.09455918520689
 30
0.0
  0
VERTEX
  5
5517
  8
0
 10
360.52015662193293
 20
247.22875159233811
 30
0.0
  0
VERTEX
  5
5518
  8
0
 10
360.69672420620913
 20
247.35455464571709
 30
0.0
  0
VERTEX
  5
5519
  8
0
 10
360.71321420371532
 20
247.4669727310538
 30
0.0
  0
VERTEX
  5
551A
  8
0
 10
360.57124152779568
 20
247.56201233714819
 30
0.0
  0
VERTEX
  5
551B
  8
0
 10
360.27587443590159
 20
247.63445805758229
 30
0.0
  0
VERTEX
  5
551C
  8
0
 10
359.83631625771523
 20
247.6823615655303
 30
0.0
  0
VERTEX
  5
551D
  8
0
 10
359.27171871066088
 20
247.70273890346289
 30
0.0
  0
VERTEX
  5
551E
  8
0
 10
358.59470121562481
 20
247.6958582922816
 30
0.0
  0
VERTEX
  5
551F
  8
0
 10
357.82974265515799
 20
247.66197305172679
 30
0.0
  0
VERTEX
  5
5520
  8
0
 10
356.99486784636969
 20
247.6032736524939
 30
0.0
  0
VERTEX
  5
5521
  8
0
 10
356.1091018468141
 20
247.52180900424719
 30
0.0
  0
VERTEX
  5
5522
  8
0
 10
355.20098596811289
 20
247.4216881021857
 30
0.0
  0
VERTEX
  5
5523
  8
0
 10
354.28375057876099
 20
247.30520945042369
 30
0.0
  0
VERTEX
  5
5524
  8
0
 10
353.39405812323088
 20
247.17804666608569
 30
0.0
  0
VERTEX
  5
5525
  8
0
 10
352.54639066755772
 20
247.04267706722021
 30
0.0
  0
VERTEX
  5
5526
  8
0
 10
351.77516616880888
 20
246.9049009308219
 30
0.0
  0
VERTEX
  5
5527
  8
0
 10
351.33705712854862
 20
246.8182879313826
 30
0.0
  0
SEQEND
  5
5528
  8
0
  0
LINE
  5
7E2
  8
0
 10
351.33705712854862
 20
246.8182879313826
 30
0.0
 11
347.73477777838701
 21
246.0732745751738
 31
0.0
  0
LINE
  5
7F1
  8
0
 10
353.00000809133053
 20
208.4999996516853
 30
0.0
 11
402.00000680983072
 21
208.4999996516853
 31
0.0
  0
LINE
  5
7F3
  8
0
 10
352.50000707805162
 20
197.9999995604158
 30
0.0
 11
402.50000782310963
 21
197.9999995604158
 31
0.0
  0
LINE
  5
7F4
  8
0
 10
400.76795645058149
 20
195.00000000000011
 30
0.0
 11
354.23205845057959
 21
195.00000000000011
 31
0.0
  0
LINE
  5
7F5
  8
0
 10
407.61884912848461
 20
245.40663760155439
 30
0.0
 11
407.26523712277401
 21
246.0732745751738
 31
0.0
  0
LINE
  5
7F6
  8
0
 10
347.73477777838701
 20
246.0732745751738
 30
0.0
 11
347.38116577267641
 21
245.40663760155439
 31
0.0
  0
LINE
  5
7F7
  8
0
 10
397.5000070035457
 20
249.9999987706542
 30
0.0
 11
357.50000789761538
 21
249.9999987706542
 31
0.0
  0
CIRCLE
  5
D32
  8
0
 10
232.50000447034839
 20
357.49999877065437
 30
0.0
 40
37.5
  0
LINE
  5
DC8
  8
1
 10
185.0000044703483
 20
357.49999877065437
 30
0.0
 11
280.00000447034841
 21
357.49999877065437
 31
0.0
  0
LINE
  5
DC9
  8
1
 10
232.50000447034839
 20
404.99999877065437
 30
0.0
 11
232.50000447034839
 21
309.99999877065437
 31
0.0
  0
CIRCLE
  5
E1A
  8
0
 10
232.50000447034839
 20
87.499999999999986
 30
0.0
 40
37.5
  0
LINE
  5
E1B
  8
1
 10
185.0000044703483
 20
87.499999999999986
 30
0.0
 11
280.00000447034841
 21
87.499999999999986
 31
0.0
  0
LINE
  5
E1C
  8
1
 10
232.50000447034839
 20
134.99999999999989
 30
0.0
 11
232.50000447034839
 21
39.999999999999972
 31
0.0
  0
LINE
  5
F03
  8
1
 10
205.77136814149711
 20
60.771363671148237
 30
0.0
 11
214.6809135844475
 21
69.680909114098725
 31
0.0
  0
LINE
  5
F04
  8
1
 10
205.77136814149671
 20
114.22863632885129
 30
0.0
 11
214.6809135844473
 21
105.31909088590091
 31
0.0
  0
LINE
  5
F05
  8
1
 10
256.76181908350082
 20
93.101281253162227
 30
0.0
 11
269.62350393866581
 21
96.070635170501291
 31
0.0
  0
LINE
  5
F06
  8
1
 10
256.76181908350071
 20
81.898718746837716
 30
0.0
 11
269.62350393866581
 21
78.92936482949878
 31
0.0
  0
LINE
  5
F12
  8
1
 10
250.31909535624939
 20
105.31909088590091
 30
0.0
 11
259.22864079919981
 21
114.22863632885139
 31
0.0
  0
LINE
  5
F13
  8
1
 10
250.31909535624931
 20
69.680909114098966
 30
0.0
 11
259.22864079919981
 21
60.771363671148457
 31
0.0
  0
CIRCLE
  5
F14
  8
1
 10
232.50000447034839
 20
87.499999999999986
 30
0.0
 40
31.5
  0
LINE
  5
FC7
  8
1
 10
205.77136814149711
 20
330.77136244180269
 30
0.0
 11
214.6809135844475
 21
339.6809078847532
 31
0.0
  0
LINE
  5
FC8
  8
1
 10
250.31909535624939
 20
375.31908965655538
 30
0.0
 11
259.22864079919981
 21
384.22863509950588
 31
0.0
  0
LINE
  5
FC9
  8
1
 10
205.77136814149671
 20
384.22863509950571
 30
0.0
 11
214.6809135844473
 21
375.31908965655538
 31
0.0
  0
LINE
  5
FCA
  8
1
 10
250.31909535624931
 20
339.68090788475342
 30
0.0
 11
259.22864079919981
 21
330.77136244180292
 31
0.0
  0
CIRCLE
  5
FCB
  8
1
 10
232.50000447034839
 20
357.49999877065437
 30
0.0
 40
31.5
  0
LINE
  5
1326
  8
1
 10
232.50000447034839
 20
185.00000000000011
 30
0.0
 11
232.50000447034839
 21
259.9999987706542
 31
0.0
  0
LINE
  5
1374
  8
1
 10
268.5516969114542
 20
209.99999932161469
 30
0.0
 11
268.5516969114542
 21
223.999999769032
 31
0.0
  0
LINE
  5
1375
  8
1
 10
271.924635887146
 20
215.99999971687791
 30
0.0
 11
265.17875793576241
 21
215.99999971687791
 31
0.0
  0
LINE
  5
13C7
  8
1
 10
377.5000074505806
 20
185.00000000000011
 30
0.0
 11
377.5000074505806
 21
259.9999987706542
 31
0.0
  0
LINE
  5
13C8
  8
1
 10
369.17681846301991
 20
207.9999996647241
 30
0.0
 11
369.17681846301991
 21
223.999999769032
 31
0.0
  0
LINE
  5
13C9
  8
1
 10
377.1236696820705
 20
215.9999997168778
 30
0.0
 11
361.22996724396933
 21
215.99999971687799
 31
0.0
  0
LINE
  5
13CE
  8
1
 10
385.82319643814111
 20
228.00000108033441
 30
0.0
 11
385.82319643814111
 21
244.00000118464229
 31
0.0
  0
LINE
  5
13CF
  8
1
 10
393.7700476571917
 20
236.00000113248811
 30
0.0
 11
377.87634521909052
 21
236.00000113248839
 31
0.0
  0
LINE
  5
1466
  8
1
 10
87.500001490116105
 20
185.00000000000011
 30
0.0
 11
87.500001490116105
 21
259.9999987706542
 31
0.0
  0
LINE
  5
1467
  8
1
 10
95.603279162198419
 20
235.9999996647241
 30
0.0
 11
79.396723818034033
 21
235.99999966472399
 31
0.0
  0
LINE
  5
4B50
  8
2
 10
249.27426230335649
 20
239.99999899417159
 30
0.0
 11
254.8406709730626
 21
239.99999899417159
 31
0.0
  0
LINE
  5
4B51
  8
2
 10
210.15933796763429
 20
239.99999899417159
 30
0.0
 11
215.72574663734019
 21
239.99999899417159
 31
0.0
  0
LINE
  5
4D98
  8
2
 10
249.27426230335649
 20
247.42120783279481
 30
0.0
 11
249.27426230335649
 21
239.99999899417159
 31
0.0
  0
LINE
  5
4D99
  8
2
 10
215.72574663734019
 20
239.99999899417159
 30
0.0
 11
215.72574663734019
 21
247.42279078811401
 31
0.0
  0
LINE
  5
4DA0
  8
2
 10
251.4738672226668
 20
239.99999899417159
 30
0.0
 11
251.4738672226668
 21
209.99999966472379
 31
0.0
  0
LINE
  5
4DA1
  8
2
 10
258.07386718690412
 20
209.99999966472379
 30
0.0
 11
258.07386718690412
 21
239.99999899417159
 31
0.0
  0
LINE
  5
4DA2
  8
2
 10
206.9261417537929
 20
239.99999899417159
 30
0.0
 11
206.9261417537929
 21
209.99999966472379
 31
0.0
  0
LINE
  5
4DA3
  8
2
 10
213.52614171803009
 20
209.99999966472379
 30
0.0
 11
213.52614171803009
 21
239.99999899417159
 31
0.0
  0
LINE
  5
52FD
  8
1
 10
210.22614086297199
 20
248.40663760155439
 30
0.0
 11
210.22614086297199
 21
206.99999966472379
 31
0.0
  0
LINE
  5
5300
  8
1
 10
254.7738680777245
 20
248.40663760155439
 30
0.0
 11
254.7738680777245
 21
206.99999966472379
 31
0.0
  0
LINE
  5
530D
  8
2
 10
104.2742593231243
 20
239.99999899417159
 30
0.0
 11
109.8406679928304
 21
239.99999899417159
 31
0.0
  0
LINE
  5
530E
  8
2
 10
65.159334987402076
 20
239.99999899417159
 30
0.0
 11
70.725743657108012
 21
239.99999899417159
 31
0.0
  0
LINE
  5
530F
  8
2
 10
104.2742593231243
 20
247.42120783279481
 30
0.0
 11
104.2742593231243
 21
239.99999899417159
 31
0.0
  0
LINE
  5
5310
  8
2
 10
70.725743657108012
 20
239.99999899417159
 30
0.0
 11
70.725743657108012
 21
247.42279078811401
 31
0.0
  0
LINE
  5
5311
  8
2
 10
106.4738642424346
 20
239.99999899417159
 30
0.0
 11
106.4738642424346
 21
209.99999966472379
 31
0.0
  0
LINE
  5
5312
  8
2
 10
113.0738642066718
 20
209.99999966472379
 30
0.0
 11
113.0738642066718
 21
239.99999899417159
 31
0.0
  0
LINE
  5
5313
  8
2
 10
61.926138773560631
 20
239.99999899417159
 30
0.0
 11
61.926138773560609
 21
209.99999966472379
 31
0.0
  0
LINE
  5
5314
  8
2
 10
68.526138737797851
 20
209.99999966472379
 30
0.0
 11
68.526138737797851
 21
239.99999899417159
 31
0.0
  0
LINE
  5
5315
  8
1
 10
65.226137882739749
 20
248.40663760155439
 30
0.0
 11
65.226137882739749
 21
206.99999966472379
 31
0.0
  0
LINE
  5
5316
  8
1
 10
109.7738650974923
 20
248.40663760155439
 30
0.0
 11
109.7738650974923
 21
206.99999966472379
 31
0.0
  0
LINE
  5
5317
  8
2
 10
394.2742652835887
 20
239.99999899417159
 30
0.0
 11
399.84067395329492
 21
239.99999899417159
 31
0.0
  0
LINE
  5
5318
  8
2
 10
355.15934094786661
 20
239.99999899417159
 30
0.0
 11
360.72574961757249
 21
239.99999899417159
 31
0.0
  0
LINE
  5
5319
  8
2
 10
394.2742652835887
 20
247.42120783279481
 30
0.0
 11
394.2742652835887
 21
239.99999899417159
 31
0.0
  0
LINE
  5
531A
  8
2
 10
360.72574961757249
 20
239.99999899417159
 30
0.0
 11
360.72574961757249
 21
247.42279078811401
 31
0.0
  0
LINE
  5
531B
  8
2
 10
396.47387020289909
 20
239.99999899417159
 30
0.0
 11
396.47387020289909
 21
209.99999966472379
 31
0.0
  0
LINE
  5
531C
  8
2
 10
403.07387016713631
 20
209.99999966472379
 30
0.0
 11
403.07387016713631
 21
239.99999899417159
 31
0.0
  0
LINE
  5
531D
  8
2
 10
351.92614473402512
 20
239.99999899417159
 30
0.0
 11
351.92614473402512
 21
209.99999966472379
 31
0.0
  0
LINE
  5
531E
  8
2
 10
358.52614469826233
 20
209.99999966472379
 30
0.0
 11
358.52614469826233
 21
239.99999899417159
 31
0.0
  0
LINE
  5
531F
  8
1
 10
355.22614384320423
 20
248.40663760155439
 30
0.0
 11
355.22614384320423
 21
206.99999966472379
 31
0.0
  0
LINE
  5
5320
  8
1
 10
399.7738710579568
 20
248.40663760155439
 30
0.0
 11
399.7738710579568
 21
206.99999966472379
 31
0.0
  0
CIRCLE
  5
539F
  8
0
 10
87.500001490116233
 20
235.99999966472399
 30
0.0
 40
2.0669999999999988
  0
CIRCLE
  5
53A0
  8
3
 10
87.500001490116233
 20
235.99999966472399
 30
0.0
 40
2.5
  0
POLYLINE
  5
53A6
  8
3
 10
268.5516969114542
 20
218.49999971687791
 30
0.0
 66
     1
 70
     8
  0
VERTEX
  8
3
  5
5529
 10
268.552
 20
218.500
 30
0.000000
  70
    32
  0
VERTEX
  8
3
  5
552A
 10
268.520
 20
218.497
 30
0.000000
  70
    32
  0
VERTEX
  8
3
  5
552B
 10
268.488
 20
218.488
 30
0.000000
  70
    32
  0
VERTEX
  8
3
  5
552C
 10
268.456
 20
218.473
 30
0.000000
  70
    32
  0
VERTEX
  8
3
  5
552D
 10
268.424
 20
218.452
 30
0.000000
  70
    32
  0
VERTEX
  8
3
  5
552E
 10
268.393
 20
218.425
 30
0.000000
  70
    32
  0
VERTEX
  8
3
  5
552F
 10
268.362
 20
218.392
 30
0.000000
  70
    32
  0
VERTEX
  8
3
  5
5530
 10
268.332
 20
218.354
 30
0.000000
  70
    32
  0
VERTEX
  8
3
  5
5531
 10
268.302
 20
218.310
 30
0.000000
  70
    32
  0
VERTEX
  8
3
  5
5532
 10
268.273
 20
218.260
 30
0.000000
  70
    32
  0
VERTEX
  8
3
  5
5533
 10
268.244
 20
218.205
 30
0.000000
  70
    32
  0
VERTEX
  8
3
  5
5534
 10
268.216
 20
218.144
 30
0.000000
  70
    32
  0
VERTEX
  8
3
  5
5535
 10
268.189
 20
218.079
 30
0.000000
  70
    32
  0
VERTEX
  8
3
  5
5536
 10
268.163
 20
218.008
 30
0.000000
  70
    32
  0
VERTEX
  8
3
  5
5537
 10
268.138
 20
217.933
 30
0.000000
  70
    32
  0
VERTEX
  8
3
  5
5538
 10
268.114
 20
217.852
 30
0.000000
  70
    32
  0
VERTEX
  8
3
  5
5539
 10
268.091
 20
217.768
 30
0.000000
  70
    32
  0
VERTEX
  8
3
  5
553A
 10
268.068
 20
217.679
 30
0.000000
  70
    32
  0
VERTEX
  8
3
  5
553B
 10
268.048
 20
217.586
 30
0.000000
  70
    32
  0
VERTEX
  8
3
  5
553C
 10
268.028
 20
217.489
 30
0.000000
  70
    32
  0
VERTEX
  8
3
  5
553D
 10
268.009
 20
217.389
 30
0.000000
  70
    32
  0
VERTEX
  8
3
  5
553E
 10
267.992
 20
217.285
 30
0.000000
  70
    32
  0
VERTEX
  8
3
  5
553F
 10
267.977
 20
217.178
 30
0.000000
  70
    32
  0
VERTEX
  8
3
  5
5540
 10
267.962
 20
217.069
 30
0.000000
  70
    32
  0
VERTEX
  8
3
  5
5541
 10
267.949
 20
216.957
 30
0.000000
  70
    32
  0
VERTEX
  8
3
  5
5542
 10
267.938
 20
216.842
 30
0.000000
  70
    32
  0
VERTEX
  8
3
  5
5543
 10
267.928
 20
216.726
 30
0.000000
  70
    32
  0
VERTEX
  8
3
  5
5544
 10
267.919
 20
216.607
 30
0.000000
  70
    32
  0
VERTEX
  8
3
  5
5545
 10
267.912
 20
216.488
 30
0.000000
  70
    32
  0
VERTEX
  8
3
  5
5546
 10
267.907
 20
216.367
 30
0.000000
  70
    32
  0
VERTEX
  8
3
  5
5547
 10
267.903
 20
216.245
 30
0.000000
  70
    32
  0
VERTEX
  8
3
  5
5548
 10
267.900
 20
216.123
 30
0.000000
  70
    32
  0
VERTEX
  8
3
  5
5549
 10
267.900
 20
216.000
 30
0.000000
  70
    32
  0
VERTEX
  8
3
  5
554A
 10
267.900
 20
215.877
 30
0.000000
  70
    32
  0
VERTEX
  8
3
  5
554B
 10
267.903
 20
215.755
 30
0.000000
  70
    32
  0
VERTEX
  8
3
  5
554C
 10
267.907
 20
215.633
 30
0.000000
  70
    32
  0
VERTEX
  8
3
  5
554D
 10
267.912
 20
215.512
 30
0.000000
  70
    32
  0
VERTEX
  8
3
  5
554E
 10
267.919
 20
215.393
 30
0.000000
  70
    32
  0
VERTEX
  8
3
  5
554F
 10
267.928
 20
215.274
 30
0.000000
  70
    32
  0
VERTEX
  8
3
  5
5550
 10
267.938
 20
215.158
 30
0.000000
  70
    32
  0
VERTEX
  8
3
  5
5551
 10
267.949
 20
215.043
 30
0.000000
  70
    32
  0
VERTEX
  8
3
  5
5552
 10
267.962
 20
214.931
 30
0.000000
  70
    32
  0
VERTEX
  8
3
  5
5553
 10
267.977
 20
214.822
 30
0.000000
  70
    32
  0
VERTEX
  8
3
  5
5554
 10
267.992
 20
214.715
 30
0.000000
  70
    32
  0
VERTEX
  8
3
  5
5555
 10
268.009
 20
214.611
 30
0.000000
  70
    32
  0
VERTEX
  8
3
  5
5556
 10
268.028
 20
214.511
 30
0.000000
  70
    32
  0
VERTEX
  8
3
  5
5557
 10
268.048
 20
214.414
 30
0.000000
  70
    32
  0
VERTEX
  8
3
  5
5558
 10
268.068
 20
214.321
 30
0.000000
  70
    32
  0
VERTEX
  8
3
  5
5559
 10
268.091
 20
214.232
 30
0.000000
  70
    32
  0
VERTEX
  8
3
  5
555A
 10
268.114
 20
214.148
 30
0.000000
  70
    32
  0
VERTEX
  8
3
  5
555B
 10
268.138
 20
214.067
 30
0.000000
  70
    32
  0
VERTEX
  8
3
  5
555C
 10
268.163
 20
213.992
 30
0.000000
  70
    32
  0
VERTEX
  8
3
  5
555D
 10
268.189
 20
213.921
 30
0.000000
  70
    32
  0
VERTEX
  8
3
  5
555E
 10
268.216
 20
213.856
 30
0.000000
  70
    32
  0
VERTEX
  8
3
  5
555F
 10
268.244
 20
213.795
 30
0.000000
  70
    32
  0
VERTEX
  8
3
  5
5560
 10
268.273
 20
213.740
 30
0.000000
  70
    32
  0
VERTEX
  8
3
  5
5561
 10
268.302
 20
213.690
 30
0.000000
  70
    32
  0
VERTEX
  8
3
  5
5562
 10
268.332
 20
213.646
 30
0.000000
  70
    32
  0
VERTEX
  8
3
  5
5563
 10
268.362
 20
213.608
 30
0.000000
  70
    32
  0
VERTEX
  8
3
  5
5564
 10
268.393
 20
213.575
 30
0.000000
  70
    32
  0
VERTEX
  8
3
  5
5565
 10
268.424
 20
213.548
 30
0.000000
  70
    32
  0
VERTEX
  8
3
  5
5566
 10
268.456
 20
213.527
 30
0.000000
  70
    32
  0
VERTEX
  8
3
  5
5567
 10
268.488
 20
213.512
 30
0.000000
  70
    32
  0
VERTEX
  8
3
  5
5568
 10
268.520
 20
213.503
 30
0.000000
  70
    32
  0
VERTEX
  8
3
  5
5569
 10
268.552
 20
213.500
 30
0.000000
  70
    32
  0
VERTEX
  8
3
  5
556A
 10
268.584
 20
213.503
 30
0.000000
  70
    32
  0
VERTEX
  8
3
  5
556B
 10
268.616
 20
213.512
 30
0.000000
  70
    32
  0
VERTEX
  8
3
  5
556C
 10
268.647
 20
213.527
 30
0.000000
  70
    32
  0
VERTEX
  8
3
  5
556D
 10
268.679
 20
213.548
 30
0.000000
  70
    32
  0
VERTEX
  8
3
  5
556E
 10
268.710
 20
213.575
 30
0.000000
  70
    32
  0
VERTEX
  8
3
  5
556F
 10
268.741
 20
213.608
 30
0.000000
  70
    32
  0
VERTEX
  8
3
  5
5570
 10
268.771
 20
213.646
 30
0.000000
  70
    32
  0
VERTEX
  8
3
  5
5571
 10
268.801
 20
213.690
 30
0.000000
  70
    32
  0
VERTEX
  8
3
  5
5572
 10
268.831
 20
213.740
 30
0.000000
  70
    32
  0
VERTEX
  8
3
  5
5573
 10
268.859
 20
213.795
 30
0.000000
  70
    32
  0
VERTEX
  8
3
  5
5574
 10
268.887
 20
213.856
 30
0.000000
  70
    32
  0
VERTEX
  8
3
  5
5575
 10
268.914
 20
213.921
 30
0.000000
  70
    32
  0
VERTEX
  8
3
  5
5576
 10
268.940
 20
213.992
 30
0.000000
  70
    32
  0
VERTEX
  8
3
  5
5577
 10
268.965
 20
214.067
 30
0.000000
  70
    32
  0
VERTEX
  8
3
  5
5578
 10
268.990
 20
214.148
 30
0.000000
  70
    32
  0
VERTEX
  8
3
  5
5579
 10
269.013
 20
214.232
 30
0.000000
  70
    32
  0
VERTEX
  8
3
  5
557A
 10
269.035
 20
214.321
 30
0.000000
  70
    32
  0
VERTEX
  8
3
  5
557B
 10
269.056
 20
214.414
 30
0.000000
  70
    32
  0
VERTEX
  8
3
  5
557C
 10
269.076
 20
214.511
 30
0.000000
  70
    32
  0
VERTEX
  8
3
  5
557D
 10
269.094
 20
214.611
 30
0.000000
  70
    32
  0
VERTEX
  8
3
  5
557E
 10
269.111
 20
214.715
 30
0.000000
  70
    32
  0
VERTEX
  8
3
  5
557F
 10
269.127
 20
214.822
 30
0.000000
  70
    32
  0
VERTEX
  8
3
  5
5580
 10
269.141
 20
214.931
 30
0.000000
  70
    32
  0
VERTEX
  8
3
  5
5581
 10
269.154
 20
215.043
 30
0.000000
  70
    32
  0
VERTEX
  8
3
  5
5582
 10
269.166
 20
215.158
 30
0.000000
  70
    32
  0
VERTEX
  8
3
  5
5583
 10
269.176
 20
215.274
 30
0.000000
  70
    32
  0
VERTEX
  8
3
  5
5584
 10
269.184
 20
215.393
 30
0.000000
  70
    32
  0
VERTEX
  8
3
  5
5585
 10
269.191
 20
215.512
 30
0.000000
  70
    32
  0
VERTEX
  8
3
  5
5586
 10
269.197
 20
215.633
 30
0.000000
  70
    32
  0
VERTEX
  8
3
  5
5587
 10
269.201
 20
215.755
 30
0.000000
  70
    32
  0
VERTEX
  8
3
  5
5588
 10
269.203
 20
215.877
 30
0.000000
  70
    32
  0
VERTEX
  8
3
  5
5589
 10
269.204
 20
216.000
 30
0.000000
  70
    32
  0
VERTEX
  8
3
  5
558A
 10
269.203
 20
216.123
 30
0.000000
  70
    32
  0
VERTEX
  8
3
  5
558B
 10
269.201
 20
216.245
 30
0.000000
  70
    32
  0
VERTEX
  8
3
  5
558C
 10
269.197
 20
216.367
 30
0.000000
  70
    32
  0
VERTEX
  8
3
  5
558D
 10
269.191
 20
216.488
 30
0.000000
  70
    32
  0
VERTEX
  8
3
  5
558E
 10
269.184
 20
216.607
 30
0.000000
  70
    32
  0
VERTEX
  8
3
  5
558F
 10
269.176
 20
216.726
 30
0.000000
  70
    32
  0
VERTEX
  8
3
  5
5590
 10
269.166
 20
216.842
 30
0.000000
  70
    32
  0
VERTEX
  8
3
  5
5591
 10
269.154
 20
216.957
 30
0.000000
  70
    32
  0
VERTEX
  8
3
  5
5592
 10
269.141
 20
217.069
 30
0.000000
  70
    32
  0
VERTEX
  8
3
  5
5593
 10
269.127
 20
217.178
 30
0.000000
  70
    32
  0
VERTEX
  8
3
  5
5594
 10
269.111
 20
217.285
 30
0.000000
  70
    32
  0
VERTEX
  8
3
  5
5595
 10
269.094
 20
217.389
 30
0.000000
  70
    32
  0
VERTEX
  8
3
  5
5596
 10
269.076
 20
217.489
 30
0.000000
  70
    32
  0
VERTEX
  8
3
  5
5597
 10
269.056
 20
217.586
 30
0.000000
  70
    32
  0
VERTEX
  8
3
  5
5598
 10
269.035
 20
217.679
 30
0.000000
  70
    32
  0
VERTEX
  8
3
  5
5599
 10
269.013
 20
217.768
 30
0.000000
  70
    32
  0
VERTEX
  8
3
  5
559A
 10
268.990
 20
217.852
 30
0.000000
  70
    32
  0
VERTEX
  8
3
  5
559B
 10
268.965
 20
217.933
 30
0.000000
  70
    32
  0
VERTEX
  8
3
  5
559C
 10
268.940
 20
218.008
 30
0.000000
  70
    32
  0
VERTEX
  8
3
  5
559D
 10
268.914
 20
218.079
 30
0.000000
  70
    32
  0
VERTEX
  8
3
  5
559E
 10
268.887
 20
218.144
 30
0.000000
  70
    32
  0
VERTEX
  8
3
  5
559F
 10
268.859
 20
218.205
 30
0.000000
  70
    32
  0
VERTEX
  8
3
  5
55A0
 10
268.831
 20
218.260
 30
0.000000
  70
    32
  0
VERTEX
  8
3
  5
55A1
 10
268.801
 20
218.310
 30
0.000000
  70
    32
  0
VERTEX
  8
3
  5
55A2
 10
268.771
 20
218.354
 30
0.000000
  70
    32
  0
VERTEX
  8
3
  5
55A3
 10
268.741
 20
218.392
 30
0.000000
  70
    32
  0
VERTEX
  8
3
  5
55A4
 10
268.710
 20
218.425
 30
0.000000
  70
    32
  0
VERTEX
  8
3
  5
55A5
 10
268.679
 20
218.452
 30
0.000000
  70
    32
  0
VERTEX
  8
3
  5
55A6
 10
268.647
 20
218.473
 30
0.000000
  70
    32
  0
VERTEX
  8
3
  5
55A7
 10
268.616
 20
218.488
 30
0.000000
  70
    32
  0
VERTEX
  8
3
  5
55A8
 10
268.584
 20
218.497
 30
0.000000
  70
    32
  0
VERTEX
  8
3
  5
55A9
 10
268.552
 20
218.500
 30
0.000000
  70
    32
  0
SEQEND
  8
3
  5
55AA
  0
POLYLINE
  8
0
  5
55AB
  66
     1
 10
0.000000
 20
0.000000
 30
0.000000
  70
     8
  0
VERTEX
  8
0
  5
55AC
 10
268.552
 20
213.703
 30
0.000000
  70
    32
  0
VERTEX
  8
0
  5
55AD
 10
268.553
 20
213.703
 30
0.000000
  70
    32
  0
VERTEX
  8
0
  5
55AE
 10
268.554
 20
213.704
 30
0.000000
  70
    32
  0
VERTEX
  8
0
  5
55AF
 10
268.555
 20
213.705
 30
0.000000
  70
    32
  0
VERTEX
  8
0
  5
55B0
 10
268.556
 20
213.706
 30
0.000000
  70
    32
  0
VERTEX
  8
0
  5
55B1
 10
268.557
 20
213.706
 30
0.000000
  70
    32
  0
VERTEX
  8
0
  5
55B2
 10
268.558
 20
213.707
 30
0.000000
  70
    32
  0
VERTEX
  8
0
  5
55B3
 10
268.559
 20
213.708
 30
0.000000
  70
    32
  0
VERTEX
  8
0
  5
55B4
 10
268.560
 20
213.709
 30
0.000000
  70
    32
  0
VERTEX
  8
0
  5
55B5
 10
268.562
 20
213.710
 30
0.000000
  70
    32
  0
VERTEX
  8
0
  5
55B6
 10
268.563
 20
213.711
 30
0.000000
  70
    32
  0
VERTEX
  8
0
  5
55B7
 10
268.564
 20
213.713
 30
0.000000
  70
    32
  0
VERTEX
  8
0
  5
55B8
 10
268.566
 20
213.714
 30
0.000000
  70
    32
  0
VERTEX
  8
0
  5
55B9
 10
268.567
 20
213.715
 30
0.000000
  70
    32
  0
VERTEX
  8
0
  5
55BA
 10
268.569
 20
213.717
 30
0.000000
  70
    32
  0
VERTEX
  8
0
  5
55BB
 10
268.570
 20
213.718
 30
0.000000
  70
    32
  0
VERTEX
  8
0
  5
55BC
 10
268.572
 20
213.720
 30
0.000000
  70
    32
  0
VERTEX
  8
0
  5
55BD
 10
268.573
 20
213.721
 30
0.000000
  70
    32
  0
VERTEX
  8
0
  5
55BE
 10
268.575
 20
213.723
 30
0.000000
  70
    32
  0
VERTEX
  8
0
  5
55BF
 10
268.577
 20
213.725
 30
0.000000
  70
    32
  0
VERTEX
  8
0
  5
55C0
 10
268.578
 20
213.726
 30
0.000000
  70
    32
  0
VERTEX
  8
0
  5
55C1
 10
268.580
 20
213.728
 30
0.000000
  70
    32
  0
VERTEX
  8
0
  5
55C2
 10
268.582
 20
213.730
 30
0.000000
  70
    32
  0
VERTEX
  8
0
  5
55C3
 10
268.584
 20
213.732
 30
0.000000
  70
    32
  0
VERTEX
  8
0
  5
55C4
 10
268.586
 20
213.734
 30
0.000000
  70
    32
  0
VERTEX
  8
0
  5
55C5
 10
268.587
 20
213.736
 30
0.000000
  70
    32
  0
VERTEX
  8
0
  5
55C6
 10
268.589
 20
213.738
 30
0.000000
  70
    32
  0
VERTEX
  8
0
  5
55C7
 10
268.591
 20
213.741
 30
0.000000
  70
    32
  0
VERTEX
  8
0
  5
55C8
 10
268.593
 20
213.743
 30
0.000000
  70
    32
  0
VERTEX
  8
0
  5
55C9
 10
268.595
 20
213.745
 30
0.000000
  70
    32
  0
VERTEX
  8
0
  5
55CA
 10
268.597
 20
213.748
 30
0.000000
  70
    32
  0
VERTEX
  8
0
  5
55CB
 10
268.599
 20
213.750
 30
0.000000
  70
    32
  0
VERTEX
  8
0
  5
55CC
 10
268.601
 20
213.753
 30
0.000000
  70
    32
  0
VERTEX
  8
0
  5
55CD
 10
268.603
 20
213.756
 30
0.000000
  70
    32
  0
VERTEX
  8
0
  5
55CE
 10
268.605
 20
213.758
 30
0.000000
  70
    32
  0
VERTEX
  8
0
  5
55CF
 10
268.608
 20
213.761
 30
0.000000
  70
    32
  0
VERTEX
  8
0
  5
55D0
 10
268.610
 20
213.764
 30
0.000000
  70
    32
  0
VERTEX
  8
0
  5
55D1
 10
268.612
 20
213.767
 30
0.000000
  70
    32
  0
VERTEX
  8
0
  5
55D2
 10
268.614
 20
213.770
 30
0.000000
  70
    32
  0
VERTEX
  8
0
  5
55D3
 10
268.616
 20
213.773
 30
0.000000
  70
    32
  0
VERTEX
  8
0
  5
55D4
 10
268.618
 20
213.776
 30
0.000000
  70
    32
  0
VERTEX
  8
0
  5
55D5
 10
268.621
 20
213.779
 30
0.000000
  70
    32
  0
VERTEX
  8
0
  5
55D6
 10
268.623
 20
213.783
 30
0.000000
  70
    32
  0
VERTEX
  8
0
  5
55D7
 10
268.625
 20
213.786
 30
0.000000
  70
    32
  0
VERTEX
  8
0
  5
55D8
 10
268.627
 20
213.789
 30
0.000000
  70
    32
  0
VERTEX
  8
0
  5
55D9
 10
268.630
 20
213.793
 30
0.000000
  70
    32
  0
VERTEX
  8
0
  5
55DA
 10
268.632
 20
213.797
 30
0.000000
  70
    32
  0
VERTEX
  8
0
  5
55DB
 10
268.634
 20
213.800
 30
0.000000
  70
    32
  0
VERTEX
  8
0
  5
55DC
 10
268.636
 20
213.804
 30
0.000000
  70
    32
  0
VERTEX
  8
0
  5
55DD
 10
268.639
 20
213.808
 30
0.000000
  70
    32
  0
VERTEX
  8
0
  5
55DE
 10
268.641
 20
213.812
 30
0.000000
  70
    32
  0
VERTEX
  8
0
  5
55DF
 10
268.643
 20
213.815
 30
0.000000
  70
    32
  0
VERTEX
  8
0
  5
55E0
 10
268.646
 20
213.819
 30
0.000000
  70
    32
  0
VERTEX
  8
0
  5
55E1
 10
268.648
 20
213.823
 30
0.000000
  70
    32
  0
VERTEX
  8
0
  5
55E2
 10
268.650
 20
213.828
 30
0.000000
  70
    32
  0
VERTEX
  8
0
  5
55E3
 10
268.653
 20
213.832
 30
0.000000
  70
    32
  0
VERTEX
  8
0
  5
55E4
 10
268.655
 20
213.836
 30
0.000000
  70
    32
  0
VERTEX
  8
0
  5
55E5
 10
268.657
 20
213.840
 30
0.000000
  70
    32
  0
VERTEX
  8
0
  5
55E6
 10
268.660
 20
213.845
 30
0.000000
  70
    32
  0
VERTEX
  8
0
  5
55E7
 10
268.662
 20
213.849
 30
0.000000
  70
    32
  0
VERTEX
  8
0
  5
55E8
 10
268.664
 20
213.854
 30
0.000000
  70
    32
  0
VERTEX
  8
0
  5
55E9
 10
268.667
 20
213.858
 30
0.000000
  70
    32
  0
VERTEX
  8
0
  5
55EA
 10
268.669
 20
213.863
 30
0.000000
  70
    32
  0
VERTEX
  8
0
  5
55EB
 10
268.672
 20
213.867
 30
0.000000
  70
    32
  0
VERTEX
  8
0
  5
55EC
 10
268.674
 20
213.872
 30
0.000000
  70
    32
  0
VERTEX
  8
0
  5
55ED
 10
268.676
 20
213.877
 30
0.000000
  70
    32
  0
VERTEX
  8
0
  5
55EE
 10
268.679
 20
213.882
 30
0.000000
  70
    32
  0
VERTEX
  8
0
  5
55EF
 10
268.681
 20
213.887
 30
0.000000
  70
    32
  0
VERTEX
  8
0
  5
55F0
 10
268.684
 20
213.892
 30
0.000000
  70
    32
  0
VERTEX
  8
0
  5
55F1
 10
268.686
 20
213.897
 30
0.000000
  70
    32
  0
VERTEX
  8
0
  5
55F2
 10
268.688
 20
213.902
 30
0.000000
  70
    32
  0
VERTEX
  8
0
  5
55F3
 10
268.691
 20
213.907
 30
0.000000
  70
    32
  0
VERTEX
  8
0
  5
55F4
 10
268.693
 20
213.912
 30
0.000000
  70
    32
  0
VERTEX
  8
0
  5
55F5
 10
268.696
 20
213.918
 30
0.000000
  70
    32
  0
VERTEX
  8
0
  5
55F6
 10
268.698
 20
213.923
 30
0.000000
  70
    32
  0
VERTEX
  8
0
  5
55F7
 10
268.701
 20
213.929
 30
0.000000
  70
    32
  0
VERTEX
  8
0
  5
55F8
 10
268.703
 20
213.934
 30
0.000000
  70
    32
  0
VERTEX
  8
0
  5
55F9
 10
268.705
 20
213.940
 30
0.000000
  70
    32
  0
VERTEX
  8
0
  5
55FA
 10
268.708
 20
213.945
 30
0.000000
  70
    32
  0
VERTEX
  8
0
  5
55FB
 10
268.710
 20
213.951
 30
0.000000
  70
    32
  0
VERTEX
  8
0
  5
55FC
 10
268.713
 20
213.957
 30
0.000000
  70
    32
  0
VERTEX
  8
0
  5
55FD
 10
268.715
 20
213.962
 30
0.000000
  70
    32
  0
VERTEX
  8
0
  5
55FE
 10
268.717
 20
213.968
 30
0.000000
  70
    32
  0
VERTEX
  8
0
  5
55FF
 10
268.720
 20
213.974
 30
0.000000
  70
    32
  0
VERTEX
  8
0
  5
5600
 10
268.722
 20
213.980
 30
0.000000
  70
    32
  0
VERTEX
  8
0
  5
5601
 10
268.725
 20
213.986
 30
0.000000
  70
    32
  0
VERTEX
  8
0
  5
5602
 10
268.727
 20
213.992
 30
0.000000
  70
    32
  0
VERTEX
  8
0
  5
5603
 10
268.729
 20
213.998
 30
0.000000
  70
    32
  0
VERTEX
  8
0
  5
5604
 10
268.732
 20
214.004
 30
0.000000
  70
    32
  0
VERTEX
  8
0
  5
5605
 10
268.734
 20
214.011
 30
0.000000
  70
    32
  0
VERTEX
  8
0
  5
5606
 10
268.736
 20
214.017
 30
0.000000
  70
    32
  0
VERTEX
  8
0
  5
5607
 10
268.739
 20
214.023
 30
0.000000
  70
    32
  0
VERTEX
  8
0
  5
5608
 10
268.741
 20
214.030
 30
0.000000
  70
    32
  0
VERTEX
  8
0
  5
5609
 10
268.744
 20
214.036
 30
0.000000
  70
    32
  0
VERTEX
  8
0
  5
560A
 10
268.746
 20
214.043
 30
0.000000
  70
    32
  0
VERTEX
  8
0
  5
560B
 10
268.748
 20
214.049
 30
0.000000
  70
    32
  0
VERTEX
  8
0
  5
560C
 10
268.751
 20
214.056
 30
0.000000
  70
    32
  0
VERTEX
  8
0
  5
560D
 10
268.753
 20
214.062
 30
0.000000
  70
    32
  0
VERTEX
  8
0
  5
560E
 10
268.755
 20
214.069
 30
0.000000
  70
    32
  0
VERTEX
  8
0
  5
560F
 10
268.758
 20
214.076
 30
0.000000
  70
    32
  0
VERTEX
  8
0
  5
5610
 10
268.760
 20
214.083
 30
0.000000
  70
    32
  0
VERTEX
  8
0
  5
5611
 10
268.762
 20
214.090
 30
0.000000
  70
    32
  0
VERTEX
  8
0
  5
5612
 10
268.764
 20
214.097
 30
0.000000
  70
    32
  0
VERTEX
  8
0
  5
5613
 10
268.767
 20
214.104
 30
0.000000
  70
    32
  0
VERTEX
  8
0
  5
5614
 10
268.769
 20
214.111
 30
0.000000
  70
    32
  0
VERTEX
  8
0
  5
5615
 10
268.771
 20
214.118
 30
0.000000
  70
    32
  0
VERTEX
  8
0
  5
5616
 10
268.774
 20
214.125
 30
0.000000
  70
    32
  0
VERTEX
  8
0
  5
5617
 10
268.776
 20
214.132
 30
0.000000
  70
    32
  0
VERTEX
  8
0
  5
5618
 10
268.778
 20
214.139
 30
0.000000
  70
    32
  0
VERTEX
  8
0
  5
5619
 10
268.780
 20
214.147
 30
0.000000
  70
    32
  0
VERTEX
  8
0
  5
561A
 10
268.783
 20
214.154
 30
0.000000
  70
    32
  0
VERTEX
  8
0
  5
561B
 10
268.785
 20
214.161
 30
0.000000
  70
    32
  0
VERTEX
  8
0
  5
561C
 10
268.787
 20
214.169
 30
0.000000
  70
    32
  0
VERTEX
  8
0
  5
561D
 10
268.789
 20
214.176
 30
0.000000
  70
    32
  0
VERTEX
  8
0
  5
561E
 10
268.792
 20
214.184
 30
0.000000
  70
    32
  0
VERTEX
  8
0
  5
561F
 10
268.794
 20
214.191
 30
0.000000
  70
    32
  0
VERTEX
  8
0
  5
5620
 10
268.796
 20
214.199
 30
0.000000
  70
    32
  0
VERTEX
  8
0
  5
5621
 10
268.798
 20
214.207
 30
0.000000
  70
    32
  0
VERTEX
  8
0
  5
5622
 10
268.801
 20
214.215
 30
0.000000
  70
    32
  0
VERTEX
  8
0
  5
5623
 10
268.803
 20
214.222
 30
0.000000
  70
    32
  0
VERTEX
  8
0
  5
5624
 10
268.805
 20
214.230
 30
0.000000
  70
    32
  0
VERTEX
  8
0
  5
5625
 10
268.807
 20
214.238
 30
0.000000
  70
    32
  0
VERTEX
  8
0
  5
5626
 10
268.809
 20
214.246
 30
0.000000
  70
    32
  0
VERTEX
  8
0
  5
5627
 10
268.811
 20
214.254
 30
0.000000
  70
    32
  0
VERTEX
  8
0
  5
5628
 10
268.814
 20
214.262
 30
0.000000
  70
    32
  0
VERTEX
  8
0
  5
5629
 10
268.816
 20
214.270
 30
0.000000
  70
    32
  0
VERTEX
  8
0
  5
562A
 10
268.818
 20
214.278
 30
0.000000
  70
    32
  0
VERTEX
  8
0
  5
562B
 10
268.820
 20
214.286
 30
0.000000
  70
    32
  0
VERTEX
  8
0
  5
562C
 10
268.822
 20
214.295
 30
0.000000
  70
    32
  0
VERTEX
  8
0
  5
562D
 10
268.824
 20
214.303
 30
0.000000
  70
    32
  0
VERTEX
  8
0
  5
562E
 10
268.826
 20
214.311
 30
0.000000
  70
    32
  0
VERTEX
  8
0
  5
562F
 10
268.828
 20
214.319
 30
0.000000
  70
    32
  0
VERTEX
  8
0
  5
5630
 10
268.830
 20
214.328
 30
0.000000
  70
    32
  0
VERTEX
  8
0
  5
5631
 10
268.833
 20
214.336
 30
0.000000
  70
    32
  0
VERTEX
  8
0
  5
5632
 10
268.835
 20
214.345
 30
0.000000
  70
    32
  0
VERTEX
  8
0
  5
5633
 10
268.837
 20
214.353
 30
0.000000
  70
    32
  0
VERTEX
  8
0
  5
5634
 10
268.839
 20
214.362
 30
0.000000
  70
    32
  0
VERTEX
  8
0
  5
5635
 10
268.841
 20
214.370
 30
0.000000
  70
    32
  0
VERTEX
  8
0
  5
5636
 10
268.843
 20
214.379
 30
0.000000
  70
    32
  0
VERTEX
  8
0
  5
5637
 10
268.845
 20
214.388
 30
0.000000
  70
    32
  0
VERTEX
  8
0
  5
5638
 10
268.847
 20
214.397
 30
0.000000
  70
    32
  0
VERTEX
  8
0
  5
5639
 10
268.849
 20
214.405
 30
0.000000
  70
    32
  0
VERTEX
  8
0
  5
563A
 10
268.851
 20
214.414
 30
0.000000
  70
    32
  0
VERTEX
  8
0
  5
563B
 10
268.853
 20
214.423
 30
0.000000
  70
    32
  0
VERTEX
  8
0
  5
563C
 10
268.855
 20
214.432
 30
0.000000
  70
    32
  0
VERTEX
  8
0
  5
563D
 10
268.857
 20
214.441
 30
0.000000
  70
    32
  0
VERTEX
  8
0
  5
563E
 10
268.859
 20
214.450
 30
0.000000
  70
    32
  0
VERTEX
  8
0
  5
563F
 10
268.861
 20
214.459
 30
0.000000
  70
    32
  0
VERTEX
  8
0
  5
5640
 10
268.863
 20
214.468
 30
0.000000
  70
    32
  0
VERTEX
  8
0
  5
5641
 10
268.865
 20
214.477
 30
0.000000
  70
    32
  0
VERTEX
  8
0
  5
5642
 10
268.866
 20
214.486
 30
0.000000
  70
    32
  0
VERTEX
  8
0
  5
5643
 10
268.868
 20
214.495
 30
0.000000
  70
    32
  0
VERTEX
  8
0
  5
5644
 10
268.870
 20
214.505
 30
0.000000
  70
    32
  0
VERTEX
  8
0
  5
5645
 10
268.872
 20
214.514
 30
0.000000
  70
    32
  0
VERTEX
  8
0
  5
5646
 10
268.874
 20
214.523
 30
0.000000
  70
    32
  0
VERTEX
  8
0
  5
5647
 10
268.876
 20
214.532
 30
0.000000
  70
    32
  0
VERTEX
  8
0
  5
5648
 10
268.878
 20
214.542
 30
0.000000
  70
    32
  0
VERTEX
  8
0
  5
5649
 10
268.880
 20
214.551
 30
0.000000
  70
    32
  0
VERTEX
  8
0
  5
564A
 10
268.881
 20
214.561
 30
0.000000
  70
    32
  0
VERTEX
  8
0
  5
564B
 10
268.883
 20
214.570
 30
0.000000
  70
    32
  0
VERTEX
  8
0
  5
564C
 10
268.885
 20
214.580
 30
0.000000
  70
    32
  0
VERTEX
  8
0
  5
564D
 10
268.887
 20
214.589
 30
0.000000
  70
    32
  0
VERTEX
  8
0
  5
564E
 10
268.889
 20
214.599
 30
0.000000
  70
    32
  0
VERTEX
  8
0
  5
564F
 10
268.890
 20
214.609
 30
0.000000
  70
    32
  0
VERTEX
  8
0
  5
5650
 10
268.892
 20
214.618
 30
0.000000
  70
    32
  0
VERTEX
  8
0
  5
5651
 10
268.894
 20
214.628
 30
0.000000
  70
    32
  0
VERTEX
  8
0
  5
5652
 10
268.896
 20
214.638
 30
0.000000
  70
    32
  0
VERTEX
  8
0
  5
5653
 10
268.897
 20
214.647
 30
0.000000
  70
    32
  0
VERTEX
  8
0
  5
5654
 10
268.899
 20
214.657
 30
0.000000
  70
    32
  0
VERTEX
  8
0
  5
5655
 10
268.901
 20
214.667
 30
0.000000
  70
    32
  0
VERTEX
  8
0
  5
5656
 10
268.902
 20
214.677
 30
0.000000
  70
    32
  0
VERTEX
  8
0
  5
5657
 10
268.904
 20
214.687
 30
0.000000
  70
    32
  0
VERTEX
  8
0
  5
5658
 10
268.906
 20
214.697
 30
0.000000
  70
    32
  0
VERTEX
  8
0
  5
5659
 10
268.907
 20
214.707
 30
0.000000
  70
    32
  0
VERTEX
  8
0
  5
565A
 10
268.909
 20
214.717
 30
0.000000
  70
    32
  0
VERTEX
  8
0
  5
565B
 10
268.911
 20
214.727
 30
0.000000
  70
    32
  0
VERTEX
  8
0
  5
565C
 10
268.912
 20
214.737
 30
0.000000
  70
    32
  0
VERTEX
  8
0
  5
565D
 10
268.914
 20
214.747
 30
0.000000
  70
    32
  0
VERTEX
  8
0
  5
565E
 10
268.915
 20
214.757
 30
0.000000
  70
    32
  0
VERTEX
  8
0
  5
565F
 10
268.917
 20
214.767
 30
0.000000
  70
    32
  0
VERTEX
  8
0
  5
5660
 10
268.918
 20
214.778
 30
0.000000
  70
    32
  0
VERTEX
  8
0
  5
5661
 10
268.920
 20
214.788
 30
0.000000
  70
    32
  0
VERTEX
  8
0
  5
5662
 10
268.921
 20
214.798
 30
0.000000
  70
    32
  0
VERTEX
  8
0
  5
5663
 10
268.923
 20
214.809
 30
0.000000
  70
    32
  0
VERTEX
  8
0
  5
5664
 10
268.924
 20
214.819
 30
0.000000
  70
    32
  0
VERTEX
  8
0
  5
5665
 10
268.926
 20
214.829
 30
0.000000
  70
    32
  0
VERTEX
  8
0
  5
5666
 10
268.927
 20
214.840
 30
0.000000
  70
    32
  0
VERTEX
  8
0
  5
5667
 10
268.929
 20
214.850
 30
0.000000
  70
    32
  0
VERTEX
  8
0
  5
5668
 10
268.930
 20
214.861
 30
0.000000
  70
    32
  0
VERTEX
  8
0
  5
5669
 10
268.932
 20
214.871
 30
0.000000
  70
    32
  0
VERTEX
  8
0
  5
566A
 10
268.933
 20
214.882
 30
0.000000
  70
    32
  0
VERTEX
  8
0
  5
566B
 10
268.935
 20
214.892
 30
0.000000
  70
    32
  0
VERTEX
  8
0
  5
566C
 10
268.936
 20
214.903
 30
0.000000
  70
    32
  0
VERTEX
  8
0
  5
566D
 10
268.937
 20
214.913
 30
0.000000
  70
    32
  0
VERTEX
  8
0
  5
566E
 10
268.939
 20
214.924
 30
0.000000
  70
    32
  0
VERTEX
  8
0
  5
566F
 10
268.940
 20
214.935
 30
0.000000
  70
    32
  0
VERTEX
  8
0
  5
5670
 10
268.941
 20
214.945
 30
0.000000
  70
    32
  0
VERTEX
  8
0
  5
5671
 10
268.943
 20
214.956
 30
0.000000
  70
    32
  0
VERTEX
  8
0
  5
5672
 10
268.944
 20
214.967
 30
0.000000
  70
    32
  0
VERTEX
  8
0
  5
5673
 10
268.945
 20
214.977
 30
0.000000
  70
    32
  0
VERTEX
  8
0
  5
5674
 10
268.947
 20
214.988
 30
0.000000
  70
    32
  0
VERTEX
  8
0
  5
5675
 10
268.948
 20
214.999
 30
0.000000
  70
    32
  0
VERTEX
  8
0
  5
5676
 10
268.949
 20
215.010
 30
0.000000
  70
    32
  0
VERTEX
  8
0
  5
5677
 10
268.950
 20
215.021
 30
0.000000
  70
    32
  0
VERTEX
  8
0
  5
5678
 10
268.952
 20
215.032
 30
0.000000
  70
    32
  0
VERTEX
  8
0
  5
5679
 10
268.953
 20
215.043
 30
0.000000
  70
    32
  0
VERTEX
  8
0
  5
567A
 10
268.954
 20
215.054
 30
0.000000
  70
    32
  0
VERTEX
  8
0
  5
567B
 10
268.955
 20
215.064
 30
0.000000
  70
    32
  0
VERTEX
  8
0
  5
567C
 10
268.956
 20
215.075
 30
0.000000
  70
    32
  0
VERTEX
  8
0
  5
567D
 10
268.958
 20
215.086
 30
0.000000
  70
    32
  0
VERTEX
  8
0
  5
567E
 10
268.959
 20
215.098
 30
0.000000
  70
    32
  0
VERTEX
  8
0
  5
567F
 10
268.960
 20
215.109
 30
0.000000
  70
    32
  0
VERTEX
  8
0
  5
5680
 10
268.961
 20
215.120
 30
0.000000
  70
    32
  0
VERTEX
  8
0
  5
5681
 10
268.962
 20
215.131
 30
0.000000
  70
    32
  0
VERTEX
  8
0
  5
5682
 10
268.963
 20
215.142
 30
0.000000
  70
    32
  0
VERTEX
  8
0
  5
5683
 10
268.964
 20
215.153
 30
0.000000
  70
    32
  0
VERTEX
  8
0
  5
5684
 10
268.965
 20
215.164
 30
0.000000
  70
    32
  0
VERTEX
  8
0
  5
5685
 10
268.966
 20
215.175
 30
0.000000
  70
    32
  0
VERTEX
  8
0
  5
5686
 10
268.967
 20
215.187
 30
0.000000
  70
    32
  0
VERTEX
  8
0
  5
5687
 10
268.968
 20
215.198
 30
0.000000
  70
    32
  0
VERTEX
  8
0
  5
5688
 10
268.970
 20
215.209
 30
0.000000
  70
    32
  0
VERTEX
  8
0
  5
5689
 10
268.971
 20
215.220
 30
0.000000
  70
    32
  0
VERTEX
  8
0
  5
568A
 10
268.971
 20
215.232
 30
0.000000
  70
    32
  0
VERTEX
  8
0
  5
568B
 10
268.972
 20
215.243
 30
0.000000
  70
    32
  0
VERTEX
  8
0
  5
568C
 10
268.973
 20
215.254
 30
0.000000
  70
    32
  0
VERTEX
  8
0
  5
568D
 10
268.974
 20
215.266
 30
0.000000
  70
    32
  0
VERTEX
  8
0
  5
568E
 10
268.975
 20
215.277
 30
0.000000
  70
    32
  0
VERTEX
  8
0
  5
568F
 10
268.976
 20
215.288
 30
0.000000
  70
    32
  0
VERTEX
  8
0
  5
5690
 10
268.977
 20
215.300
 30
0.000000
  70
    32
  0
VERTEX
  8
0
  5
5691
 10
268.978
 20
215.311
 30
0.000000
  70
    32
  0
VERTEX
  8
0
  5
5692
 10
268.979
 20
215.323
 30
0.000000
  70
    32
  0
VERTEX
  8
0
  5
5693
 10
268.980
 20
215.334
 30
0.000000
  70
    32
  0
VERTEX
  8
0
  5
5694
 10
268.981
 20
215.346
 30
0.000000
  70
    32
  0
VERTEX
  8
0
  5
5695
 10
268.981
 20
215.357
 30
0.000000
  70
    32
  0
VERTEX
  8
0
  5
5696
 10
268.982
 20
215.369
 30
0.000000
  70
    32
  0
VERTEX
  8
0
  5
5697
 10
268.983
 20
215.380
 30
0.000000
  70
    32
  0
VERTEX
  8
0
  5
5698
 10
268.984
 20
215.392
 30
0.000000
  70
    32
  0
VERTEX
  8
0
  5
5699
 10
268.985
 20
215.403
 30
0.000000
  70
    32
  0
VERTEX
  8
0
  5
569A
 10
268.985
 20
215.415
 30
0.000000
  70
    32
  0
VERTEX
  8
0
  5
569B
 10
268.986
 20
215.426
 30
0.000000
  70
    32
  0
VERTEX
  8
0
  5
569C
 10
268.987
 20
215.438
 30
0.000000
  70
    32
  0
VERTEX
  8
0
  5
569D
 10
268.987
 20
215.450
 30
0.000000
  70
    32
  0
VERTEX
  8
0
  5
569E
 10
268.988
 20
215.461
 30
0.000000
  70
    32
  0
VERTEX
  8
0
  5
569F
 10
268.989
 20
215.473
 30
0.000000
  70
    32
  0
VERTEX
  8
0
  5
56A0
 10
268.989
 20
215.485
 30
0.000000
  70
    32
  0
VERTEX
  8
0
  5
56A1
 10
268.990
 20
215.496
 30
0.000000
  70
    32
  0
VERTEX
  8
0
  5
56A2
 10
268.991
 20
215.508
 30
0.000000
  70
    32
  0
VERTEX
  8
0
  5
56A3
 10
268.991
 20
215.520
 30
0.000000
  70
    32
  0
VERTEX
  8
0
  5
56A4
 10
268.992
 20
215.531
 30
0.000000
  70
    32
  0
VERTEX
  8
0
  5
56A5
 10
268.993
 20
215.543
 30
0.000000
  70
    32
  0
VERTEX
  8
0
  5
56A6
 10
268.993
 20
215.555
 30
0.000000
  70
    32
  0
VERTEX
  8
0
  5
56A7
 10
268.994
 20
215.566
 30
0.000000
  70
    32
  0
VERTEX
  8
0
  5
56A8
 10
268.994
 20
215.578
 30
0.000000
  70
    32
  0
VERTEX
  8
0
  5
56A9
 10
268.995
 20
215.590
 30
0.000000
  70
    32
  0
VERTEX
  8
0
  5
56AA
 10
268.995
 20
215.602
 30
0.000000
  70
    32
  0
VERTEX
  8
0
  5
56AB
 10
268.996
 20
215.614
 30
0.000000
  70
    32
  0
VERTEX
  8
0
  5
56AC
 10
268.996
 20
215.625
 30
0.000000
  70
    32
  0
VERTEX
  8
0
  5
56AD
 10
268.997
 20
215.637
 30
0.000000
  70
    32
  0
VERTEX
  8
0
  5
56AE
 10
268.997
 20
215.649
 30
0.000000
  70
    32
  0
VERTEX
  8
0
  5
56AF
 10
268.998
 20
215.661
 30
0.000000
  70
    32
  0
VERTEX
  8
0
  5
56B0
 10
268.998
 20
215.673
 30
0.000000
  70
    32
  0
VERTEX
  8
0
  5
56B1
 10
268.999
 20
215.684
 30
0.000000
  70
    32
  0
VERTEX
  8
0
  5
56B2
 10
268.999
 20
215.696
 30
0.000000
  70
    32
  0
VERTEX
  8
0
  5
56B3
 10
268.999
 20
215.708
 30
0.000000
  70
    32
  0
VERTEX
  8
0
  5
56B4
 10
269.000
 20
215.720
 30
0.000000
  70
    32
  0
VERTEX
  8
0
  5
56B5
 10
269.000
 20
215.732
 30
0.000000
  70
    32
  0
VERTEX
  8
0
  5
56B6
 10
269.000
 20
215.744
 30
0.000000
  70
    32
  0
VERTEX
  8
0
  5
56B7
 10
269.001
 20
215.756
 30
0.000000
  70
    32
  0
VERTEX
  8
0
  5
56B8
 10
269.001
 20
215.767
 30
0.000000
  70
    32
  0
VERTEX
  8
0
  5
56B9
 10
269.001
 20
215.779
 30
0.000000
  70
    32
  0
VERTEX
  8
0
  5
56BA
 10
269.002
 20
215.791
 30
0.000000
  70
    32
  0
VERTEX
  8
0
  5
56BB
 10
269.002
 20
215.803
 30
0.000000
  70
    32
  0
VERTEX
  8
0
  5
56BC
 10
269.002
 20
215.815
 30
0.000000
  70
    32
  0
VERTEX
  8
0
  5
56BD
 10
269.002
 20
215.827
 30
0.000000
  70
    32
  0
VERTEX
  8
0
  5
56BE
 10
269.002
 20
215.839
 30
0.000000
  70
    32
  0
VERTEX
  8
0
  5
56BF
 10
269.003
 20
215.851
 30
0.000000
  70
    32
  0
VERTEX
  8
0
  5
56C0
 10
269.003
 20
215.863
 30
0.000000
  70
    32
  0
VERTEX
  8
0
  5
56C1
 10
269.003
 20
215.875
 30
0.000000
  70
    32
  0
VERTEX
  8
0
  5
56C2
 10
269.003
 20
215.887
 30
0.000000
  70
    32
  0
VERTEX
  8
0
  5
56C3
 10
269.003
 20
215.898
 30
0.000000
  70
    32
  0
VERTEX
  8
0
  5
56C4
 10
269.003
 20
215.910
 30
0.000000
  70
    32
  0
VERTEX
  8
0
  5
56C5
 10
269.004
 20
215.922
 30
0.000000
  70
    32
  0
VERTEX
  8
0
  5
56C6
 10
269.004
 20
215.934
 30
0.000000
  70
    32
  0
VERTEX
  8
0
  5
56C7
 10
269.004
 20
215.946
 30
0.000000
  70
    32
  0
VERTEX
  8
0
  5
56C8
 10
269.004
 20
215.958
 30
0.000000
  70
    32
  0
VERTEX
  8
0
  5
56C9
 10
269.004
 20
215.970
 30
0.000000
  70
    32
  0
VERTEX
  8
0
  5
56CA
 10
269.004
 20
215.982
 30
0.000000
  70
    32
  0
VERTEX
  8
0
  5
56CB
 10
269.004
 20
215.994
 30
0.000000
  70
    32
  0
VERTEX
  8
0
  5
56CC
 10
269.004
 20
216.006
 30
0.000000
  70
    32
  0
VERTEX
  8
0
  5
56CD
 10
269.004
 20
216.018
 30
0.000000
  70
    32
  0
VERTEX
  8
0
  5
56CE
 10
269.004
 20
216.030
 30
0.000000
  70
    32
  0
VERTEX
  8
0
  5
56CF
 10
269.004
 20
216.042
 30
0.000000
  70
    32
  0
VERTEX
  8
0
  5
56D0
 10
269.004
 20
216.054
 30
0.000000
  70
    32
  0
VERTEX
  8
0
  5
56D1
 10
269.004
 20
216.066
 30
0.000000
  70
    32
  0
VERTEX
  8
0
  5
56D2
 10
269.003
 20
216.078
 30
0.000000
  70
    32
  0
VERTEX
  8
0
  5
56D3
 10
269.003
 20
216.090
 30
0.000000
  70
    32
  0
VERTEX
  8
0
  5
56D4
 10
269.003
 20
216.101
 30
0.000000
  70
    32
  0
VERTEX
  8
0
  5
56D5
 10
269.003
 20
216.113
 30
0.000000
  70
    32
  0
VERTEX
  8
0
  5
56D6
 10
269.003
 20
216.125
 30
0.000000
  70
    32
  0
VERTEX
  8
0
  5
56D7
 10
269.003
 20
216.137
 30
0.000000
  70
    32
  0
VERTEX
  8
0
  5
56D8
 10
269.003
 20
216.149
 30
0.000000
  70
    32
  0
VERTEX
  8
0
  5
56D9
 10
269.002
 20
216.161
 30
0.000000
  70
    32
  0
VERTEX
  8
0
  5
56DA
 10
269.002
 20
216.173
 30
0.000000
  70
    32
  0
VERTEX
  8
0
  5
56DB
 10
269.002
 20
216.185
 30
0.000000
  70
    32
  0
VERTEX
  8
0
  5
56DC
 10
269.002
 20
216.197
 30
0.000000
  70
    32
  0
VERTEX
  8
0
  5
56DD
 10
269.001
 20
216.209
 30
0.000000
  70
    32
  0
VERTEX
  8
0
  5
56DE
 10
269.001
 20
216.221
 30
0.000000
  70
    32
  0
VERTEX
  8
0
  5
56DF
 10
269.001
 20
216.232
 30
0.000000
  70
    32
  0
VERTEX
  8
0
  5
56E0
 10
269.000
 20
216.244
 30
0.000000
  70
    32
  0
VERTEX
  8
0
  5
56E1
 10
269.000
 20
216.256
 30
0.000000
  70
    32
  0
VERTEX
  8
0
  5
56E2
 10
269.000
 20
216.268
 30
0.000000
  70
    32
  0
VERTEX
  8
0
  5
56E3
 10
268.999
 20
216.280
 30
0.000000
  70
    32
  0
VERTEX
  8
0
  5
56E4
 10
268.999
 20
216.292
 30
0.000000
  70
    32
  0
VERTEX
  8
0
  5
56E5
 10
268.999
 20
216.304
 30
0.000000
  70
    32
  0
VERTEX
  8
0
  5
56E6
 10
268.998
 20
216.315
 30
0.000000
  70
    32
  0
VERTEX
  8
0
  5
56E7
 10
268.998
 20
216.327
 30
0.000000
  70
    32
  0
VERTEX
  8
0
  5
56E8
 10
268.997
 20
216.339
 30
0.000000
  70
    32
  0
VERTEX
  8
0
  5
56E9
 10
268.997
 20
216.351
 30
0.000000
  70
    32
  0
VERTEX
  8
0
  5
56EA
 10
268.997
 20
216.363
 30
0.000000
  70
    32
  0
VERTEX
  8
0
  5
56EB
 10
268.996
 20
216.375
 30
0.000000
  70
    32
  0
VERTEX
  8
0
  5
56EC
 10
268.996
 20
216.386
 30
0.000000
  70
    32
  0
VERTEX
  8
0
  5
56ED
 10
268.995
 20
216.398
 30
0.000000
  70
    32
  0
VERTEX
  8
0
  5
56EE
 10
268.995
 20
216.410
 30
0.000000
  70
    32
  0
VERTEX
  8
0
  5
56EF
 10
268.994
 20
216.422
 30
0.000000
  70
    32
  0
VERTEX
  8
0
  5
56F0
 10
268.993
 20
216.433
 30
0.000000
  70
    32
  0
VERTEX
  8
0
  5
56F1
 10
268.993
 20
216.445
 30
0.000000
  70
    32
  0
VERTEX
  8
0
  5
56F2
 10
268.992
 20
216.457
 30
0.000000
  70
    32
  0
VERTEX
  8
0
  5
56F3
 10
268.992
 20
216.469
 30
0.000000
  70
    32
  0
VERTEX
  8
0
  5
56F4
 10
268.991
 20
216.480
 30
0.000000
  70
    32
  0
VERTEX
  8
0
  5
56F5
 10
268.990
 20
216.492
 30
0.000000
  70
    32
  0
VERTEX
  8
0
  5
56F6
 10
268.990
 20
216.504
 30
0.000000
  70
    32
  0
VERTEX
  8
0
  5
56F7
 10
268.989
 20
216.515
 30
0.000000
  70
    32
  0
VERTEX
  8
0
  5
56F8
 10
268.989
 20
216.527
 30
0.000000
  70
    32
  0
VERTEX
  8
0
  5
56F9
 10
268.988
 20
216.539
 30
0.000000
  70
    32
  0
VERTEX
  8
0
  5
56FA
 10
268.987
 20
216.550
 30
0.000000
  70
    32
  0
VERTEX
  8
0
  5
56FB
 10
268.986
 20
216.562
 30
0.000000
  70
    32
  0
VERTEX
  8
0
  5
56FC
 10
268.986
 20
216.573
 30
0.000000
  70
    32
  0
VERTEX
  8
0
  5
56FD
 10
268.985
 20
216.585
 30
0.000000
  70
    32
  0
VERTEX
  8
0
  5
56FE
 10
268.984
 20
216.597
 30
0.000000
  70
    32
  0
VERTEX
  8
0
  5
56FF
 10
268.983
 20
216.608
 30
0.000000
  70
    32
  0
VERTEX
  8
0
  5
5700
 10
268.983
 20
216.620
 30
0.000000
  70
    32
  0
VERTEX
  8
0
  5
5701
 10
268.982
 20
216.631
 30
0.000000
  70
    32
  0
VERTEX
  8
0
  5
5702
 10
268.981
 20
216.643
 30
0.000000
  70
    32
  0
VERTEX
  8
0
  5
5703
 10
268.980
 20
216.654
 30
0.000000
  70
    32
  0
VERTEX
  8
0
  5
5704
 10
268.979
 20
216.666
 30
0.000000
  70
    32
  0
VERTEX
  8
0
  5
5705
 10
268.979
 20
216.677
 30
0.000000
  70
    32
  0
VERTEX
  8
0
  5
5706
 10
268.978
 20
216.689
 30
0.000000
  70
    32
  0
VERTEX
  8
0
  5
5707
 10
268.977
 20
216.700
 30
0.000000
  70
    32
  0
VERTEX
  8
0
  5
5708
 10
268.976
 20
216.711
 30
0.000000
  70
    32
  0
VERTEX
  8
0
  5
5709
 10
268.975
 20
216.723
 30
0.000000
  70
    32
  0
VERTEX
  8
0
  5
570A
 10
268.974
 20
216.734
 30
0.000000
  70
    32
  0
VERTEX
  8
0
  5
570B
 10
268.973
 20
216.746
 30
0.000000
  70
    32
  0
VERTEX
  8
0
  5
570C
 10
268.972
 20
216.757
 30
0.000000
  70
    32
  0
VERTEX
  8
0
  5
570D
 10
268.971
 20
216.768
 30
0.000000
  70
    32
  0
VERTEX
  8
0
  5
570E
 10
268.970
 20
216.779
 30
0.000000
  70
    32
  0
VERTEX
  8
0
  5
570F
 10
268.969
 20
216.791
 30
0.000000
  70
    32
  0
VERTEX
  8
0
  5
5710
 10
268.968
 20
216.802
 30
0.000000
  70
    32
  0
VERTEX
  8
0
  5
5711
 10
268.967
 20
216.813
 30
0.000000
  70
    32
  0
VERTEX
  8
0
  5
5712
 10
268.966
 20
216.824
 30
0.000000
  70
    32
  0
VERTEX
  8
0
  5
5713
 10
268.965
 20
216.836
 30
0.000000
  70
    32
  0
VERTEX
  8
0
  5
5714
 10
268.964
 20
216.847
 30
0.000000
  70
    32
  0
VERTEX
  8
0
  5
5715
 10
268.963
 20
216.858
 30
0.000000
  70
    32
  0
VERTEX
  8
0
  5
5716
 10
268.962
 20
216.869
 30
0.000000
  70
    32
  0
VERTEX
  8
0
  5
5717
 10
268.961
 20
216.880
 30
0.000000
  70
    32
  0
VERTEX
  8
0
  5
5718
 10
268.960
 20
216.891
 30
0.000000
  70
    32
  0
VERTEX
  8
0
  5
5719
 10
268.959
 20
216.902
 30
0.000000
  70
    32
  0
VERTEX
  8
0
  5
571A
 10
268.957
 20
216.913
 30
0.000000
  70
    32
  0
VERTEX
  8
0
  5
571B
 10
268.956
 20
216.924
 30
0.000000
  70
    32
  0
VERTEX
  8
0
  5
571C
 10
268.955
 20
216.935
 30
0.000000
  70
    32
  0
VERTEX
  8
0
  5
571D
 10
268.954
 20
216.946
 30
0.000000
  70
    32
  0
VERTEX
  8
0
  5
571E
 10
268.953
 20
216.957
 30
0.000000
  70
    32
  0
VERTEX
  8
0
  5
571F
 10
268.952
 20
216.968
 30
0.000000
  70
    32
  0
VERTEX
  8
0
  5
5720
 10
268.950
 20
216.979
 30
0.000000
  70
    32
  0
VERTEX
  8
0
  5
5721
 10
268.949
 20
216.990
 30
0.000000
  70
    32
  0
VERTEX
  8
0
  5
5722
 10
268.948
 20
217.001
 30
0.000000
  70
    32
  0
VERTEX
  8
0
  5
5723
 10
268.947
 20
217.012
 30
0.000000
  70
    32
  0
VERTEX
  8
0
  5
5724
 10
268.945
 20
217.022
 30
0.000000
  70
    32
  0
VERTEX
  8
0
  5
5725
 10
268.944
 20
217.033
 30
0.000000
  70
    32
  0
VERTEX
  8
0
  5
5726
 10
268.943
 20
217.044
 30
0.000000
  70
    32
  0
VERTEX
  8
0
  5
5727
 10
268.941
 20
217.055
 30
0.000000
  70
    32
  0
VERTEX
  8
0
  5
5728
 10
268.940
 20
217.065
 30
0.000000
  70
    32
  0
VERTEX
  8
0
  5
5729
 10
268.939
 20
217.076
 30
0.000000
  70
    32
  0
VERTEX
  8
0
  5
572A
 10
268.937
 20
217.087
 30
0.000000
  70
    32
  0
VERTEX
  8
0
  5
572B
 10
268.936
 20
217.097
 30
0.000000
  70
    32
  0
VERTEX
  8
0
  5
572C
 10
268.935
 20
217.108
 30
0.000000
  70
    32
  0
VERTEX
  8
0
  5
572D
 10
268.933
 20
217.118
 30
0.000000
  70
    32
  0
VERTEX
  8
0
  5
572E
 10
268.932
 20
217.129
 30
0.000000
  70
    32
  0
VERTEX
  8
0
  5
572F
 10
268.930
 20
217.139
 30
0.000000
  70
    32
  0
VERTEX
  8
0
  5
5730
 10
268.929
 20
217.150
 30
0.000000
  70
    32
  0
VERTEX
  8
0
  5
5731
 10
268.927
 20
217.160
 30
0.000000
  70
    32
  0
VERTEX
  8
0
  5
5732
 10
268.926
 20
217.171
 30
0.000000
  70
    32
  0
VERTEX
  8
0
  5
5733
 10
268.924
 20
217.181
 30
0.000000
  70
    32
  0
VERTEX
  8
0
  5
5734
 10
268.923
 20
217.191
 30
0.000000
  70
    32
  0
VERTEX
  8
0
  5
5735
 10
268.921
 20
217.202
 30
0.000000
  70
    32
  0
VERTEX
  8
0
  5
5736
 10
268.920
 20
217.212
 30
0.000000
  70
    32
  0
VERTEX
  8
0
  5
5737
 10
268.918
 20
217.222
 30
0.000000
  70
    32
  0
VERTEX
  8
0
  5
5738
 10
268.917
 20
217.233
 30
0.000000
  70
    32
  0
VERTEX
  8
0
  5
5739
 10
268.915
 20
217.243
 30
0.000000
  70
    32
  0
VERTEX
  8
0
  5
573A
 10
268.914
 20
217.253
 30
0.000000
  70
    32
  0
VERTEX
  8
0
  5
573B
 10
268.912
 20
217.263
 30
0.000000
  70
    32
  0
VERTEX
  8
0
  5
573C
 10
268.911
 20
217.273
 30
0.000000
  70
    32
  0
VERTEX
  8
0
  5
573D
 10
268.909
 20
217.283
 30
0.000000
  70
    32
  0
VERTEX
  8
0
  5
573E
 10
268.907
 20
217.293
 30
0.000000
  70
    32
  0
VERTEX
  8
0
  5
573F
 10
268.906
 20
217.303
 30
0.000000
  70
    32
  0
VERTEX
  8
0
  5
5740
 10
268.904
 20
217.313
 30
0.000000
  70
    32
  0
VERTEX
  8
0
  5
5741
 10
268.902
 20
217.323
 30
0.000000
  70
    32
  0
VERTEX
  8
0
  5
5742
 10
268.901
 20
217.333
 30
0.000000
  70
    32
  0
VERTEX
  8
0
  5
5743
 10
268.899
 20
217.343
 30
0.000000
  70
    32
  0
VERTEX
  8
0
  5
5744
 10
268.897
 20
217.353
 30
0.000000
  70
    32
  0
VERTEX
  8
0
  5
5745
 10
268.896
 20
217.362
 30
0.000000
  70
    32
  0
VERTEX
  8
0
  5
5746
 10
268.894
 20
217.372
 30
0.000000
  70
    32
  0
VERTEX
  8
0
  5
5747
 10
268.892
 20
217.382
 30
0.000000
  70
    32
  0
VERTEX
  8
0
  5
5748
 10
268.890
 20
217.391
 30
0.000000
  70
    32
  0
VERTEX
  8
0
  5
5749
 10
268.889
 20
217.401
 30
0.000000
  70
    32
  0
VERTEX
  8
0
  5
574A
 10
268.887
 20
217.411
 30
0.000000
  70
    32
  0
VERTEX
  8
0
  5
574B
 10
268.885
 20
217.420
 30
0.000000
  70
    32
  0
VERTEX
  8
0
  5
574C
 10
268.883
 20
217.430
 30
0.000000
  70
    32
  0
VERTEX
  8
0
  5
574D
 10
268.881
 20
217.439
 30
0.000000
  70
    32
  0
VERTEX
  8
0
  5
574E
 10
268.880
 20
217.449
 30
0.000000
  70
    32
  0
VERTEX
  8
0
  5
574F
 10
268.878
 20
217.458
 30
0.000000
  70
    32
  0
VERTEX
  8
0
  5
5750
 10
268.876
 20
217.468
 30
0.000000
  70
    32
  0
VERTEX
  8
0
  5
5751
 10
268.874
 20
217.477
 30
0.000000
  70
    32
  0
VERTEX
  8
0
  5
5752
 10
268.872
 20
217.486
 30
0.000000
  70
    32
  0
VERTEX
  8
0
  5
5753
 10
268.870
 20
217.495
 30
0.000000
  70
    32
  0
VERTEX
  8
0
  5
5754
 10
268.868
 20
217.505
 30
0.000000
  70
    32
  0
VERTEX
  8
0
  5
5755
 10
268.867
 20
217.514
 30
0.000000
  70
    32
  0
VERTEX
  8
0
  5
5756
 10
268.865
 20
217.523
 30
0.000000
  70
    32
  0
VERTEX
  8
0
  5
5757
 10
268.863
 20
217.532
 30
0.000000
  70
    32
  0
VERTEX
  8
0
  5
5758
 10
268.861
 20
217.541
 30
0.000000
  70
    32
  0
VERTEX
  8
0
  5
5759
 10
268.859
 20
217.550
 30
0.000000
  70
    32
  0
VERTEX
  8
0
  5
575A
 10
268.857
 20
217.559
 30
0.000000
  70
    32
  0
VERTEX
  8
0
  5
575B
 10
268.855
 20
217.568
 30
0.000000
  70
    32
  0
VERTEX
  8
0
  5
575C
 10
268.853
 20
217.577
 30
0.000000
  70
    32
  0
VERTEX
  8
0
  5
575D
 10
268.851
 20
217.586
 30
0.000000
  70
    32
  0
VERTEX
  8
0
  5
575E
 10
268.849
 20
217.595
 30
0.000000
  70
    32
  0
VERTEX
  8
0
  5
575F
 10
268.847
 20
217.604
 30
0.000000
  70
    32
  0
VERTEX
  8
0
  5
5760
 10
268.845
 20
217.612
 30
0.000000
  70
    32
  0
VERTEX
  8
0
  5
5761
 10
268.843
 20
217.621
 30
0.000000
  70
    32
  0
VERTEX
  8
0
  5
5762
 10
268.841
 20
217.630
 30
0.000000
  70
    32
  0
VERTEX
  8
0
  5
5763
 10
268.839
 20
217.638
 30
0.000000
  70
    32
  0
VERTEX
  8
0
  5
5764
 10
268.837
 20
217.647
 30
0.000000
  70
    32
  0
VERTEX
  8
0
  5
5765
 10
268.835
 20
217.655
 30
0.000000
  70
    32
  0
VERTEX
  8
0
  5
5766
 10
268.833
 20
217.664
 30
0.000000
  70
    32
  0
VERTEX
  8
0
  5
5767
 10
268.831
 20
217.672
 30
0.000000
  70
    32
  0
VERTEX
  8
0
  5
5768
 10
268.828
 20
217.681
 30
0.000000
  70
    32
  0
VERTEX
  8
0
  5
5769
 10
268.826
 20
217.689
 30
0.000000
  70
    32
  0
VERTEX
  8
0
  5
576A
 10
268.824
 20
217.697
 30
0.000000
  70
    32
  0
VERTEX
  8
0
  5
576B
 10
268.822
 20
217.705
 30
0.000000
  70
    32
  0
VERTEX
  8
0
  5
576C
 10
268.820
 20
217.714
 30
0.000000
  70
    32
  0
VERTEX
  8
0
  5
576D
 10
268.818
 20
217.722
 30
0.000000
  70
    32
  0
VERTEX
  8
0
  5
576E
 10
268.816
 20
217.730
 30
0.000000
  70
    32
  0
VERTEX
  8
0
  5
576F
 10
268.814
 20
217.738
 30
0.000000
  70
    32
  0
VERTEX
  8
0
  5
5770
 10
268.811
 20
217.746
 30
0.000000
  70
    32
  0
VERTEX
  8
0
  5
5771
 10
268.809
 20
217.754
 30
0.000000
  70
    32
  0
VERTEX
  8
0
  5
5772
 10
268.807
 20
217.762
 30
0.000000
  70
    32
  0
VERTEX
  8
0
  5
5773
 10
268.805
 20
217.770
 30
0.000000
  70
    32
  0
VERTEX
  8
0
  5
5774
 10
268.803
 20
217.778
 30
0.000000
  70
    32
  0
VERTEX
  8
0
  5
5775
 10
268.801
 20
217.785
 30
0.000000
  70
    32
  0
VERTEX
  8
0
  5
5776
 10
268.798
 20
217.793
 30
0.000000
  70
    32
  0
VERTEX
  8
0
  5
5777
 10
268.796
 20
217.801
 30
0.000000
  70
    32
  0
VERTEX
  8
0
  5
5778
 10
268.794
 20
217.809
 30
0.000000
  70
    32
  0
VERTEX
  8
0
  5
5779
 10
268.792
 20
217.816
 30
0.000000
  70
    32
  0
VERTEX
  8
0
  5
577A
 10
268.789
 20
217.824
 30
0.000000
  70
    32
  0
VERTEX
  8
0
  5
577B
 10
268.787
 20
217.831
 30
0.000000
  70
    32
  0
VERTEX
  8
0
  5
577C
 10
268.785
 20
217.839
 30
0.000000
  70
    32
  0
VERTEX
  8
0
  5
577D
 10
268.783
 20
217.846
 30
0.000000
  70
    32
  0
VERTEX
  8
0
  5
577E
 10
268.780
 20
217.853
 30
0.000000
  70
    32
  0
VERTEX
  8
0
  5
577F
 10
268.778
 20
217.861
 30
0.000000
  70
    32
  0
VERTEX
  8
0
  5
5780
 10
268.776
 20
217.868
 30
0.000000
  70
    32
  0
VERTEX
  8
0
  5
5781
 10
268.774
 20
217.875
 30
0.000000
  70
    32
  0
VERTEX
  8
0
  5
5782
 10
268.771
 20
217.882
 30
0.000000
  70
    32
  0
VERTEX
  8
0
  5
5783
 10
268.769
 20
217.889
 30
0.000000
  70
    32
  0
VERTEX
  8
0
  5
5784
 10
268.767
 20
217.896
 30
0.000000
  70
    32
  0
VERTEX
  8
0
  5
5785
 10
268.765
 20
217.903
 30
0.000000
  70
    32
  0
VERTEX
  8
0
  5
5786
 10
268.762
 20
217.910
 30
0.000000
  70
    32
  0
VERTEX
  8
0
  5
5787
 10
268.760
 20
217.917
 30
0.000000
  70
    32
  0
VERTEX
  8
0
  5
5788
 10
268.758
 20
217.924
 30
0.000000
  70
    32
  0
VERTEX
  8
0
  5
5789
 10
268.755
 20
217.931
 30
0.000000
  70
    32
  0
VERTEX
  8
0
  5
578A
 10
268.753
 20
217.938
 30
0.000000
  70
    32
  0
VERTEX
  8
0
  5
578B
 10
268.751
 20
217.944
 30
0.000000
  70
    32
  0
VERTEX
  8
0
  5
578C
 10
268.748
 20
217.951
 30
0.000000
  70
    32
  0
VERTEX
  8
0
  5
578D
 10
268.746
 20
217.957
 30
0.000000
  70
    32
  0
VERTEX
  8
0
  5
578E
 10
268.744
 20
217.964
 30
0.000000
  70
    32
  0
VERTEX
  8
0
  5
578F
 10
268.741
 20
217.970
 30
0.000000
  70
    32
  0
VERTEX
  8
0
  5
5790
 10
268.739
 20
217.977
 30
0.000000
  70
    32
  0
VERTEX
  8
0
  5
5791
 10
268.736
 20
217.983
 30
0.000000
  70
    32
  0
VERTEX
  8
0
  5
5792
 10
268.734
 20
217.989
 30
0.000000
  70
    32
  0
VERTEX
  8
0
  5
5793
 10
268.732
 20
217.996
 30
0.000000
  70
    32
  0
VERTEX
  8
0
  5
5794
 10
268.729
 20
218.002
 30
0.000000
  70
    32
  0
VERTEX
  8
0
  5
5795
 10
268.727
 20
218.008
 30
0.000000
  70
    32
  0
VERTEX
  8
0
  5
5796
 10
268.725
 20
218.014
 30
0.000000
  70
    32
  0
VERTEX
  8
0
  5
5797
 10
268.722
 20
218.020
 30
0.000000
  70
    32
  0
VERTEX
  8
0
  5
5798
 10
268.720
 20
218.026
 30
0.000000
  70
    32
  0
VERTEX
  8
0
  5
5799
 10
268.717
 20
218.032
 30
0.000000
  70
    32
  0
VERTEX
  8
0
  5
579A
 10
268.715
 20
218.038
 30
0.000000
  70
    32
  0
VERTEX
  8
0
  5
579B
 10
268.713
 20
218.043
 30
0.000000
  70
    32
  0
VERTEX
  8
0
  5
579C
 10
268.710
 20
218.049
 30
0.000000
  70
    32
  0
VERTEX
  8
0
  5
579D
 10
268.708
 20
218.055
 30
0.000000
  70
    32
  0
VERTEX
  8
0
  5
579E
 10
268.705
 20
218.060
 30
0.000000
  70
    32
  0
VERTEX
  8
0
  5
579F
 10
268.703
 20
218.066
 30
0.000000
  70
    32
  0
VERTEX
  8
0
  5
57A0
 10
268.700
 20
218.071
 30
0.000000
  70
    32
  0
VERTEX
  8
0
  5
57A1
 10
268.698
 20
218.077
 30
0.000000
  70
    32
  0
VERTEX
  8
0
  5
57A2
 10
268.696
 20
218.082
 30
0.000000
  70
    32
  0
VERTEX
  8
0
  5
57A3
 10
268.693
 20
218.088
 30
0.000000
  70
    32
  0
VERTEX
  8
0
  5
57A4
 10
268.691
 20
218.093
 30
0.000000
  70
    32
  0
VERTEX
  8
0
  5
57A5
 10
268.688
 20
218.098
 30
0.000000
  70
    32
  0
VERTEX
  8
0
  5
57A6
 10
268.686
 20
218.103
 30
0.000000
  70
    32
  0
VERTEX
  8
0
  5
57A7
 10
268.684
 20
218.108
 30
0.000000
  70
    32
  0
VERTEX
  8
0
  5
57A8
 10
268.681
 20
218.113
 30
0.000000
  70
    32
  0
VERTEX
  8
0
  5
57A9
 10
268.679
 20
218.118
 30
0.000000
  70
    32
  0
VERTEX
  8
0
  5
57AA
 10
268.676
 20
218.123
 30
0.000000
  70
    32
  0
VERTEX
  8
0
  5
57AB
 10
268.674
 20
218.128
 30
0.000000
  70
    32
  0
VERTEX
  8
0
  5
57AC
 10
268.671
 20
218.132
 30
0.000000
  70
    32
  0
VERTEX
  8
0
  5
57AD
 10
268.669
 20
218.137
 30
0.000000
  70
    32
  0
VERTEX
  8
0
  5
57AE
 10
268.667
 20
218.142
 30
0.000000
  70
    32
  0
VERTEX
  8
0
  5
57AF
 10
268.664
 20
218.146
 30
0.000000
  70
    32
  0
VERTEX
  8
0
  5
57B0
 10
268.662
 20
218.151
 30
0.000000
  70
    32
  0
VERTEX
  8
0
  5
57B1
 10
268.660
 20
218.155
 30
0.000000
  70
    32
  0
VERTEX
  8
0
  5
57B2
 10
268.657
 20
218.160
 30
0.000000
  70
    32
  0
VERTEX
  8
0
  5
57B3
 10
268.655
 20
218.164
 30
0.000000
  70
    32
  0
VERTEX
  8
0
  5
57B4
 10
268.652
 20
218.168
 30
0.000000
  70
    32
  0
VERTEX
  8
0
  5
57B5
 10
268.650
 20
218.172
 30
0.000000
  70
    32
  0
VERTEX
  8
0
  5
57B6
 10
268.648
 20
218.176
 30
0.000000
  70
    32
  0
VERTEX
  8
0
  5
57B7
 10
268.645
 20
218.181
 30
0.000000
  70
    32
  0
VERTEX
  8
0
  5
57B8
 10
268.643
 20
218.184
 30
0.000000
  70
    32
  0
VERTEX
  8
0
  5
57B9
 10
268.641
 20
218.188
 30
0.000000
  70
    32
  0
VERTEX
  8
0
  5
57BA
 10
268.638
 20
218.192
 30
0.000000
  70
    32
  0
VERTEX
  8
0
  5
57BB
 10
268.636
 20
218.196
 30
0.000000
  70
    32
  0
VERTEX
  8
0
  5
57BC
 10
268.634
 20
218.200
 30
0.000000
  70
    32
  0
VERTEX
  8
0
  5
57BD
 10
268.632
 20
218.203
 30
0.000000
  70
    32
  0
VERTEX
  8
0
  5
57BE
 10
268.629
 20
218.207
 30
0.000000
  70
    32
  0
VERTEX
  8
0
  5
57BF
 10
268.627
 20
218.210
 30
0.000000
  70
    32
  0
VERTEX
  8
0
  5
57C0
 10
268.625
 20
218.214
 30
0.000000
  70
    32
  0
VERTEX
  8
0
  5
57C1
 10
268.623
 20
218.217
 30
0.000000
  70
    32
  0
VERTEX
  8
0
  5
57C2
 10
268.620
 20
218.221
 30
0.000000
  70
    32
  0
VERTEX
  8
0
  5
57C3
 10
268.618
 20
218.224
 30
0.000000
  70
    32
  0
VERTEX
  8
0
  5
57C4
 10
268.616
 20
218.227
 30
0.000000
  70
    32
  0
VERTEX
  8
0
  5
57C5
 10
268.614
 20
218.230
 30
0.000000
  70
    32
  0
VERTEX
  8
0
  5
57C6
 10
268.612
 20
218.233
 30
0.000000
  70
    32
  0
VERTEX
  8
0
  5
57C7
 10
268.610
 20
218.236
 30
0.000000
  70
    32
  0
VERTEX
  8
0
  5
57C8
 10
268.608
 20
218.239
 30
0.000000
  70
    32
  0
VERTEX
  8
0
  5
57C9
 10
268.605
 20
218.242
 30
0.000000
  70
    32
  0
VERTEX
  8
0
  5
57CA
 10
268.603
 20
218.245
 30
0.000000
  70
    32
  0
VERTEX
  8
0
  5
57CB
 10
268.601
 20
218.247
 30
0.000000
  70
    32
  0
VERTEX
  8
0
  5
57CC
 10
268.599
 20
218.250
 30
0.000000
  70
    32
  0
VERTEX
  8
0
  5
57CD
 10
268.597
 20
218.252
 30
0.000000
  70
    32
  0
VERTEX
  8
0
  5
57CE
 10
268.595
 20
218.255
 30
0.000000
  70
    32
  0
VERTEX
  8
0
  5
57CF
 10
268.593
 20
218.257
 30
0.000000
  70
    32
  0
VERTEX
  8
0
  5
57D0
 10
268.591
 20
218.260
 30
0.000000
  70
    32
  0
VERTEX
  8
0
  5
57D1
 10
268.589
 20
218.262
 30
0.000000
  70
    32
  0
VERTEX
  8
0
  5
57D2
 10
268.588
 20
218.264
 30
0.000000
  70
    32
  0
VERTEX
  8
0
  5
57D3
 10
268.586
 20
218.266
 30
0.000000
  70
    32
  0
VERTEX
  8
0
  5
57D4
 10
268.584
 20
218.268
 30
0.000000
  70
    32
  0
VERTEX
  8
0
  5
57D5
 10
268.582
 20
218.270
 30
0.000000
  70
    32
  0
VERTEX
  8
0
  5
57D6
 10
268.580
 20
218.272
 30
0.000000
  70
    32
  0
VERTEX
  8
0
  5
57D7
 10
268.578
 20
218.274
 30
0.000000
  70
    32
  0
VERTEX
  8
0
  5
57D8
 10
268.577
 20
218.276
 30
0.000000
  70
    32
  0
VERTEX
  8
0
  5
57D9
 10
268.575
 20
218.277
 30
0.000000
  70
    32
  0
VERTEX
  8
0
  5
57DA
 10
268.573
 20
218.279
 30
0.000000
  70
    32
  0
VERTEX
  8
0
  5
57DB
 10
268.572
 20
218.281
 30
0.000000
  70
    32
  0
VERTEX
  8
0
  5
57DC
 10
268.570
 20
218.282
 30
0.000000
  70
    32
  0
VERTEX
  8
0
  5
57DD
 10
268.569
 20
218.284
 30
0.000000
  70
    32
  0
VERTEX
  8
0
  5
57DE
 10
268.567
 20
218.285
 30
0.000000
  70
    32
  0
VERTEX
  8
0
  5
57DF
 10
268.566
 20
218.286
 30
0.000000
  70
    32
  0
VERTEX
  8
0
  5
57E0
 10
268.564
 20
218.287
 30
0.000000
  70
    32
  0
VERTEX
  8
0
  5
57E1
 10
268.563
 20
218.289
 30
0.000000
  70
    32
  0
VERTEX
  8
0
  5
57E2
 10
268.562
 20
218.290
 30
0.000000
  70
    32
  0
VERTEX
  8
0
  5
57E3
 10
268.560
 20
218.291
 30
0.000000
  70
    32
  0
VERTEX
  8
0
  5
57E4
 10
268.559
 20
218.292
 30
0.000000
  70
    32
  0
VERTEX
  8
0
  5
57E5
 10
268.558
 20
218.293
 30
0.000000
  70
    32
  0
VERTEX
  8
0
  5
57E6
 10
268.557
 20
218.294
 30
0.000000
  70
    32
  0
VERTEX
  8
0
  5
57E7
 10
268.556
 20
218.294
 30
0.000000
  70
    32
  0
VERTEX
  8
0
  5
57E8
 10
268.555
 20
218.295
 30
0.000000
  70
    32
  0
VERTEX
  8
0
  5
57E9
 10
268.554
 20
218.296
 30
0.000000
  70
    32
  0
VERTEX
  8
0
  5
57EA
 10
268.553
 20
218.297
 30
0.000000
  70
    32
  0
VERTEX
  8
0
  5
57EB
 10
268.552
 20
218.297
 30
0.000000
  70
    32
  0
SEQEND
  8
0
  5
57EC
  0
POLYLINE
  8
0
  5
57ED
  66
     1
 10
0.000000
 20
0.000000
 30
0.000000
  70
     8
  0
VERTEX
  8
0
  5
57EE
 10
268.552
 20
218.297
 30
0.000000
  70
    32
  0
VERTEX
  8
0
  5
57EF
 10
268.551
 20
218.297
 30
0.000000
  70
    32
  0
VERTEX
  8
0
  5
57F0
 10
268.550
 20
218.296
 30
0.000000
  70
    32
  0
VERTEX
  8
0
  5
57F1
 10
268.549
 20
218.295
 30
0.000000
  70
    32
  0
VERTEX
  8
0
  5
57F2
 10
268.548
 20
218.294
 30
0.000000
  70
    32
  0
VERTEX
  8
0
  5
57F3
 10
268.547
 20
218.294
 30
0.000000
  70
    32
  0
VERTEX
  8
0
  5
57F4
 10
268.546
 20
218.293
 30
0.000000
  70
    32
  0
VERTEX
  8
0
  5
57F5
 10
268.544
 20
218.292
 30
0.000000
  70
    32
  0
VERTEX
  8
0
  5
57F6
 10
268.543
 20
218.291
 30
0.000000
  70
    32
  0
VERTEX
  8
0
  5
57F7
 10
268.542
 20
218.290
 30
0.000000
  70
    32
  0
VERTEX
  8
0
  5
57F8
 10
268.541
 20
218.289
 30
0.000000
  70
    32
  0
VERTEX
  8
0
  5
57F9
 10
268.539
 20
218.287
 30
0.000000
  70
    32
  0
VERTEX
  8
0
  5
57FA
 10
268.538
 20
218.286
 30
0.000000
  70
    32
  0
VERTEX
  8
0
  5
57FB
 10
268.536
 20
218.285
 30
0.000000
  70
    32
  0
VERTEX
  8
0
  5
57FC
 10
268.535
 20
218.283
 30
0.000000
  70
    32
  0
VERTEX
  8
0
  5
57FD
 10
268.533
 20
218.282
 30
0.000000
  70
    32
  0
VERTEX
  8
0
  5
57FE
 10
268.532
 20
218.280
 30
0.000000
  70
    32
  0
VERTEX
  8
0
  5
57FF
 10
268.530
 20
218.279
 30
0.000000
  70
    32
  0
VERTEX
  8
0
  5
5800
 10
268.528
 20
218.277
 30
0.000000
  70
    32
  0
VERTEX
  8
0
  5
5801
 10
268.527
 20
218.275
 30
0.000000
  70
    32
  0
VERTEX
  8
0
  5
5802
 10
268.525
 20
218.274
 30
0.000000
  70
    32
  0
VERTEX
  8
0
  5
5803
 10
268.523
 20
218.272
 30
0.000000
  70
    32
  0
VERTEX
  8
0
  5
5804
 10
268.521
 20
218.270
 30
0.000000
  70
    32
  0
VERTEX
  8
0
  5
5805
 10
268.520
 20
218.268
 30
0.000000
  70
    32
  0
VERTEX
  8
0
  5
5806
 10
268.518
 20
218.266
 30
0.000000
  70
    32
  0
VERTEX
  8
0
  5
5807
 10
268.516
 20
218.264
 30
0.000000
  70
    32
  0
VERTEX
  8
0
  5
5808
 10
268.514
 20
218.262
 30
0.000000
  70
    32
  0
VERTEX
  8
0
  5
5809
 10
268.512
 20
218.259
 30
0.000000
  70
    32
  0
VERTEX
  8
0
  5
580A
 10
268.510
 20
218.257
 30
0.000000
  70
    32
  0
VERTEX
  8
0
  5
580B
 10
268.508
 20
218.255
 30
0.000000
  70
    32
  0
VERTEX
  8
0
  5
580C
 10
268.506
 20
218.252
 30
0.000000
  70
    32
  0
VERTEX
  8
0
  5
580D
 10
268.504
 20
218.250
 30
0.000000
  70
    32
  0
VERTEX
  8
0
  5
580E
 10
268.502
 20
218.247
 30
0.000000
  70
    32
  0
VERTEX
  8
0
  5
580F
 10
268.500
 20
218.244
 30
0.000000
  70
    32
  0
VERTEX
  8
0
  5
5810
 10
268.498
 20
218.242
 30
0.000000
  70
    32
  0
VERTEX
  8
0
  5
5811
 10
268.496
 20
218.239
 30
0.000000
  70
    32
  0
VERTEX
  8
0
  5
5812
 10
268.494
 20
218.236
 30
0.000000
  70
    32
  0
VERTEX
  8
0
  5
5813
 10
268.492
 20
218.233
 30
0.000000
  70
    32
  0
VERTEX
  8
0
  5
5814
 10
268.489
 20
218.230
 30
0.000000
  70
    32
  0
VERTEX
  8
0
  5
5815
 10
268.487
 20
218.227
 30
0.000000
  70
    32
  0
VERTEX
  8
0
  5
5816
 10
268.485
 20
218.224
 30
0.000000
  70
    32
  0
VERTEX
  8
0
  5
5817
 10
268.483
 20
218.221
 30
0.000000
  70
    32
  0
VERTEX
  8
0
  5
5818
 10
268.481
 20
218.217
 30
0.000000
  70
    32
  0
VERTEX
  8
0
  5
5819
 10
268.478
 20
218.214
 30
0.000000
  70
    32
  0
VERTEX
  8
0
  5
581A
 10
268.476
 20
218.211
 30
0.000000
  70
    32
  0
VERTEX
  8
0
  5
581B
 10
268.474
 20
218.207
 30
0.000000
  70
    32
  0
VERTEX
  8
0
  5
581C
 10
268.472
 20
218.203
 30
0.000000
  70
    32
  0
VERTEX
  8
0
  5
581D
 10
268.469
 20
218.200
 30
0.000000
  70
    32
  0
VERTEX
  8
0
  5
581E
 10
268.467
 20
218.196
 30
0.000000
  70
    32
  0
VERTEX
  8
0
  5
581F
 10
268.465
 20
218.192
 30
0.000000
  70
    32
  0
VERTEX
  8
0
  5
5820
 10
268.462
 20
218.188
 30
0.000000
  70
    32
  0
VERTEX
  8
0
  5
5821
 10
268.460
 20
218.185
 30
0.000000
  70
    32
  0
VERTEX
  8
0
  5
5822
 10
268.458
 20
218.181
 30
0.000000
  70
    32
  0
VERTEX
  8
0
  5
5823
 10
268.455
 20
218.177
 30
0.000000
  70
    32
  0
VERTEX
  8
0
  5
5824
 10
268.453
 20
218.172
 30
0.000000
  70
    32
  0
VERTEX
  8
0
  5
5825
 10
268.451
 20
218.168
 30
0.000000
  70
    32
  0
VERTEX
  8
0
  5
5826
 10
268.448
 20
218.164
 30
0.000000
  70
    32
  0
VERTEX
  8
0
  5
5827
 10
268.446
 20
218.160
 30
0.000000
  70
    32
  0
VERTEX
  8
0
  5
5828
 10
268.444
 20
218.155
 30
0.000000
  70
    32
  0
VERTEX
  8
0
  5
5829
 10
268.441
 20
218.151
 30
0.000000
  70
    32
  0
VERTEX
  8
0
  5
582A
 10
268.439
 20
218.146
 30
0.000000
  70
    32
  0
VERTEX
  8
0
  5
582B
 10
268.437
 20
218.142
 30
0.000000
  70
    32
  0
VERTEX
  8
0
  5
582C
 10
268.434
 20
218.137
 30
0.000000
  70
    32
  0
VERTEX
  8
0
  5
582D
 10
268.432
 20
218.133
 30
0.000000
  70
    32
  0
VERTEX
  8
0
  5
582E
 10
268.429
 20
218.128
 30
0.000000
  70
    32
  0
VERTEX
  8
0
  5
582F
 10
268.427
 20
218.123
 30
0.000000
  70
    32
  0
VERTEX
  8
0
  5
5830
 10
268.425
 20
218.118
 30
0.000000
  70
    32
  0
VERTEX
  8
0
  5
5831
 10
268.422
 20
218.113
 30
0.000000
  70
    32
  0
VERTEX
  8
0
  5
5832
 10
268.420
 20
218.108
 30
0.000000
  70
    32
  0
VERTEX
  8
0
  5
5833
 10
268.417
 20
218.103
 30
0.000000
  70
    32
  0
VERTEX
  8
0
  5
5834
 10
268.415
 20
218.098
 30
0.000000
  70
    32
  0
VERTEX
  8
0
  5
5835
 10
268.413
 20
218.093
 30
0.000000
  70
    32
  0
VERTEX
  8
0
  5
5836
 10
268.410
 20
218.088
 30
0.000000
  70
    32
  0
VERTEX
  8
0
  5
5837
 10
268.408
 20
218.082
 30
0.000000
  70
    32
  0
VERTEX
  8
0
  5
5838
 10
268.405
 20
218.077
 30
0.000000
  70
    32
  0
VERTEX
  8
0
  5
5839
 10
268.403
 20
218.071
 30
0.000000
  70
    32
  0
VERTEX
  8
0
  5
583A
 10
268.400
 20
218.066
 30
0.000000
  70
    32
  0
VERTEX
  8
0
  5
583B
 10
268.398
 20
218.060
 30
0.000000
  70
    32
  0
VERTEX
  8
0
  5
583C
 10
268.396
 20
218.055
 30
0.000000
  70
    32
  0
VERTEX
  8
0
  5
583D
 10
268.393
 20
218.049
 30
0.000000
  70
    32
  0
VERTEX
  8
0
  5
583E
 10
268.391
 20
218.043
 30
0.000000
  70
    32
  0
VERTEX
  8
0
  5
583F
 10
268.388
 20
218.038
 30
0.000000
  70
    32
  0
VERTEX
  8
0
  5
5840
 10
268.386
 20
218.032
 30
0.000000
  70
    32
  0
VERTEX
  8
0
  5
5841
 10
268.384
 20
218.026
 30
0.000000
  70
    32
  0
VERTEX
  8
0
  5
5842
 10
268.381
 20
218.020
 30
0.000000
  70
    32
  0
VERTEX
  8
0
  5
5843
 10
268.379
 20
218.014
 30
0.000000
  70
    32
  0
VERTEX
  8
0
  5
5844
 10
268.376
 20
218.008
 30
0.000000
  70
    32
  0
VERTEX
  8
0
  5
5845
 10
268.374
 20
218.002
 30
0.000000
  70
    32
  0
VERTEX
  8
0
  5
5846
 10
268.372
 20
217.996
 30
0.000000
  70
    32
  0
VERTEX
  8
0
  5
5847
 10
268.369
 20
217.989
 30
0.000000
  70
    32
  0
VERTEX
  8
0
  5
5848
 10
268.367
 20
217.983
 30
0.000000
  70
    32
  0
VERTEX
  8
0
  5
5849
 10
268.365
 20
217.977
 30
0.000000
  70
    32
  0
VERTEX
  8
0
  5
584A
 10
268.362
 20
217.970
 30
0.000000
  70
    32
  0
VERTEX
  8
0
  5
584B
 10
268.360
 20
217.964
 30
0.000000
  70
    32
  0
VERTEX
  8
0
  5
584C
 10
268.358
 20
217.957
 30
0.000000
  70
    32
  0
VERTEX
  8
0
  5
584D
 10
268.355
 20
217.951
 30
0.000000
  70
    32
  0
VERTEX
  8
0
  5
584E
 10
268.353
 20
217.944
 30
0.000000
  70
    32
  0
VERTEX
  8
0
  5
584F
 10
268.350
 20
217.938
 30
0.000000
  70
    32
  0
VERTEX
  8
0
  5
5850
 10
268.348
 20
217.931
 30
0.000000
  70
    32
  0
VERTEX
  8
0
  5
5851
 10
268.346
 20
217.924
 30
0.000000
  70
    32
  0
VERTEX
  8
0
  5
5852
 10
268.344
 20
217.917
 30
0.000000
  70
    32
  0
VERTEX
  8
0
  5
5853
 10
268.341
 20
217.910
 30
0.000000
  70
    32
  0
VERTEX
  8
0
  5
5854
 10
268.339
 20
217.903
 30
0.000000
  70
    32
  0
VERTEX
  8
0
  5
5855
 10
268.337
 20
217.896
 30
0.000000
  70
    32
  0
VERTEX
  8
0
  5
5856
 10
268.334
 20
217.889
 30
0.000000
  70
    32
  0
VERTEX
  8
0
  5
5857
 10
268.332
 20
217.882
 30
0.000000
  70
    32
  0
VERTEX
  8
0
  5
5858
 10
268.330
 20
217.875
 30
0.000000
  70
    32
  0
VERTEX
  8
0
  5
5859
 10
268.327
 20
217.868
 30
0.000000
  70
    32
  0
VERTEX
  8
0
  5
585A
 10
268.325
 20
217.861
 30
0.000000
  70
    32
  0
VERTEX
  8
0
  5
585B
 10
268.323
 20
217.853
 30
0.000000
  70
    32
  0
VERTEX
  8
0
  5
585C
 10
268.321
 20
217.846
 30
0.000000
  70
    32
  0
VERTEX
  8
0
  5
585D
 10
268.318
 20
217.839
 30
0.000000
  70
    32
  0
VERTEX
  8
0
  5
585E
 10
268.316
 20
217.831
 30
0.000000
  70
    32
  0
VERTEX
  8
0
  5
585F
 10
268.314
 20
217.824
 30
0.000000
  70
    32
  0
VERTEX
  8
0
  5
5860
 10
268.312
 20
217.816
 30
0.000000
  70
    32
  0
VERTEX
  8
0
  5
5861
 10
268.309
 20
217.809
 30
0.000000
  70
    32
  0
VERTEX
  8
0
  5
5862
 10
268.307
 20
217.801
 30
0.000000
  70
    32
  0
VERTEX
  8
0
  5
5863
 10
268.305
 20
217.793
 30
0.000000
  70
    32
  0
VERTEX
  8
0
  5
5864
 10
268.303
 20
217.785
 30
0.000000
  70
    32
  0
VERTEX
  8
0
  5
5865
 10
268.301
 20
217.778
 30
0.000000
  70
    32
  0
VERTEX
  8
0
  5
5866
 10
268.298
 20
217.770
 30
0.000000
  70
    32
  0
VERTEX
  8
0
  5
5867
 10
268.296
 20
217.762
 30
0.000000
  70
    32
  0
VERTEX
  8
0
  5
5868
 10
268.294
 20
217.754
 30
0.000000
  70
    32
  0
VERTEX
  8
0
  5
5869
 10
268.292
 20
217.746
 30
0.000000
  70
    32
  0
VERTEX
  8
0
  5
586A
 10
268.290
 20
217.738
 30
0.000000
  70
    32
  0
VERTEX
  8
0
  5
586B
 10
268.288
 20
217.730
 30
0.000000
  70
    32
  0
VERTEX
  8
0
  5
586C
 10
268.286
 20
217.722
 30
0.000000
  70
    32
  0
VERTEX
  8
0
  5
586D
 10
268.283
 20
217.714
 30
0.000000
  70
    32
  0
VERTEX
  8
0
  5
586E
 10
268.281
 20
217.705
 30
0.000000
  70
    32
  0
VERTEX
  8
0
  5
586F
 10
268.279
 20
217.697
 30
0.000000
  70
    32
  0
VERTEX
  8
0
  5
5870
 10
268.277
 20
217.689
 30
0.000000
  70
    32
  0
VERTEX
  8
0
  5
5871
 10
268.275
 20
217.681
 30
0.000000
  70
    32
  0
VERTEX
  8
0
  5
5872
 10
268.273
 20
217.672
 30
0.000000
  70
    32
  0
VERTEX
  8
0
  5
5873
 10
268.271
 20
217.664
 30
0.000000
  70
    32
  0
VERTEX
  8
0
  5
5874
 10
268.269
 20
217.655
 30
0.000000
  70
    32
  0
VERTEX
  8
0
  5
5875
 10
268.267
 20
217.647
 30
0.000000
  70
    32
  0
VERTEX
  8
0
  5
5876
 10
268.265
 20
217.638
 30
0.000000
  70
    32
  0
VERTEX
  8
0
  5
5877
 10
268.263
 20
217.630
 30
0.000000
  70
    32
  0
VERTEX
  8
0
  5
5878
 10
268.261
 20
217.621
 30
0.000000
  70
    32
  0
VERTEX
  8
0
  5
5879
 10
268.259
 20
217.612
 30
0.000000
  70
    32
  0
VERTEX
  8
0
  5
587A
 10
268.257
 20
217.603
 30
0.000000
  70
    32
  0
VERTEX
  8
0
  5
587B
 10
268.255
 20
217.595
 30
0.000000
  70
    32
  0
VERTEX
  8
0
  5
587C
 10
268.253
 20
217.586
 30
0.000000
  70
    32
  0
VERTEX
  8
0
  5
587D
 10
268.251
 20
217.577
 30
0.000000
  70
    32
  0
VERTEX
  8
0
  5
587E
 10
268.249
 20
217.568
 30
0.000000
  70
    32
  0
VERTEX
  8
0
  5
587F
 10
268.247
 20
217.559
 30
0.000000
  70
    32
  0
VERTEX
  8
0
  5
5880
 10
268.245
 20
217.550
 30
0.000000
  70
    32
  0
VERTEX
  8
0
  5
5881
 10
268.243
 20
217.541
 30
0.000000
  70
    32
  0
VERTEX
  8
0
  5
5882
 10
268.241
 20
217.532
 30
0.000000
  70
    32
  0
VERTEX
  8
0
  5
5883
 10
268.239
 20
217.523
 30
0.000000
  70
    32
  0
VERTEX
  8
0
  5
5884
 10
268.237
 20
217.514
 30
0.000000
  70
    32
  0
VERTEX
  8
0
  5
5885
 10
268.235
 20
217.505
 30
0.000000
  70
    32
  0
VERTEX
  8
0
  5
5886
 10
268.233
 20
217.495
 30
0.000000
  70
    32
  0
VERTEX
  8
0
  5
5887
 10
268.231
 20
217.486
 30
0.000000
  70
    32
  0
VERTEX
  8
0
  5
5888
 10
268.229
 20
217.477
 30
0.000000
  70
    32
  0
VERTEX
  8
0
  5
5889
 10
268.228
 20
217.468
 30
0.000000
  70
    32
  0
VERTEX
  8
0
  5
588A
 10
268.226
 20
217.458
 30
0.000000
  70
    32
  0
VERTEX
  8
0
  5
588B
 10
268.224
 20
217.449
 30
0.000000
  70
    32
  0
VERTEX
  8
0
  5
588C
 10
268.222
 20
217.439
 30
0.000000
  70
    32
  0
VERTEX
  8
0
  5
588D
 10
268.220
 20
217.430
 30
0.000000
  70
    32
  0
VERTEX
  8
0
  5
588E
 10
268.218
 20
217.420
 30
0.000000
  70
    32
  0
VERTEX
  8
0
  5
588F
 10
268.217
 20
217.411
 30
0.000000
  70
    32
  0
VERTEX
  8
0
  5
5890
 10
268.215
 20
217.401
 30
0.000000
  70
    32
  0
VERTEX
  8
0
  5
5891
 10
268.213
 20
217.391
 30
0.000000
  70
    32
  0
VERTEX
  8
0
  5
5892
 10
268.211
 20
217.382
 30
0.000000
  70
    32
  0
VERTEX
  8
0
  5
5893
 10
268.210
 20
217.372
 30
0.000000
  70
    32
  0
VERTEX
  8
0
  5
5894
 10
268.208
 20
217.362
 30
0.000000
  70
    32
  0
VERTEX
  8
0
  5
5895
 10
268.206
 20
217.353
 30
0.000000
  70
    32
  0
VERTEX
  8
0
  5
5896
 10
268.204
 20
217.343
 30
0.000000
  70
    32
  0
VERTEX
  8
0
  5
5897
 10
268.203
 20
217.333
 30
0.000000
  70
    32
  0
VERTEX
  8
0
  5
5898
 10
268.201
 20
217.323
 30
0.000000
  70
    32
  0
VERTEX
  8
0
  5
5899
 10
268.199
 20
217.313
 30
0.000000
  70
    32
  0
VERTEX
  8
0
  5
589A
 10
268.198
 20
217.303
 30
0.000000
  70
    32
  0
VERTEX
  8
0
  5
589B
 10
268.196
 20
217.293
 30
0.000000
  70
    32
  0
VERTEX
  8
0
  5
589C
 10
268.194
 20
217.283
 30
0.000000
  70
    32
  0
VERTEX
  8
0
  5
589D
 10
268.193
 20
217.273
 30
0.000000
  70
    32
  0
VERTEX
  8
0
  5
589E
 10
268.191
 20
217.263
 30
0.000000
  70
    32
  0
VERTEX
  8
0
  5
589F
 10
268.190
 20
217.253
 30
0.000000
  70
    32
  0
VERTEX
  8
0
  5
58A0
 10
268.188
 20
217.243
 30
0.000000
  70
    32
  0
VERTEX
  8
0
  5
58A1
 10
268.187
 20
217.233
 30
0.000000
  70
    32
  0
VERTEX
  8
0
  5
58A2
 10
268.185
 20
217.222
 30
0.000000
  70
    32
  0
VERTEX
  8
0
  5
58A3
 10
268.183
 20
217.212
 30
0.000000
  70
    32
  0
VERTEX
  8
0
  5
58A4
 10
268.182
 20
217.202
 30
0.000000
  70
    32
  0
VERTEX
  8
0
  5
58A5
 10
268.180
 20
217.191
 30
0.000000
  70
    32
  0
VERTEX
  8
0
  5
58A6
 10
268.179
 20
217.181
 30
0.000000
  70
    32
  0
VERTEX
  8
0
  5
58A7
 10
268.177
 20
217.171
 30
0.000000
  70
    32
  0
VERTEX
  8
0
  5
58A8
 10
268.176
 20
217.160
 30
0.000000
  70
    32
  0
VERTEX
  8
0
  5
58A9
 10
268.174
 20
217.150
 30
0.000000
  70
    32
  0
VERTEX
  8
0
  5
58AA
 10
268.173
 20
217.139
 30
0.000000
  70
    32
  0
VERTEX
  8
0
  5
58AB
 10
268.172
 20
217.129
 30
0.000000
  70
    32
  0
VERTEX
  8
0
  5
58AC
 10
268.170
 20
217.118
 30
0.000000
  70
    32
  0
VERTEX
  8
0
  5
58AD
 10
268.169
 20
217.108
 30
0.000000
  70
    32
  0
VERTEX
  8
0
  5
58AE
 10
268.167
 20
217.097
 30
0.000000
  70
    32
  0
VERTEX
  8
0
  5
58AF
 10
268.166
 20
217.087
 30
0.000000
  70
    32
  0
VERTEX
  8
0
  5
58B0
 10
268.165
 20
217.076
 30
0.000000
  70
    32
  0
VERTEX
  8
0
  5
58B1
 10
268.163
 20
217.065
 30
0.000000
  70
    32
  0
VERTEX
  8
0
  5
58B2
 10
268.162
 20
217.055
 30
0.000000
  70
    32
  0
VERTEX
  8
0
  5
58B3
 10
268.161
 20
217.044
 30
0.000000
  70
    32
  0
VERTEX
  8
0
  5
58B4
 10
268.159
 20
217.033
 30
0.000000
  70
    32
  0
VERTEX
  8
0
  5
58B5
 10
268.158
 20
217.023
 30
0.000000
  70
    32
  0
VERTEX
  8
0
  5
58B6
 10
268.157
 20
217.012
 30
0.000000
  70
    32
  0
VERTEX
  8
0
  5
58B7
 10
268.155
 20
217.001
 30
0.000000
  70
    32
  0
VERTEX
  8
0
  5
58B8
 10
268.154
 20
216.990
 30
0.000000
  70
    32
  0
VERTEX
  8
0
  5
58B9
 10
268.153
 20
216.979
 30
0.000000
  70
    32
  0
VERTEX
  8
0
  5
58BA
 10
268.152
 20
216.968
 30
0.000000
  70
    32
  0
VERTEX
  8
0
  5
58BB
 10
268.151
 20
216.957
 30
0.000000
  70
    32
  0
VERTEX
  8
0
  5
58BC
 10
268.149
 20
216.946
 30
0.000000
  70
    32
  0
VERTEX
  8
0
  5
58BD
 10
268.148
 20
216.936
 30
0.000000
  70
    32
  0
VERTEX
  8
0
  5
58BE
 10
268.147
 20
216.925
 30
0.000000
  70
    32
  0
VERTEX
  8
0
  5
58BF
 10
268.146
 20
216.914
 30
0.000000
  70
    32
  0
VERTEX
  8
0
  5
58C0
 10
268.145
 20
216.902
 30
0.000000
  70
    32
  0
VERTEX
  8
0
  5
58C1
 10
268.143
 20
216.891
 30
0.000000
  70
    32
  0
VERTEX
  8
0
  5
58C2
 10
268.142
 20
216.880
 30
0.000000
  70
    32
  0
VERTEX
  8
0
  5
58C3
 10
268.141
 20
216.869
 30
0.000000
  70
    32
  0
VERTEX
  8
0
  5
58C4
 10
268.140
 20
216.858
 30
0.000000
  70
    32
  0
VERTEX
  8
0
  5
58C5
 10
268.139
 20
216.847
 30
0.000000
  70
    32
  0
VERTEX
  8
0
  5
58C6
 10
268.138
 20
216.836
 30
0.000000
  70
    32
  0
VERTEX
  8
0
  5
58C7
 10
268.137
 20
216.825
 30
0.000000
  70
    32
  0
VERTEX
  8
0
  5
58C8
 10
268.136
 20
216.813
 30
0.000000
  70
    32
  0
VERTEX
  8
0
  5
58C9
 10
268.135
 20
216.802
 30
0.000000
  70
    32
  0
VERTEX
  8
0
  5
58CA
 10
268.134
 20
216.791
 30
0.000000
  70
    32
  0
VERTEX
  8
0
  5
58CB
 10
268.133
 20
216.780
 30
0.000000
  70
    32
  0
VERTEX
  8
0
  5
58CC
 10
268.132
 20
216.768
 30
0.000000
  70
    32
  0
VERTEX
  8
0
  5
58CD
 10
268.131
 20
216.757
 30
0.000000
  70
    32
  0
VERTEX
  8
0
  5
58CE
 10
268.130
 20
216.746
 30
0.000000
  70
    32
  0
VERTEX
  8
0
  5
58CF
 10
268.129
 20
216.734
 30
0.000000
  70
    32
  0
VERTEX
  8
0
  5
58D0
 10
268.128
 20
216.723
 30
0.000000
  70
    32
  0
VERTEX
  8
0
  5
58D1
 10
268.127
 20
216.712
 30
0.000000
  70
    32
  0
VERTEX
  8
0
  5
58D2
 10
268.126
 20
216.700
 30
0.000000
  70
    32
  0
VERTEX
  8
0
  5
58D3
 10
268.125
 20
216.689
 30
0.000000
  70
    32
  0
VERTEX
  8
0
  5
58D4
 10
268.125
 20
216.677
 30
0.000000
  70
    32
  0
VERTEX
  8
0
  5
58D5
 10
268.124
 20
216.666
 30
0.000000
  70
    32
  0
VERTEX
  8
0
  5
58D6
 10
268.123
 20
216.654
 30
0.000000
  70
    32
  0
VERTEX
  8
0
  5
58D7
 10
268.122
 20
216.643
 30
0.000000
  70
    32
  0
VERTEX
  8
0
  5
58D8
 10
268.121
 20
216.631
 30
0.000000
  70
    32
  0
VERTEX
  8
0
  5
58D9
 10
268.120
 20
216.620
 30
0.000000
  70
    32
  0
VERTEX
  8
0
  5
58DA
 10
268.120
 20
216.608
 30
0.000000
  70
    32
  0
VERTEX
  8
0
  5
58DB
 10
268.119
 20
216.597
 30
0.000000
  70
    32
  0
VERTEX
  8
0
  5
58DC
 10
268.118
 20
216.585
 30
0.000000
  70
    32
  0
VERTEX
  8
0
  5
58DD
 10
268.117
 20
216.574
 30
0.000000
  70
    32
  0
VERTEX
  8
0
  5
58DE
 10
268.117
 20
216.562
 30
0.000000
  70
    32
  0
VERTEX
  8
0
  5
58DF
 10
268.116
 20
216.550
 30
0.000000
  70
    32
  0
VERTEX
  8
0
  5
58E0
 10
268.115
 20
216.539
 30
0.000000
  70
    32
  0
VERTEX
  8
0
  5
58E1
 10
268.115
 20
216.527
 30
0.000000
  70
    32
  0
VERTEX
  8
0
  5
58E2
 10
268.114
 20
216.515
 30
0.000000
  70
    32
  0
VERTEX
  8
0
  5
58E3
 10
268.113
 20
216.504
 30
0.000000
  70
    32
  0
VERTEX
  8
0
  5
58E4
 10
268.113
 20
216.492
 30
0.000000
  70
    32
  0
VERTEX
  8
0
  5
58E5
 10
268.112
 20
216.480
 30
0.000000
  70
    32
  0
VERTEX
  8
0
  5
58E6
 10
268.111
 20
216.469
 30
0.000000
  70
    32
  0
VERTEX
  8
0
  5
58E7
 10
268.111
 20
216.457
 30
0.000000
  70
    32
  0
VERTEX
  8
0
  5
58E8
 10
268.110
 20
216.445
 30
0.000000
  70
    32
  0
VERTEX
  8
0
  5
58E9
 10
268.110
 20
216.434
 30
0.000000
  70
    32
  0
VERTEX
  8
0
  5
58EA
 10
268.109
 20
216.422
 30
0.000000
  70
    32
  0
VERTEX
  8
0
  5
58EB
 10
268.109
 20
216.410
 30
0.000000
  70
    32
  0
VERTEX
  8
0
  5
58EC
 10
268.108
 20
216.398
 30
0.000000
  70
    32
  0
VERTEX
  8
0
  5
58ED
 10
268.108
 20
216.386
 30
0.000000
  70
    32
  0
VERTEX
  8
0
  5
58EE
 10
268.107
 20
216.375
 30
0.000000
  70
    32
  0
VERTEX
  8
0
  5
58EF
 10
268.107
 20
216.363
 30
0.000000
  70
    32
  0
VERTEX
  8
0
  5
58F0
 10
268.106
 20
216.351
 30
0.000000
  70
    32
  0
VERTEX
  8
0
  5
58F1
 10
268.106
 20
216.339
 30
0.000000
  70
    32
  0
VERTEX
  8
0
  5
58F2
 10
268.105
 20
216.327
 30
0.000000
  70
    32
  0
VERTEX
  8
0
  5
58F3
 10
268.105
 20
216.316
 30
0.000000
  70
    32
  0
VERTEX
  8
0
  5
58F4
 10
268.104
 20
216.304
 30
0.000000
  70
    32
  0
VERTEX
  8
0
  5
58F5
 10
268.104
 20
216.292
 30
0.000000
  70
    32
  0
VERTEX
  8
0
  5
58F6
 10
268.104
 20
216.280
 30
0.000000
  70
    32
  0
VERTEX
  8
0
  5
58F7
 10
268.103
 20
216.268
 30
0.000000
  70
    32
  0
VERTEX
  8
0
  5
58F8
 10
268.103
 20
216.256
 30
0.000000
  70
    32
  0
VERTEX
  8
0
  5
58F9
 10
268.103
 20
216.244
 30
0.000000
  70
    32
  0
VERTEX
  8
0
  5
58FA
 10
268.102
 20
216.233
 30
0.000000
  70
    32
  0
VERTEX
  8
0
  5
58FB
 10
268.102
 20
216.221
 30
0.000000
  70
    32
  0
VERTEX
  8
0
  5
58FC
 10
268.102
 20
216.209
 30
0.000000
  70
    32
  0
VERTEX
  8
0
  5
58FD
 10
268.102
 20
216.197
 30
0.000000
  70
    32
  0
VERTEX
  8
0
  5
58FE
 10
268.101
 20
216.185
 30
0.000000
  70
    32
  0
VERTEX
  8
0
  5
58FF
 10
268.101
 20
216.173
 30
0.000000
  70
    32
  0
VERTEX
  8
0
  5
5900
 10
268.101
 20
216.161
 30
0.000000
  70
    32
  0
VERTEX
  8
0
  5
5901
 10
268.101
 20
216.149
 30
0.000000
  70
    32
  0
VERTEX
  8
0
  5
5902
 10
268.101
 20
216.137
 30
0.000000
  70
    32
  0
VERTEX
  8
0
  5
5903
 10
268.100
 20
216.125
 30
0.000000
  70
    32
  0
VERTEX
  8
0
  5
5904
 10
268.100
 20
216.113
 30
0.000000
  70
    32
  0
VERTEX
  8
0
  5
5905
 10
268.100
 20
216.102
 30
0.000000
  70
    32
  0
VERTEX
  8
0
  5
5906
 10
268.100
 20
216.090
 30
0.000000
  70
    32
  0
VERTEX
  8
0
  5
5907
 10
268.100
 20
216.078
 30
0.000000
  70
    32
  0
VERTEX
  8
0
  5
5908
 10
268.100
 20
216.066
 30
0.000000
  70
    32
  0
VERTEX
  8
0
  5
5909
 10
268.100
 20
216.054
 30
0.000000
  70
    32
  0
VERTEX
  8
0
  5
590A
 10
268.100
 20
216.042
 30
0.000000
  70
    32
  0
VERTEX
  8
0
  5
590B
 10
268.100
 20
216.030
 30
0.000000
  70
    32
  0
VERTEX
  8
0
  5
590C
 10
268.100
 20
216.018
 30
0.000000
  70
    32
  0
VERTEX
  8
0
  5
590D
 10
268.100
 20
216.006
 30
0.000000
  70
    32
  0
VERTEX
  8
0
  5
590E
 10
268.100
 20
215.994
 30
0.000000
  70
    32
  0
VERTEX
  8
0
  5
590F
 10
268.100
 20
215.982
 30
0.000000
  70
    32
  0
VERTEX
  8
0
  5
5910
 10
268.100
 20
215.970
 30
0.000000
  70
    32
  0
VERTEX
  8
0
  5
5911
 10
268.100
 20
215.958
 30
0.000000
  70
    32
  0
VERTEX
  8
0
  5
5912
 10
268.100
 20
215.946
 30
0.000000
  70
    32
  0
VERTEX
  8
0
  5
5913
 10
268.100
 20
215.934
 30
0.000000
  70
    32
  0
VERTEX
  8
0
  5
5914
 10
268.100
 20
215.922
 30
0.000000
  70
    32
  0
VERTEX
  8
0
  5
5915
 10
268.100
 20
215.910
 30
0.000000
  70
    32
  0
VERTEX
  8
0
  5
5916
 10
268.100
 20
215.899
 30
0.000000
  70
    32
  0
VERTEX
  8
0
  5
5917
 10
268.100
 20
215.887
 30
0.000000
  70
    32
  0
VERTEX
  8
0
  5
5918
 10
268.100
 20
215.875
 30
0.000000
  70
    32
  0
VERTEX
  8
0
  5
5919
 10
268.101
 20
215.863
 30
0.000000
  70
    32
  0
VERTEX
  8
0
  5
591A
 10
268.101
 20
215.851
 30
0.000000
  70
    32
  0
VERTEX
  8
0
  5
591B
 10
268.101
 20
215.839
 30
0.000000
  70
    32
  0
VERTEX
  8
0
  5
591C
 10
268.101
 20
215.827
 30
0.000000
  70
    32
  0
VERTEX
  8
0
  5
591D
 10
268.102
 20
215.815
 30
0.000000
  70
    32
  0
VERTEX
  8
0
  5
591E
 10
268.102
 20
215.803
 30
0.000000
  70
    32
  0
VERTEX
  8
0
  5
591F
 10
268.102
 20
215.791
 30
0.000000
  70
    32
  0
VERTEX
  8
0
  5
5920
 10
268.102
 20
215.779
 30
0.000000
  70
    32
  0
VERTEX
  8
0
  5
5921
 10
268.103
 20
215.768
 30
0.000000
  70
    32
  0
VERTEX
  8
0
  5
5922
 10
268.103
 20
215.756
 30
0.000000
  70
    32
  0
VERTEX
  8
0
  5
5923
 10
268.103
 20
215.744
 30
0.000000
  70
    32
  0
VERTEX
  8
0
  5
5924
 10
268.104
 20
215.732
 30
0.000000
  70
    32
  0
VERTEX
  8
0
  5
5925
 10
268.104
 20
215.720
 30
0.000000
  70
    32
  0
VERTEX
  8
0
  5
5926
 10
268.104
 20
215.708
 30
0.000000
  70
    32
  0
VERTEX
  8
0
  5
5927
 10
268.105
 20
215.696
 30
0.000000
  70
    32
  0
VERTEX
  8
0
  5
5928
 10
268.105
 20
215.685
 30
0.000000
  70
    32
  0
VERTEX
  8
0
  5
5929
 10
268.106
 20
215.673
 30
0.000000
  70
    32
  0
VERTEX
  8
0
  5
592A
 10
268.106
 20
215.661
 30
0.000000
  70
    32
  0
VERTEX
  8
0
  5
592B
 10
268.106
 20
215.649
 30
0.000000
  70
    32
  0
VERTEX
  8
0
  5
592C
 10
268.107
 20
215.637
 30
0.000000
  70
    32
  0
VERTEX
  8
0
  5
592D
 10
268.107
 20
215.625
 30
0.000000
  70
    32
  0
VERTEX
  8
0
  5
592E
 10
268.108
 20
215.614
 30
0.000000
  70
    32
  0
VERTEX
  8
0
  5
592F
 10
268.108
 20
215.602
 30
0.000000
  70
    32
  0
VERTEX
  8
0
  5
5930
 10
268.109
 20
215.590
 30
0.000000
  70
    32
  0
VERTEX
  8
0
  5
5931
 10
268.109
 20
215.578
 30
0.000000
  70
    32
  0
VERTEX
  8
0
  5
5932
 10
268.110
 20
215.567
 30
0.000000
  70
    32
  0
VERTEX
  8
0
  5
5933
 10
268.111
 20
215.555
 30
0.000000
  70
    32
  0
VERTEX
  8
0
  5
5934
 10
268.111
 20
215.543
 30
0.000000
  70
    32
  0
VERTEX
  8
0
  5
5935
 10
268.112
 20
215.531
 30
0.000000
  70
    32
  0
VERTEX
  8
0
  5
5936
 10
268.112
 20
215.520
 30
0.000000
  70
    32
  0
VERTEX
  8
0
  5
5937
 10
268.113
 20
215.508
 30
0.000000
  70
    32
  0
VERTEX
  8
0
  5
5938
 10
268.114
 20
215.496
 30
0.000000
  70
    32
  0
VERTEX
  8
0
  5
5939
 10
268.114
 20
215.485
 30
0.000000
  70
    32
  0
VERTEX
  8
0
  5
593A
 10
268.115
 20
215.473
 30
0.000000
  70
    32
  0
VERTEX
  8
0
  5
593B
 10
268.116
 20
215.461
 30
0.000000
  70
    32
  0
VERTEX
  8
0
  5
593C
 10
268.116
 20
215.450
 30
0.000000
  70
    32
  0
VERTEX
  8
0
  5
593D
 10
268.117
 20
215.438
 30
0.000000
  70
    32
  0
VERTEX
  8
0
  5
593E
 10
268.118
 20
215.427
 30
0.000000
  70
    32
  0
VERTEX
  8
0
  5
593F
 10
268.118
 20
215.415
 30
0.000000
  70
    32
  0
VERTEX
  8
0
  5
5940
 10
268.119
 20
215.403
 30
0.000000
  70
    32
  0
VERTEX
  8
0
  5
5941
 10
268.120
 20
215.392
 30
0.000000
  70
    32
  0
VERTEX
  8
0
  5
5942
 10
268.121
 20
215.380
 30
0.000000
  70
    32
  0
VERTEX
  8
0
  5
5943
 10
268.121
 20
215.369
 30
0.000000
  70
    32
  0
VERTEX
  8
0
  5
5944
 10
268.122
 20
215.357
 30
0.000000
  70
    32
  0
VERTEX
  8
0
  5
5945
 10
268.123
 20
215.346
 30
0.000000
  70
    32
  0
VERTEX
  8
0
  5
5946
 10
268.124
 20
215.334
 30
0.000000
  70
    32
  0
VERTEX
  8
0
  5
5947
 10
268.125
 20
215.323
 30
0.000000
  70
    32
  0
VERTEX
  8
0
  5
5948
 10
268.126
 20
215.311
 30
0.000000
  70
    32
  0
VERTEX
  8
0
  5
5949
 10
268.127
 20
215.300
 30
0.000000
  70
    32
  0
VERTEX
  8
0
  5
594A
 10
268.127
 20
215.289
 30
0.000000
  70
    32
  0
VERTEX
  8
0
  5
594B
 10
268.128
 20
215.277
 30
0.000000
  70
    32
  0
VERTEX
  8
0
  5
594C
 10
268.129
 20
215.266
 30
0.000000
  70
    32
  0
VERTEX
  8
0
  5
594D
 10
268.130
 20
215.254
 30
0.000000
  70
    32
  0
VERTEX
  8
0
  5
594E
 10
268.131
 20
215.243
 30
0.000000
  70
    32
  0
VERTEX
  8
0
  5
594F
 10
268.132
 20
215.232
 30
0.000000
  70
    32
  0
VERTEX
  8
0
  5
5950
 10
268.133
 20
215.221
 30
0.000000
  70
    32
  0
VERTEX
  8
0
  5
5951
 10
268.134
 20
215.209
 30
0.000000
  70
    32
  0
VERTEX
  8
0
  5
5952
 10
268.135
 20
215.198
 30
0.000000
  70
    32
  0
VERTEX
  8
0
  5
5953
 10
268.136
 20
215.187
 30
0.000000
  70
    32
  0
VERTEX
  8
0
  5
5954
 10
268.137
 20
215.176
 30
0.000000
  70
    32
  0
VERTEX
  8
0
  5
5955
 10
268.138
 20
215.164
 30
0.000000
  70
    32
  0
VERTEX
  8
0
  5
5956
 10
268.139
 20
215.153
 30
0.000000
  70
    32
  0
VERTEX
  8
0
  5
5957
 10
268.140
 20
215.142
 30
0.000000
  70
    32
  0
VERTEX
  8
0
  5
5958
 10
268.141
 20
215.131
 30
0.000000
  70
    32
  0
VERTEX
  8
0
  5
5959
 10
268.143
 20
215.120
 30
0.000000
  70
    32
  0
VERTEX
  8
0
  5
595A
 10
268.144
 20
215.109
 30
0.000000
  70
    32
  0
VERTEX
  8
0
  5
595B
 10
268.145
 20
215.098
 30
0.000000
  70
    32
  0
VERTEX
  8
0
  5
595C
 10
268.146
 20
215.087
 30
0.000000
  70
    32
  0
VERTEX
  8
0
  5
595D
 10
268.147
 20
215.076
 30
0.000000
  70
    32
  0
VERTEX
  8
0
  5
595E
 10
268.148
 20
215.065
 30
0.000000
  70
    32
  0
VERTEX
  8
0
  5
595F
 10
268.149
 20
215.054
 30
0.000000
  70
    32
  0
VERTEX
  8
0
  5
5960
 10
268.151
 20
215.043
 30
0.000000
  70
    32
  0
VERTEX
  8
0
  5
5961
 10
268.152
 20
215.032
 30
0.000000
  70
    32
  0
VERTEX
  8
0
  5
5962
 10
268.153
 20
215.021
 30
0.000000
  70
    32
  0
VERTEX
  8
0
  5
5963
 10
268.154
 20
215.010
 30
0.000000
  70
    32
  0
VERTEX
  8
0
  5
5964
 10
268.156
 20
214.999
 30
0.000000
  70
    32
  0
VERTEX
  8
0
  5
5965
 10
268.157
 20
214.988
 30
0.000000
  70
    32
  0
VERTEX
  8
0
  5
5966
 10
268.158
 20
214.978
 30
0.000000
  70
    32
  0
VERTEX
  8
0
  5
5967
 10
268.159
 20
214.967
 30
0.000000
  70
    32
  0
VERTEX
  8
0
  5
5968
 10
268.161
 20
214.956
 30
0.000000
  70
    32
  0
VERTEX
  8
0
  5
5969
 10
268.162
 20
214.945
 30
0.000000
  70
    32
  0
VERTEX
  8
0
  5
596A
 10
268.163
 20
214.935
 30
0.000000
  70
    32
  0
VERTEX
  8
0
  5
596B
 10
268.165
 20
214.924
 30
0.000000
  70
    32
  0
VERTEX
  8
0
  5
596C
 10
268.166
 20
214.913
 30
0.000000
  70
    32
  0
VERTEX
  8
0
  5
596D
 10
268.167
 20
214.903
 30
0.000000
  70
    32
  0
VERTEX
  8
0
  5
596E
 10
268.169
 20
214.892
 30
0.000000
  70
    32
  0
VERTEX
  8
0
  5
596F
 10
268.170
 20
214.882
 30
0.000000
  70
    32
  0
VERTEX
  8
0
  5
5970
 10
268.172
 20
214.871
 30
0.000000
  70
    32
  0
VERTEX
  8
0
  5
5971
 10
268.173
 20
214.861
 30
0.000000
  70
    32
  0
VERTEX
  8
0
  5
5972
 10
268.175
 20
214.850
 30
0.000000
  70
    32
  0
VERTEX
  8
0
  5
5973
 10
268.176
 20
214.840
 30
0.000000
  70
    32
  0
VERTEX
  8
0
  5
5974
 10
268.177
 20
214.829
 30
0.000000
  70
    32
  0
VERTEX
  8
0
  5
5975
 10
268.179
 20
214.819
 30
0.000000
  70
    32
  0
VERTEX
  8
0
  5
5976
 10
268.180
 20
214.809
 30
0.000000
  70
    32
  0
VERTEX
  8
0
  5
5977
 10
268.182
 20
214.798
 30
0.000000
  70
    32
  0
VERTEX
  8
0
  5
5978
 10
268.183
 20
214.788
 30
0.000000
  70
    32
  0
VERTEX
  8
0
  5
5979
 10
268.185
 20
214.778
 30
0.000000
  70
    32
  0
VERTEX
  8
0
  5
597A
 10
268.187
 20
214.767
 30
0.000000
  70
    32
  0
VERTEX
  8
0
  5
597B
 10
268.188
 20
214.757
 30
0.000000
  70
    32
  0
VERTEX
  8
0
  5
597C
 10
268.190
 20
214.747
 30
0.000000
  70
    32
  0
VERTEX
  8
0
  5
597D
 10
268.191
 20
214.737
 30
0.000000
  70
    32
  0
VERTEX
  8
0
  5
597E
 10
268.193
 20
214.727
 30
0.000000
  70
    32
  0
VERTEX
  8
0
  5
597F
 10
268.194
 20
214.717
 30
0.000000
  70
    32
  0
VERTEX
  8
0
  5
5980
 10
268.196
 20
214.707
 30
0.000000
  70
    32
  0
VERTEX
  8
0
  5
5981
 10
268.198
 20
214.697
 30
0.000000
  70
    32
  0
VERTEX
  8
0
  5
5982
 10
268.199
 20
214.687
 30
0.000000
  70
    32
  0
VERTEX
  8
0
  5
5983
 10
268.201
 20
214.677
 30
0.000000
  70
    32
  0
VERTEX
  8
0
  5
5984
 10
268.203
 20
214.667
 30
0.000000
  70
    32
  0
VERTEX
  8
0
  5
5985
 10
268.204
 20
214.657
 30
0.000000
  70
    32
  0
VERTEX
  8
0
  5
5986
 10
268.206
 20
214.647
 30
0.000000
  70
    32
  0
VERTEX
  8
0
  5
5987
 10
268.208
 20
214.638
 30
0.000000
  70
    32
  0
VERTEX
  8
0
  5
5988
 10
268.210
 20
214.628
 30
0.000000
  70
    32
  0
VERTEX
  8
0
  5
5989
 10
268.211
 20
214.618
 30
0.000000
  70
    32
  0
VERTEX
  8
0
  5
598A
 10
268.213
 20
214.609
 30
0.000000
  70
    32
  0
VERTEX
  8
0
  5
598B
 10
268.215
 20
214.599
 30
0.000000
  70
    32
  0
VERTEX
  8
0
  5
598C
 10
268.217
 20
214.589
 30
0.000000
  70
    32
  0
VERTEX
  8
0
  5
598D
 10
268.218
 20
214.580
 30
0.000000
  70
    32
  0
VERTEX
  8
0
  5
598E
 10
268.220
 20
214.570
 30
0.000000
  70
    32
  0
VERTEX
  8
0
  5
598F
 10
268.222
 20
214.561
 30
0.000000
  70
    32
  0
VERTEX
  8
0
  5
5990
 10
268.224
 20
214.551
 30
0.000000
  70
    32
  0
VERTEX
  8
0
  5
5991
 10
268.226
 20
214.542
 30
0.000000
  70
    32
  0
VERTEX
  8
0
  5
5992
 10
268.227
 20
214.532
 30
0.000000
  70
    32
  0
VERTEX
  8
0
  5
5993
 10
268.229
 20
214.523
 30
0.000000
  70
    32
  0
VERTEX
  8
0
  5
5994
 10
268.231
 20
214.514
 30
0.000000
  70
    32
  0
VERTEX
  8
0
  5
5995
 10
268.233
 20
214.505
 30
0.000000
  70
    32
  0
VERTEX
  8
0
  5
5996
 10
268.235
 20
214.495
 30
0.000000
  70
    32
  0
VERTEX
  8
0
  5
5997
 10
268.237
 20
214.486
 30
0.000000
  70
    32
  0
VERTEX
  8
0
  5
5998
 10
268.239
 20
214.477
 30
0.000000
  70
    32
  0
VERTEX
  8
0
  5
5999
 10
268.241
 20
214.468
 30
0.000000
  70
    32
  0
VERTEX
  8
0
  5
599A
 10
268.243
 20
214.459
 30
0.000000
  70
    32
  0
VERTEX
  8
0
  5
599B
 10
268.245
 20
214.450
 30
0.000000
  70
    32
  0
VERTEX
  8
0
  5
599C
 10
268.247
 20
214.441
 30
0.000000
  70
    32
  0
VERTEX
  8
0
  5
599D
 10
268.248
 20
214.432
 30
0.000000
  70
    32
  0
VERTEX
  8
0
  5
599E
 10
268.250
 20
214.423
 30
0.000000
  70
    32
  0
VERTEX
  8
0
  5
599F
 10
268.252
 20
214.414
 30
0.000000
  70
    32
  0
VERTEX
  8
0
  5
59A0
 10
268.254
 20
214.405
 30
0.000000
  70
    32
  0
VERTEX
  8
0
  5
59A1
 10
268.256
 20
214.396
 30
0.000000
  70
    32
  0
VERTEX
  8
0
  5
59A2
 10
268.258
 20
214.388
 30
0.000000
  70
    32
  0
VERTEX
  8
0
  5
59A3
 10
268.260
 20
214.379
 30
0.000000
  70
    32
  0
VERTEX
  8
0
  5
59A4
 10
268.263
 20
214.370
 30
0.000000
  70
    32
  0
VERTEX
  8
0
  5
59A5
 10
268.265
 20
214.362
 30
0.000000
  70
    32
  0
VERTEX
  8
0
  5
59A6
 10
268.267
 20
214.353
 30
0.000000
  70
    32
  0
VERTEX
  8
0
  5
59A7
 10
268.269
 20
214.345
 30
0.000000
  70
    32
  0
VERTEX
  8
0
  5
59A8
 10
268.271
 20
214.336
 30
0.000000
  70
    32
  0
VERTEX
  8
0
  5
59A9
 10
268.273
 20
214.328
 30
0.000000
  70
    32
  0
VERTEX
  8
0
  5
59AA
 10
268.275
 20
214.319
 30
0.000000
  70
    32
  0
VERTEX
  8
0
  5
59AB
 10
268.277
 20
214.311
 30
0.000000
  70
    32
  0
VERTEX
  8
0
  5
59AC
 10
268.279
 20
214.303
 30
0.000000
  70
    32
  0
VERTEX
  8
0
  5
59AD
 10
268.281
 20
214.295
 30
0.000000
  70
    32
  0
VERTEX
  8
0
  5
59AE
 10
268.283
 20
214.286
 30
0.000000
  70
    32
  0
VERTEX
  8
0
  5
59AF
 10
268.285
 20
214.278
 30
0.000000
  70
    32
  0
VERTEX
  8
0
  5
59B0
 10
268.288
 20
214.270
 30
0.000000
  70
    32
  0
VERTEX
  8
0
  5
59B1
 10
268.290
 20
214.262
 30
0.000000
  70
    32
  0
VERTEX
  8
0
  5
59B2
 10
268.292
 20
214.254
 30
0.000000
  70
    32
  0
VERTEX
  8
0
  5
59B3
 10
268.294
 20
214.246
 30
0.000000
  70
    32
  0
VERTEX
  8
0
  5
59B4
 10
268.296
 20
214.238
 30
0.000000
  70
    32
  0
VERTEX
  8
0
  5
59B5
 10
268.298
 20
214.230
 30
0.000000
  70
    32
  0
VERTEX
  8
0
  5
59B6
 10
268.301
 20
214.222
 30
0.000000
  70
    32
  0
VERTEX
  8
0
  5
59B7
 10
268.303
 20
214.215
 30
0.000000
  70
    32
  0
VERTEX
  8
0
  5
59B8
 10
268.305
 20
214.207
 30
0.000000
  70
    32
  0
VERTEX
  8
0
  5
59B9
 10
268.307
 20
214.199
 30
0.000000
  70
    32
  0
VERTEX
  8
0
  5
59BA
 10
268.309
 20
214.191
 30
0.000000
  70
    32
  0
VERTEX
  8
0
  5
59BB
 10
268.312
 20
214.184
 30
0.000000
  70
    32
  0
VERTEX
  8
0
  5
59BC
 10
268.314
 20
214.176
 30
0.000000
  70
    32
  0
VERTEX
  8
0
  5
59BD
 10
268.316
 20
214.169
 30
0.000000
  70
    32
  0
VERTEX
  8
0
  5
59BE
 10
268.318
 20
214.161
 30
0.000000
  70
    32
  0
VERTEX
  8
0
  5
59BF
 10
268.321
 20
214.154
 30
0.000000
  70
    32
  0
VERTEX
  8
0
  5
59C0
 10
268.323
 20
214.147
 30
0.000000
  70
    32
  0
VERTEX
  8
0
  5
59C1
 10
268.325
 20
214.139
 30
0.000000
  70
    32
  0
VERTEX
  8
0
  5
59C2
 10
268.327
 20
214.132
 30
0.000000
  70
    32
  0
VERTEX
  8
0
  5
59C3
 10
268.330
 20
214.125
 30
0.000000
  70
    32
  0
VERTEX
  8
0
  5
59C4
 10
268.332
 20
214.118
 30
0.000000
  70
    32
  0
VERTEX
  8
0
  5
59C5
 10
268.334
 20
214.111
 30
0.000000
  70
    32
  0
VERTEX
  8
0
  5
59C6
 10
268.337
 20
214.104
 30
0.000000
  70
    32
  0
VERTEX
  8
0
  5
59C7
 10
268.339
 20
214.097
 30
0.000000
  70
    32
  0
VERTEX
  8
0
  5
59C8
 10
268.341
 20
214.090
 30
0.000000
  70
    32
  0
VERTEX
  8
0
  5
59C9
 10
268.344
 20
214.083
 30
0.000000
  70
    32
  0
VERTEX
  8
0
  5
59CA
 10
268.346
 20
214.076
 30
0.000000
  70
    32
  0
VERTEX
  8
0
  5
59CB
 10
268.348
 20
214.069
 30
0.000000
  70
    32
  0
VERTEX
  8
0
  5
59CC
 10
268.350
 20
214.062
 30
0.000000
  70
    32
  0
VERTEX
  8
0
  5
59CD
 10
268.353
 20
214.056
 30
0.000000
  70
    32
  0
VERTEX
  8
0
  5
59CE
 10
268.355
 20
214.049
 30
0.000000
  70
    32
  0
VERTEX
  8
0
  5
59CF
 10
268.358
 20
214.043
 30
0.000000
  70
    32
  0
VERTEX
  8
0
  5
59D0
 10
268.360
 20
214.036
 30
0.000000
  70
    32
  0
VERTEX
  8
0
  5
59D1
 10
268.362
 20
214.030
 30
0.000000
  70
    32
  0
VERTEX
  8
0
  5
59D2
 10
268.365
 20
214.023
 30
0.000000
  70
    32
  0
VERTEX
  8
0
  5
59D3
 10
268.367
 20
214.017
 30
0.000000
  70
    32
  0
VERTEX
  8
0
  5
59D4
 10
268.369
 20
214.011
 30
0.000000
  70
    32
  0
VERTEX
  8
0
  5
59D5
 10
268.372
 20
214.004
 30
0.000000
  70
    32
  0
VERTEX
  8
0
  5
59D6
 10
268.374
 20
213.998
 30
0.000000
  70
    32
  0
VERTEX
  8
0
  5
59D7
 10
268.376
 20
213.992
 30
0.000000
  70
    32
  0
VERTEX
  8
0
  5
59D8
 10
268.379
 20
213.986
 30
0.000000
  70
    32
  0
VERTEX
  8
0
  5
59D9
 10
268.381
 20
213.980
 30
0.000000
  70
    32
  0
VERTEX
  8
0
  5
59DA
 10
268.384
 20
213.974
 30
0.000000
  70
    32
  0
VERTEX
  8
0
  5
59DB
 10
268.386
 20
213.968
 30
0.000000
  70
    32
  0
VERTEX
  8
0
  5
59DC
 10
268.388
 20
213.962
 30
0.000000
  70
    32
  0
VERTEX
  8
0
  5
59DD
 10
268.391
 20
213.957
 30
0.000000
  70
    32
  0
VERTEX
  8
0
  5
59DE
 10
268.393
 20
213.951
 30
0.000000
  70
    32
  0
VERTEX
  8
0
  5
59DF
 10
268.396
 20
213.945
 30
0.000000
  70
    32
  0
VERTEX
  8
0
  5
59E0
 10
268.398
 20
213.940
 30
0.000000
  70
    32
  0
VERTEX
  8
0
  5
59E1
 10
268.401
 20
213.934
 30
0.000000
  70
    32
  0
VERTEX
  8
0
  5
59E2
 10
268.403
 20
213.929
 30
0.000000
  70
    32
  0
VERTEX
  8
0
  5
59E3
 10
268.405
 20
213.923
 30
0.000000
  70
    32
  0
VERTEX
  8
0
  5
59E4
 10
268.408
 20
213.918
 30
0.000000
  70
    32
  0
VERTEX
  8
0
  5
59E5
 10
268.410
 20
213.912
 30
0.000000
  70
    32
  0
VERTEX
  8
0
  5
59E6
 10
268.413
 20
213.907
 30
0.000000
  70
    32
  0
VERTEX
  8
0
  5
59E7
 10
268.415
 20
213.902
 30
0.000000
  70
    32
  0
VERTEX
  8
0
  5
59E8
 10
268.417
 20
213.897
 30
0.000000
  70
    32
  0
VERTEX
  8
0
  5
59E9
 10
268.420
 20
213.892
 30
0.000000
  70
    32
  0
VERTEX
  8
0
  5
59EA
 10
268.422
 20
213.887
 30
0.000000
  70
    32
  0
VERTEX
  8
0
  5
59EB
 10
268.425
 20
213.882
 30
0.000000
  70
    32
  0
VERTEX
  8
0
  5
59EC
 10
268.427
 20
213.877
 30
0.000000
  70
    32
  0
VERTEX
  8
0
  5
59ED
 10
268.430
 20
213.872
 30
0.000000
  70
    32
  0
VERTEX
  8
0
  5
59EE
 10
268.432
 20
213.868
 30
0.000000
  70
    32
  0
VERTEX
  8
0
  5
59EF
 10
268.434
 20
213.863
 30
0.000000
  70
    32
  0
VERTEX
  8
0
  5
59F0
 10
268.437
 20
213.858
 30
0.000000
  70
    32
  0
VERTEX
  8
0
  5
59F1
 10
268.439
 20
213.854
 30
0.000000
  70
    32
  0
VERTEX
  8
0
  5
59F2
 10
268.442
 20
213.849
 30
0.000000
  70
    32
  0
VERTEX
  8
0
  5
59F3
 10
268.444
 20
213.845
 30
0.000000
  70
    32
  0
VERTEX
  8
0
  5
59F4
 10
268.446
 20
213.840
 30
0.000000
  70
    32
  0
VERTEX
  8
0
  5
59F5
 10
268.449
 20
213.836
 30
0.000000
  70
    32
  0
VERTEX
  8
0
  5
59F6
 10
268.451
 20
213.832
 30
0.000000
  70
    32
  0
VERTEX
  8
0
  5
59F7
 10
268.453
 20
213.828
 30
0.000000
  70
    32
  0
VERTEX
  8
0
  5
59F8
 10
268.456
 20
213.824
 30
0.000000
  70
    32
  0
VERTEX
  8
0
  5
59F9
 10
268.458
 20
213.819
 30
0.000000
  70
    32
  0
VERTEX
  8
0
  5
59FA
 10
268.460
 20
213.816
 30
0.000000
  70
    32
  0
VERTEX
  8
0
  5
59FB
 10
268.463
 20
213.812
 30
0.000000
  70
    32
  0
VERTEX
  8
0
  5
59FC
 10
268.465
 20
213.808
 30
0.000000
  70
    32
  0
VERTEX
  8
0
  5
59FD
 10
268.467
 20
213.804
 30
0.000000
  70
    32
  0
VERTEX
  8
0
  5
59FE
 10
268.470
 20
213.800
 30
0.000000
  70
    32
  0
VERTEX
  8
0
  5
59FF
 10
268.472
 20
213.797
 30
0.000000
  70
    32
  0
VERTEX
  8
0
  5
5A00
 10
268.474
 20
213.793
 30
0.000000
  70
    32
  0
VERTEX
  8
0
  5
5A01
 10
268.476
 20
213.790
 30
0.000000
  70
    32
  0
VERTEX
  8
0
  5
5A02
 10
268.479
 20
213.786
 30
0.000000
  70
    32
  0
VERTEX
  8
0
  5
5A03
 10
268.481
 20
213.783
 30
0.000000
  70
    32
  0
VERTEX
  8
0
  5
5A04
 10
268.483
 20
213.779
 30
0.000000
  70
    32
  0
VERTEX
  8
0
  5
5A05
 10
268.485
 20
213.776
 30
0.000000
  70
    32
  0
VERTEX
  8
0
  5
5A06
 10
268.487
 20
213.773
 30
0.000000
  70
    32
  0
VERTEX
  8
0
  5
5A07
 10
268.489
 20
213.770
 30
0.000000
  70
    32
  0
VERTEX
  8
0
  5
5A08
 10
268.492
 20
213.767
 30
0.000000
  70
    32
  0
VERTEX
  8
0
  5
5A09
 10
268.494
 20
213.764
 30
0.000000
  70
    32
  0
VERTEX
  8
0
  5
5A0A
 10
268.496
 20
213.761
 30
0.000000
  70
    32
  0
VERTEX
  8
0
  5
5A0B
 10
268.498
 20
213.758
 30
0.000000
  70
    32
  0
VERTEX
  8
0
  5
5A0C
 10
268.500
 20
213.755
 30
0.000000
  70
    32
  0
VERTEX
  8
0
  5
5A0D
 10
268.502
 20
213.753
 30
0.000000
  70
    32
  0
VERTEX
  8
0
  5
5A0E
 10
268.504
 20
213.750
 30
0.000000
  70
    32
  0
VERTEX
  8
0
  5
5A0F
 10
268.506
 20
213.748
 30
0.000000
  70
    32
  0
VERTEX
  8
0
  5
5A10
 10
268.508
 20
213.745
 30
0.000000
  70
    32
  0
VERTEX
  8
0
  5
5A11
 10
268.510
 20
213.743
 30
0.000000
  70
    32
  0
VERTEX
  8
0
  5
5A12
 10
268.512
 20
213.740
 30
0.000000
  70
    32
  0
VERTEX
  8
0
  5
5A13
 10
268.514
 20
213.738
 30
0.000000
  70
    32
  0
VERTEX
  8
0
  5
5A14
 10
268.516
 20
213.736
 30
0.000000
  70
    32
  0
VERTEX
  8
0
  5
5A15
 10
268.518
 20
213.734
 30
0.000000
  70
    32
  0
VERTEX
  8
0
  5
5A16
 10
268.520
 20
213.732
 30
0.000000
  70
    32
  0
VERTEX
  8
0
  5
5A17
 10
268.521
 20
213.730
 30
0.000000
  70
    32
  0
VERTEX
  8
0
  5
5A18
 10
268.523
 20
213.728
 30
0.000000
  70
    32
  0
VERTEX
  8
0
  5
5A19
 10
268.525
 20
213.726
 30
0.000000
  70
    32
  0
VERTEX
  8
0
  5
5A1A
 10
268.527
 20
213.724
 30
0.000000
  70
    32
  0
VERTEX
  8
0
  5
5A1B
 10
268.528
 20
213.723
 30
0.000000
  70
    32
  0
VERTEX
  8
0
  5
5A1C
 10
268.530
 20
213.721
 30
0.000000
  70
    32
  0
VERTEX
  8
0
  5
5A1D
 10
268.532
 20
213.719
 30
0.000000
  70
    32
  0
VERTEX
  8
0
  5
5A1E
 10
268.533
 20
213.718
 30
0.000000
  70
    32
  0
VERTEX
  8
0
  5
5A1F
 10
268.535
 20
213.716
 30
0.000000
  70
    32
  0
VERTEX
  8
0
  5
5A20
 10
268.536
 20
213.715
 30
0.000000
  70
    32
  0
VERTEX
  8
0
  5
5A21
 10
268.538
 20
213.714
 30
0.000000
  70
    32
  0
VERTEX
  8
0
  5
5A22
 10
268.539
 20
213.713
 30
0.000000
  70
    32
  0
VERTEX
  8
0
  5
5A23
 10
268.540
 20
213.711
 30
0.000000
  70
    32
  0
VERTEX
  8
0
  5
5A24
 10
268.542
 20
213.710
 30
0.000000
  70
    32
  0
VERTEX
  8
0
  5
5A25
 10
268.543
 20
213.709
 30
0.000000
  70
    32
  0
VERTEX
  8
0
  5
5A26
 10
268.544
 20
213.708
 30
0.000000
  70
    32
  0
VERTEX
  8
0
  5
5A27
 10
268.546
 20
213.707
 30
0.000000
  70
    32
  0
VERTEX
  8
0
  5
5A28
 10
268.547
 20
213.706
 30
0.000000
  70
    32
  0
VERTEX
  8
0
  5
5A29
 10
268.548
 20
213.706
 30
0.000000
  70
    32
  0
VERTEX
  8
0
  5
5A2A
 10
268.549
 20
213.705
 30
0.000000
  70
    32
  0
VERTEX
  8
0
  5
5A2B
 10
268.550
 20
213.704
 30
0.000000
  70
    32
  0
VERTEX
  8
0
  5
5A2C
 10
268.551
 20
213.703
 30
0.000000
  70
    32
  0
VERTEX
  8
0
  5
5A2D
 10
268.552
 20
213.703
 30
0.000000
  70
    32
  0
SEQEND
  8
0
  5
5A2E
  0
CIRCLE
  5
53AF
  8
0
 10
385.82319643814122
 20
235.99999966472399
 30
0.0
 40
2.0669999999999988
  0
CIRCLE
  5
53B0
  8
3
 10
385.82319643814122
 20
235.99999966472399
 30
0.0
 40
2.5
  0
CIRCLE
  5
53B1
  8
0
 10
369.17681846302003
 20
215.9999982491137
 30
0.0
 40
2.0669999999999988
  0
CIRCLE
  5
53B2
  8
3
 10
369.17681846302003
 20
215.9999982491137
 30
0.0
 40
2.5
  0
ENDSEC
  0
EOF
