  0
SECTION
  2
HEADER
  9
$ACADVER
  1
AC1009
  9
$INSBASE
 10
0.0
 20
0.0
 30
0.0
  9
$EXTMIN
 10
-0.0204638472032742
 20
-2.960436562073669
 30
-0.0000000000000002
  9
$EXTMAX
 10
255.000000298
 20
309.99999981380012
 30
0.0000000000000001
  9
$LIMMIN
 10
0.0
 20
0.0
  9
$LIMMAX
 10
187.5
 20
135.0
  9
$ORTHOMODE
 70
     1
  9
$REGENMODE
 70
     1
  9
$FILLMODE
 70
     1
  9
$QTEXTMODE
 70
     0
  9
$MIRRTEXT
 70
     0
  9
$DRAGMODE
 70
     2
  9
$LTSCALE
 40
5.0
  9
$OSMODE
 70
    37
  9
$ATTMODE
 70
     1
  9
$TEXTSIZE
 40
4.0
  9
$TRACEWID
 40
0.05
  9
$TEXTSTYLE
  7
STANDARD
  9
$CLAYER
  8
0
  9
$CELTYPE
  6
BYLAYER
  9
$CECOLOR
 62
   256
  9
$DIMSCALE
 40
1.0
  9
$DIMASZ
 40
3.0
  9
$DIMEXO
 40
2.0
  9
$DIMDLI
 40
0.38
  9
$DIMRND
 40
0.0
  9
$DIMDLE
 40
0.0
  9
$DIMEXE
 40
2.0
  9
$DIMTP
 40
0.0
  9
$DIMTM
 40
0.0
  9
$DIMTXT
 40
3.2000000000000002
  9
$DIMCEN
 40
0.0
  9
$DIMTSZ
 40
0.0
  9
$DIMTOL
 70
     0
  9
$DIMLIM
 70
     0
  9
$DIMTIH
 70
     0
  9
$DIMTOH
 70
     0
  9
$DIMSE1
 70
     0
  9
$DIMSE2
 70
     0
  9
$DIMTAD
 70
     1
  9
$DIMZIN
 70
     8
  9
$DIMBLK
  1

  9
$DIMASO
 70
     0
  9
$DIMSHO
 70
     0
  9
$DIMPOST
  1

  9
$DIMAPOST
  1

  9
$DIMALT
 70
     0
  9
$DIMALTD
 70
     2
  9
$DIMALTF
 40
25.399999999999999
  9
$DIMLFAC
 40
1.0
  9
$DIMTOFL
 70
     1
  9
$DIMTVP
 40
1.6000000000000001
  9
$DIMTIX
 70
     0
  9
$DIMSOXD
 70
     0
  9
$DIMSAH
 70
     0
  9
$DIMBLK1
  1

  9
$DIMBLK2
  1

  9
$DIMSTYLE
  2
STANDARD
  9
$DIMCLRD
 70
     4
  9
$DIMCLRE
 70
     4
  9
$DIMCLRT
 70
     4
  9
$DIMTFAC
 40
1.0
  9
$DIMGAP
 40
0.5
  9
$LUNITS
 70
     2
  9
$LUPREC
 70
     1
  9
$SKETCHINC
 40
0.1
  9
$FILLETRAD
 40
0.0
  9
$AUNITS
 70
     0
  9
$AUPREC
 70
     1
  9
$MENU
  1
E:\r13\win\SUPPORT\ACAD
  9
$ELEVATION
 40
0.0
  9
$PELEVATION
 40
0.0
  9
$THICKNESS
 40
0.0
  9
$LIMCHECK
 70
     0
  9
$BLIPMODE
 70
     0
  9
$CHAMFERA
 40
1.1999999999999991
  9
$CHAMFERB
 40
1.1999999999999991
  9
$SKPOLY
 70
     0
  9
$TDCREATE
 40
2449933.4048958332
  9
$TDUPDATE
 40
2457709.4731948259
  9
$TDINDWG
 40
0.7712204514
  9
$TDUSRTIMER
 40
0.7712204514
  9
$USRTIMER
 70
     1
  9
$ANGBASE
 50
0.0
  9
$ANGDIR
 70
     0
  9
$PDMODE
 70
     0
  9
$PDSIZE
 40
0.0
  9
$PLINEWID
 40
0.0
  9
$COORDS
 70
     1
  9
$SPLFRAME
 70
     0
  9
$SPLINETYPE
 70
     6
  9
$SPLINESEGS
 70
     8
  9
$ATTDIA
 70
     0
  9
$ATTREQ
 70
     1
  9
$HANDLING
 70
     1
  9
$HANDSEED
  5
8A1E
  9
$SURFTAB1
 70
     6
  9
$SURFTAB2
 70
     6
  9
$SURFTYPE
 70
     6
  9
$SURFU
 70
     6
  9
$SURFV
 70
     6
  9
$UCSNAME
  2

  9
$UCSORG
 10
0.0
 20
0.0
 30
0.0
  9
$UCSXDIR
 10
1.0
 20
0.0
 30
0.0
  9
$UCSYDIR
 10
0.0
 20
1.0
 30
0.0
  9
$PUCSNAME
  2

  9
$PUCSORG
 10
0.0
 20
0.0
 30
0.0
  9
$PUCSXDIR
 10
1.0
 20
0.0
 30
0.0
  9
$PUCSYDIR
 10
0.0
 20
1.0
 30
0.0
  9
$USERI1
 70
     0
  9
$USERI2
 70
     1
  9
$USERI3
 70
     0
  9
$USERI4
 70
     0
  9
$USERI5
 70
     0
  9
$USERR1
 40
0.0
  9
$USERR2
 40
0.0
  9
$USERR3
 40
0.0
  9
$USERR4
 40
0.0
  9
$USERR5
 40
0.0
  9
$WORLDVIEW
 70
     1
  9
$SHADEDGE
 70
     3
  9
$SHADEDIF
 70
    70
  9
$TILEMODE
 70
     1
  9
$MAXACTVP
 70
    16
  9
$PLIMCHECK
 70
     0
  9
$PEXTMIN
 10
1.0000000000000000E+020
 20
1.0000000000000000E+020
 30
1.0000000000000000E+020
  9
$PEXTMAX
 10
-1.0000000000000000E+020
 20
-1.0000000000000000E+020
 30
-1.0000000000000000E+020
  9
$PLIMMIN
 10
0.0
 20
0.0
  9
$PLIMMAX
 10
12.0
 20
9.0
  9
$UNITMODE
 70
     0
  9
$VISRETAIN
 70
     0
  9
$PLINEGEN
 70
     0
  9
$PSLTSCALE
 70
     0
  0
ENDSEC
  0
SECTION
  2
TABLES
  0
TABLE
  2
VPORT
 70
     1
  0
VPORT
  2
*ACTIVE
 70
     0
 10
0.0
 20
0.0
 11
1.0
 21
1.0
 12
299.48343335924773
 22
153.52474697292411
 13
0.0
 23
0.0
 14
5.0
 24
5.0
 15
5.0
 25
5.0
 16
0.0
 26
0.0
 36
1.0
 17
0.0
 27
0.0
 37
0.0
 40
315.72333157901443
 41
2.6019575856443709
 42
50.0
 43
0.0
 44
0.0
 50
0.0
 51
0.0
 71
     0
 72
   500
 73
     1
 74
     0
 75
     0
 76
     0
 77
     0
 78
     2
  0
ENDTAB
  0
TABLE
  2
LTYPE
 70
     4
  0
LTYPE
  2
CONTINUOUS
 70
     0
  3
Solid Line
 72
    65
 73
     0
 40
0.0
  0
LTYPE
  2
CENTER
 70
     0
  3
____ _ ____ _ ____ _ ____ _ ____ _ ____ _ ____
 72
    65
 73
     4
 40
2.0
 49
1.25
 49
-0.25
 49
0.25
 49
-0.25
  0
LTYPE
  2
PHANTOM2
 70
     0
  3
___ _ _ ___ _ _ ___ _ _ ___ _ _
 72
    65
 73
     6
 40
1.25
 49
0.625
 49
-0.125
 49
0.125
 49
-0.125
 49
0.125
 49
-0.125
  0
LTYPE
  2
HIDDEN
 70
     0
  3
Hidden __ __ __ __ __ __ __ __ __ __ __ __ __ __
 72
    65
 73
     2
 40
1.905
 49
1.27
 49
-0.635
  0
ENDTAB
  0
TABLE
  2
LAYER
 70
     5
  0
LAYER
  2
0
 70
     0
 62
     7
  6
CONTINUOUS
  0
LAYER
  2
1
 70
     0
 62
     1
  6
CENTER
  0
LAYER
  2
DEFPOINTS
 70
     0
 62
     7
  6
CONTINUOUS
  0
LAYER
  2
2
 70
     0
 62
     2
  6
HIDDEN
  0
LAYER
  2
3
 70
     0
 62
     3
  6
CONTINUOUS
  0
ENDTAB
  0
TABLE
  2
STYLE
 70
     2
  0
STYLE
  2
STANDARD
 70
     0
 40
0.0
 41
1.0
 50
0.0
 71
     0
 42
4.0
  3
SIMPLEX
  4
BIGFONT
  0
STYLE
  2
STANDARD1
 70
     0
 40
0.0
 41
1.0
 50
0.0
 71
     0
 42
3.0
  3
txt
  4

  0
ENDTAB
  0
TABLE
  2
VIEW
 70
     2
  0
VIEW
  2
ALL
 70
     0
 40
175.0
 10
143.1020066889632
 20
87.5
 41
286.2040133779264
 11
0.0
 21
0.0
 31
1.0
 12
0.0
 22
0.0
 32
0.0
 42
50.0
 43
0.0
 44
0.0
 50
0.0
 71
     0
  0
VIEW
  2
OLE1
 70
     0
 40
43.006246962410721
 10
135.14159993249649
 20
772.38637856260084
 41
54.07096098672028
 11
0.0
 21
0.0
 31
1.0
 12
0.0
 22
0.0
 32
0.0
 42
50.0
 43
0.0
 44
0.0
 50
0.0
 71
     0
  0
ENDTAB
  0
TABLE
  2
UCS
 70
     0
  0
ENDTAB
  0
TABLE
  2
APPID
 70
     7
  0
APPID
  2
ACAD
 70
     0
  0
APPID
  2
ACAD_DSTYLE_DIMJAG
 70
     0
  0
APPID
  2
ACAD_DSTYLE_DIMTALN
 70
     0
  0
APPID
  2
ACAD_EXEMPT_FROM_CAD_STANDARDS
 70
     0
  0
APPID
  2
ACAD_DSTYLE_DIMRADIAL_EXTENSION
 70
     0
  0
APPID
  2
ACAD_MLEADERVER
 70
     0
  0
APPID
  2
ACAD_NAV_VCDISPLAY
 70
     0
  0
ENDTAB
  0
TABLE
  2
DIMSTYLE
 70
     1
  0
DIMSTYLE
  2
STANDARD
 70
     0
  3

  4

  5

  6

  7

 40
1.0
 41
0.18
 42
0.0625
 43
0.38
 44
0.18
 45
0.0
 46
0.0
 47
0.0
 48
0.0
140
0.18
141
0.09
142
0.0
143
25.399999999999999
144
1.0
145
0.0
146
1.0
147
0.09
 71
     0
 72
     0
 73
     1
 74
     1
 75
     0
 76
     0
 77
     0
 78
     0
170
     0
171
     2
172
     0
173
     0
174
     0
175
     0
176
     0
177
     0
178
     0
  0
ENDTAB
  0
ENDSEC
  0
SECTION
  2
BLOCKS
  0
BLOCK
  8
0
  2
$MODEL_SPACE
 70
     0
 10
0.0
 20
0.0
 30
0.0
  3
$MODEL_SPACE
  1

  0
ENDBLK
  5
8A
  8
0
  0
BLOCK
 67
     1
  8
0
  2
$PAPER_SPACE
 70
     0
 10
0.0
 20
0.0
 30
0.0
  3
$PAPER_SPACE
  1

  0
ENDBLK
  5
88
 67
     1
  8
0
  0
ENDSEC
  0
SECTION
  2
ENTITIES
  0
TEXT
  5
4987
  8
0
 62
     3
 10
0.0
 20
0.0
 30
0.0
 40
10.0
  1
AMWF40-W-S
  7
STANDARD1
  0
POLYLINE
  5
831B
  8
0
 10
123.25000000004999
 20
162.79999966470001
 30
0.0
 66
     1
 70
     8
  0
VERTEX
  8
0
  5
8816
 10
123.250
 20
162.800
 30
0.000000
  70
    32
  0
VERTEX
  8
0
  5
8817
 10
123.268
 20
162.800
 30
0.000000
  70
    32
  0
VERTEX
  8
0
  5
8818
 10
123.287
 20
162.802
 30
0.000000
  70
    32
  0
VERTEX
  8
0
  5
8819
 10
123.305
 20
162.804
 30
0.000000
  70
    32
  0
VERTEX
  8
0
  5
881A
 10
123.324
 20
162.807
 30
0.000000
  70
    32
  0
VERTEX
  8
0
  5
881B
 10
123.342
 20
162.810
 30
0.000000
  70
    32
  0
VERTEX
  8
0
  5
881C
 10
123.360
 20
162.815
 30
0.000000
  70
    32
  0
VERTEX
  8
0
  5
881D
 10
123.378
 20
162.820
 30
0.000000
  70
    32
  0
VERTEX
  8
0
  5
881E
 10
123.396
 20
162.826
 30
0.000000
  70
    32
  0
VERTEX
  8
0
  5
881F
 10
123.414
 20
162.833
 30
0.000000
  70
    32
  0
VERTEX
  8
0
  5
8820
 10
123.432
 20
162.840
 30
0.000000
  70
    32
  0
VERTEX
  8
0
  5
8821
 10
123.450
 20
162.849
 30
0.000000
  70
    32
  0
VERTEX
  8
0
  5
8822
 10
123.468
 20
162.858
 30
0.000000
  70
    32
  0
VERTEX
  8
0
  5
8823
 10
123.485
 20
162.868
 30
0.000000
  70
    32
  0
VERTEX
  8
0
  5
8824
 10
123.503
 20
162.879
 30
0.000000
  70
    32
  0
VERTEX
  8
0
  5
8825
 10
123.520
 20
162.890
 30
0.000000
  70
    32
  0
VERTEX
  8
0
  5
8826
 10
123.537
 20
162.903
 30
0.000000
  70
    32
  0
VERTEX
  8
0
  5
8827
 10
123.554
 20
162.916
 30
0.000000
  70
    32
  0
VERTEX
  8
0
  5
8828
 10
123.571
 20
162.930
 30
0.000000
  70
    32
  0
VERTEX
  8
0
  5
8829
 10
123.587
 20
162.944
 30
0.000000
  70
    32
  0
VERTEX
  8
0
  5
882A
 10
123.604
 20
162.959
 30
0.000000
  70
    32
  0
VERTEX
  8
0
  5
882B
 10
123.620
 20
162.975
 30
0.000000
  70
    32
  0
VERTEX
  8
0
  5
882C
 10
123.636
 20
162.992
 30
0.000000
  70
    32
  0
VERTEX
  8
0
  5
882D
 10
123.651
 20
163.009
 30
0.000000
  70
    32
  0
VERTEX
  8
0
  5
882E
 10
123.667
 20
163.028
 30
0.000000
  70
    32
  0
VERTEX
  8
0
  5
882F
 10
123.682
 20
163.046
 30
0.000000
  70
    32
  0
VERTEX
  8
0
  5
8830
 10
123.697
 20
163.066
 30
0.000000
  70
    32
  0
VERTEX
  8
0
  5
8831
 10
123.711
 20
163.086
 30
0.000000
  70
    32
  0
VERTEX
  8
0
  5
8832
 10
123.726
 20
163.106
 30
0.000000
  70
    32
  0
VERTEX
  8
0
  5
8833
 10
123.740
 20
163.128
 30
0.000000
  70
    32
  0
VERTEX
  8
0
  5
8834
 10
123.754
 20
163.150
 30
0.000000
  70
    32
  0
VERTEX
  8
0
  5
8835
 10
123.767
 20
163.172
 30
0.000000
  70
    32
  0
VERTEX
  8
0
  5
8836
 10
123.780
 20
163.195
 30
0.000000
  70
    32
  0
VERTEX
  8
0
  5
8837
 10
123.793
 20
163.219
 30
0.000000
  70
    32
  0
VERTEX
  8
0
  5
8838
 10
123.806
 20
163.243
 30
0.000000
  70
    32
  0
VERTEX
  8
0
  5
8839
 10
123.818
 20
163.268
 30
0.000000
  70
    32
  0
VERTEX
  8
0
  5
883A
 10
123.830
 20
163.294
 30
0.000000
  70
    32
  0
VERTEX
  8
0
  5
883B
 10
123.841
 20
163.319
 30
0.000000
  70
    32
  0
VERTEX
  8
0
  5
883C
 10
123.852
 20
163.346
 30
0.000000
  70
    32
  0
VERTEX
  8
0
  5
883D
 10
123.863
 20
163.373
 30
0.000000
  70
    32
  0
VERTEX
  8
0
  5
883E
 10
123.874
 20
163.400
 30
0.000000
  70
    32
  0
VERTEX
  8
0
  5
883F
 10
123.884
 20
163.428
 30
0.000000
  70
    32
  0
VERTEX
  8
0
  5
8840
 10
123.893
 20
163.456
 30
0.000000
  70
    32
  0
VERTEX
  8
0
  5
8841
 10
123.903
 20
163.485
 30
0.000000
  70
    32
  0
VERTEX
  8
0
  5
8842
 10
123.911
 20
163.514
 30
0.000000
  70
    32
  0
VERTEX
  8
0
  5
8843
 10
123.920
 20
163.543
 30
0.000000
  70
    32
  0
VERTEX
  8
0
  5
8844
 10
123.928
 20
163.573
 30
0.000000
  70
    32
  0
VERTEX
  8
0
  5
8845
 10
123.936
 20
163.603
 30
0.000000
  70
    32
  0
VERTEX
  8
0
  5
8846
 10
123.943
 20
163.633
 30
0.000000
  70
    32
  0
VERTEX
  8
0
  5
8847
 10
123.950
 20
163.664
 30
0.000000
  70
    32
  0
VERTEX
  8
0
  5
8848
 10
123.956
 20
163.695
 30
0.000000
  70
    32
  0
VERTEX
  8
0
  5
8849
 10
123.962
 20
163.727
 30
0.000000
  70
    32
  0
VERTEX
  8
0
  5
884A
 10
123.968
 20
163.758
 30
0.000000
  70
    32
  0
VERTEX
  8
0
  5
884B
 10
123.973
 20
163.790
 30
0.000000
  70
    32
  0
VERTEX
  8
0
  5
884C
 10
123.978
 20
163.822
 30
0.000000
  70
    32
  0
VERTEX
  8
0
  5
884D
 10
123.982
 20
163.854
 30
0.000000
  70
    32
  0
VERTEX
  8
0
  5
884E
 10
123.986
 20
163.887
 30
0.000000
  70
    32
  0
VERTEX
  8
0
  5
884F
 10
123.989
 20
163.919
 30
0.000000
  70
    32
  0
VERTEX
  8
0
  5
8850
 10
123.992
 20
163.952
 30
0.000000
  70
    32
  0
VERTEX
  8
0
  5
8851
 10
123.994
 20
163.985
 30
0.000000
  70
    32
  0
VERTEX
  8
0
  5
8852
 10
123.996
 20
164.018
 30
0.000000
  70
    32
  0
VERTEX
  8
0
  5
8853
 10
123.998
 20
164.051
 30
0.000000
  70
    32
  0
VERTEX
  8
0
  5
8854
 10
123.999
 20
164.084
 30
0.000000
  70
    32
  0
VERTEX
  8
0
  5
8855
 10
124.000
 20
164.117
 30
0.000000
  70
    32
  0
VERTEX
  8
0
  5
8856
 10
124.000
 20
164.150
 30
0.000000
  70
    32
  0
VERTEX
  8
0
  5
8857
 10
124.000
 20
164.183
 30
0.000000
  70
    32
  0
VERTEX
  8
0
  5
8858
 10
123.999
 20
164.216
 30
0.000000
  70
    32
  0
VERTEX
  8
0
  5
8859
 10
123.998
 20
164.249
 30
0.000000
  70
    32
  0
VERTEX
  8
0
  5
885A
 10
123.996
 20
164.282
 30
0.000000
  70
    32
  0
VERTEX
  8
0
  5
885B
 10
123.994
 20
164.315
 30
0.000000
  70
    32
  0
VERTEX
  8
0
  5
885C
 10
123.992
 20
164.348
 30
0.000000
  70
    32
  0
VERTEX
  8
0
  5
885D
 10
123.989
 20
164.381
 30
0.000000
  70
    32
  0
VERTEX
  8
0
  5
885E
 10
123.986
 20
164.413
 30
0.000000
  70
    32
  0
VERTEX
  8
0
  5
885F
 10
123.982
 20
164.446
 30
0.000000
  70
    32
  0
VERTEX
  8
0
  5
8860
 10
123.978
 20
164.478
 30
0.000000
  70
    32
  0
VERTEX
  8
0
  5
8861
 10
123.973
 20
164.510
 30
0.000000
  70
    32
  0
VERTEX
  8
0
  5
8862
 10
123.968
 20
164.542
 30
0.000000
  70
    32
  0
VERTEX
  8
0
  5
8863
 10
123.962
 20
164.573
 30
0.000000
  70
    32
  0
VERTEX
  8
0
  5
8864
 10
123.956
 20
164.605
 30
0.000000
  70
    32
  0
VERTEX
  8
0
  5
8865
 10
123.950
 20
164.636
 30
0.000000
  70
    32
  0
VERTEX
  8
0
  5
8866
 10
123.943
 20
164.667
 30
0.000000
  70
    32
  0
VERTEX
  8
0
  5
8867
 10
123.936
 20
164.697
 30
0.000000
  70
    32
  0
VERTEX
  8
0
  5
8868
 10
123.928
 20
164.727
 30
0.000000
  70
    32
  0
VERTEX
  8
0
  5
8869
 10
123.920
 20
164.757
 30
0.000000
  70
    32
  0
VERTEX
  8
0
  5
886A
 10
123.911
 20
164.786
 30
0.000000
  70
    32
  0
VERTEX
  8
0
  5
886B
 10
123.903
 20
164.815
 30
0.000000
  70
    32
  0
VERTEX
  8
0
  5
886C
 10
123.893
 20
164.844
 30
0.000000
  70
    32
  0
VERTEX
  8
0
  5
886D
 10
123.884
 20
164.872
 30
0.000000
  70
    32
  0
VERTEX
  8
0
  5
886E
 10
123.874
 20
164.900
 30
0.000000
  70
    32
  0
VERTEX
  8
0
  5
886F
 10
123.863
 20
164.927
 30
0.000000
  70
    32
  0
VERTEX
  8
0
  5
8870
 10
123.852
 20
164.954
 30
0.000000
  70
    32
  0
VERTEX
  8
0
  5
8871
 10
123.841
 20
164.981
 30
0.000000
  70
    32
  0
VERTEX
  8
0
  5
8872
 10
123.830
 20
165.006
 30
0.000000
  70
    32
  0
VERTEX
  8
0
  5
8873
 10
123.818
 20
165.032
 30
0.000000
  70
    32
  0
VERTEX
  8
0
  5
8874
 10
123.806
 20
165.057
 30
0.000000
  70
    32
  0
VERTEX
  8
0
  5
8875
 10
123.793
 20
165.081
 30
0.000000
  70
    32
  0
VERTEX
  8
0
  5
8876
 10
123.780
 20
165.105
 30
0.000000
  70
    32
  0
VERTEX
  8
0
  5
8877
 10
123.767
 20
165.128
 30
0.000000
  70
    32
  0
VERTEX
  8
0
  5
8878
 10
123.754
 20
165.150
 30
0.000000
  70
    32
  0
VERTEX
  8
0
  5
8879
 10
123.740
 20
165.172
 30
0.000000
  70
    32
  0
VERTEX
  8
0
  5
887A
 10
123.726
 20
165.194
 30
0.000000
  70
    32
  0
VERTEX
  8
0
  5
887B
 10
123.711
 20
165.214
 30
0.000000
  70
    32
  0
VERTEX
  8
0
  5
887C
 10
123.697
 20
165.234
 30
0.000000
  70
    32
  0
VERTEX
  8
0
  5
887D
 10
123.682
 20
165.254
 30
0.000000
  70
    32
  0
VERTEX
  8
0
  5
887E
 10
123.667
 20
165.272
 30
0.000000
  70
    32
  0
VERTEX
  8
0
  5
887F
 10
123.651
 20
165.291
 30
0.000000
  70
    32
  0
VERTEX
  8
0
  5
8880
 10
123.636
 20
165.308
 30
0.000000
  70
    32
  0
VERTEX
  8
0
  5
8881
 10
123.620
 20
165.325
 30
0.000000
  70
    32
  0
VERTEX
  8
0
  5
8882
 10
123.604
 20
165.341
 30
0.000000
  70
    32
  0
VERTEX
  8
0
  5
8883
 10
123.587
 20
165.356
 30
0.000000
  70
    32
  0
VERTEX
  8
0
  5
8884
 10
123.571
 20
165.370
 30
0.000000
  70
    32
  0
VERTEX
  8
0
  5
8885
 10
123.554
 20
165.384
 30
0.000000
  70
    32
  0
VERTEX
  8
0
  5
8886
 10
123.537
 20
165.397
 30
0.000000
  70
    32
  0
VERTEX
  8
0
  5
8887
 10
123.520
 20
165.410
 30
0.000000
  70
    32
  0
VERTEX
  8
0
  5
8888
 10
123.503
 20
165.421
 30
0.000000
  70
    32
  0
VERTEX
  8
0
  5
8889
 10
123.485
 20
165.432
 30
0.000000
  70
    32
  0
VERTEX
  8
0
  5
888A
 10
123.468
 20
165.442
 30
0.000000
  70
    32
  0
VERTEX
  8
0
  5
888B
 10
123.450
 20
165.451
 30
0.000000
  70
    32
  0
VERTEX
  8
0
  5
888C
 10
123.432
 20
165.460
 30
0.000000
  70
    32
  0
VERTEX
  8
0
  5
888D
 10
123.414
 20
165.467
 30
0.000000
  70
    32
  0
VERTEX
  8
0
  5
888E
 10
123.396
 20
165.474
 30
0.000000
  70
    32
  0
VERTEX
  8
0
  5
888F
 10
123.378
 20
165.480
 30
0.000000
  70
    32
  0
VERTEX
  8
0
  5
8890
 10
123.360
 20
165.485
 30
0.000000
  70
    32
  0
VERTEX
  8
0
  5
8891
 10
123.342
 20
165.490
 30
0.000000
  70
    32
  0
VERTEX
  8
0
  5
8892
 10
123.324
 20
165.493
 30
0.000000
  70
    32
  0
VERTEX
  8
0
  5
8893
 10
123.305
 20
165.496
 30
0.000000
  70
    32
  0
VERTEX
  8
0
  5
8894
 10
123.287
 20
165.498
 30
0.000000
  70
    32
  0
VERTEX
  8
0
  5
8895
 10
123.268
 20
165.500
 30
0.000000
  70
    32
  0
VERTEX
  8
0
  5
8896
 10
123.250
 20
165.500
 30
0.000000
  70
    32
  0
SEQEND
  8
0
  5
8897
  0
POLYLINE
  5
831C
  8
0
 10
76.750000000050022
 20
165.4999996647
 30
0.0
 66
     1
 70
     8
  0
VERTEX
  8
0
  5
8898
 10
76.7500
 20
165.500
 30
0.000000
  70
    32
  0
VERTEX
  8
0
  5
8899
 10
76.7316
 20
165.500
 30
1.84059e-018
  70
    32
  0
VERTEX
  8
0
  5
889A
 10
76.7132
 20
165.498
 30
3.68008e-018
  70
    32
  0
VERTEX
  8
0
  5
889B
 10
76.6948
 20
165.496
 30
5.51734e-018
  70
    32
  0
VERTEX
  8
0
  5
889C
 10
76.6765
 20
165.493
 30
7.35129e-018
  70
    32
  0
VERTEX
  8
0
  5
889D
 10
76.6582
 20
165.490
 30
9.18080e-018
  70
    32
  0
VERTEX
  8
0
  5
889E
 10
76.6400
 20
165.485
 30
1.10048e-017
  70
    32
  0
VERTEX
  8
0
  5
889F
 10
76.6218
 20
165.480
 30
1.28221e-017
  70
    32
  0
VERTEX
  8
0
  5
88A0
 10
76.6037
 20
165.474
 30
1.46318e-017
  70
    32
  0
VERTEX
  8
0
  5
88A1
 10
76.5857
 20
165.467
 30
1.64326e-017
  70
    32
  0
VERTEX
  8
0
  5
88A2
 10
76.5678
 20
165.460
 30
1.82235e-017
  70
    32
  0
VERTEX
  8
0
  5
88A3
 10
76.5500
 20
165.451
 30
2.00035e-017
  70
    32
  0
VERTEX
  8
0
  5
88A4
 10
76.5323
 20
165.442
 30
2.17714e-017
  70
    32
  0
VERTEX
  8
0
  5
88A5
 10
76.5147
 20
165.432
 30
2.35261e-017
  70
    32
  0
VERTEX
  8
0
  5
88A6
 10
76.4973
 20
165.421
 30
2.52667e-017
  70
    32
  0
VERTEX
  8
0
  5
88A7
 10
76.4801
 20
165.410
 30
2.69921e-017
  70
    32
  0
VERTEX
  8
0
  5
88A8
 10
76.4630
 20
165.397
 30
2.87013e-017
  70
    32
  0
VERTEX
  8
0
  5
88A9
 10
76.4461
 20
165.384
 30
3.03931e-017
  70
    32
  0
VERTEX
  8
0
  5
88AA
 10
76.4293
 20
165.370
 30
3.20666e-017
  70
    32
  0
VERTEX
  8
0
  5
88AB
 10
76.4128
 20
165.356
 30
3.37208e-017
  70
    32
  0
VERTEX
  8
0
  5
88AC
 10
76.3965
 20
165.341
 30
3.53548e-017
  70
    32
  0
VERTEX
  8
0
  5
88AD
 10
76.3803
 20
165.325
 30
3.69674e-017
  70
    32
  0
VERTEX
  8
0
  5
88AE
 10
76.3644
 20
165.308
 30
3.85577e-017
  70
    32
  0
VERTEX
  8
0
  5
88AF
 10
76.3488
 20
165.291
 30
4.01248e-017
  70
    32
  0
VERTEX
  8
0
  5
88B0
 10
76.3333
 20
165.272
 30
4.16678e-017
  70
    32
  0
VERTEX
  8
0
  5
88B1
 10
76.3181
 20
165.254
 30
4.31856e-017
  70
    32
  0
VERTEX
  8
0
  5
88B2
 10
76.3032
 20
165.234
 30
4.46774e-017
  70
    32
  0
VERTEX
  8
0
  5
88B3
 10
76.2886
 20
165.214
 30
4.61424e-017
  70
    32
  0
VERTEX
  8
0
  5
88B4
 10
76.2742
 20
165.194
 30
4.75795e-017
  70
    32
  0
VERTEX
  8
0
  5
88B5
 10
76.2601
 20
165.172
 30
4.89880e-017
  70
    32
  0
VERTEX
  8
0
  5
88B6
 10
76.2463
 20
165.150
 30
5.03669e-017
  70
    32
  0
VERTEX
  8
0
  5
88B7
 10
76.2328
 20
165.128
 30
5.17155e-017
  70
    32
  0
VERTEX
  8
0
  5
88B8
 10
76.2197
 20
165.105
 30
5.30330e-017
  70
    32
  0
VERTEX
  8
0
  5
88B9
 10
76.2068
 20
165.081
 30
5.43185e-017
  70
    32
  0
VERTEX
  8
0
  5
88BA
 10
76.1943
 20
165.057
 30
5.55713e-017
  70
    32
  0
VERTEX
  8
0
  5
88BB
 10
76.1821
 20
165.032
 30
5.67907e-017
  70
    32
  0
VERTEX
  8
0
  5
88BC
 10
76.1702
 20
165.006
 30
5.79758e-017
  70
    32
  0
VERTEX
  8
0
  5
88BD
 10
76.1587
 20
164.981
 30
5.91260e-017
  70
    32
  0
VERTEX
  8
0
  5
88BE
 10
76.1476
 20
164.954
 30
6.02406e-017
  70
    32
  0
VERTEX
  8
0
  5
88BF
 10
76.1368
 20
164.927
 30
6.13189e-017
  70
    32
  0
VERTEX
  8
0
  5
88C0
 10
76.1264
 20
164.900
 30
6.23602e-017
  70
    32
  0
VERTEX
  8
0
  5
88C1
 10
76.1164
 20
164.872
 30
6.33640e-017
  70
    32
  0
VERTEX
  8
0
  5
88C2
 10
76.1067
 20
164.844
 30
6.43296e-017
  70
    32
  0
VERTEX
  8
0
  5
88C3
 10
76.0974
 20
164.815
 30
6.52565e-017
  70
    32
  0
VERTEX
  8
0
  5
88C4
 10
76.0886
 20
164.786
 30
6.61441e-017
  70
    32
  0
VERTEX
  8
0
  5
88C5
 10
76.0801
 20
164.757
 30
6.69918e-017
  70
    32
  0
VERTEX
  8
0
  5
88C6
 10
76.0720
 20
164.727
 30
6.77992e-017
  70
    32
  0
VERTEX
  8
0
  5
88C7
 10
76.0643
 20
164.697
 30
6.85657e-017
  70
    32
  0
VERTEX
  8
0
  5
88C8
 10
76.0571
 20
164.667
 30
6.92910e-017
  70
    32
  0
VERTEX
  8
0
  5
88C9
 10
76.0503
 20
164.636
 30
6.99745e-017
  70
    32
  0
VERTEX
  8
0
  5
88CA
 10
76.0438
 20
164.605
 30
7.06158e-017
  70
    32
  0
VERTEX
  8
0
  5
88CB
 10
76.0379
 20
164.573
 30
7.12146e-017
  70
    32
  0
VERTEX
  8
0
  5
88CC
 10
76.0323
 20
164.542
 30
7.17705e-017
  70
    32
  0
VERTEX
  8
0
  5
88CD
 10
76.0272
 20
164.510
 30
7.22832e-017
  70
    32
  0
VERTEX
  8
0
  5
88CE
 10
76.0225
 20
164.478
 30
7.27523e-017
  70
    32
  0
VERTEX
  8
0
  5
88CF
 10
76.0182
 20
164.446
 30
7.31777e-017
  70
    32
  0
VERTEX
  8
0
  5
88D0
 10
76.0144
 20
164.413
 30
7.35589e-017
  70
    32
  0
VERTEX
  8
0
  5
88D1
 10
76.0110
 20
164.381
 30
7.38958e-017
  70
    32
  0
VERTEX
  8
0
  5
88D2
 10
76.0081
 20
164.348
 30
7.41882e-017
  70
    32
  0
VERTEX
  8
0
  5
88D3
 10
76.0056
 20
164.315
 30
7.44360e-017
  70
    32
  0
VERTEX
  8
0
  5
88D4
 10
76.0036
 20
164.282
 30
7.46389e-017
  70
    32
  0
VERTEX
  8
0
  5
88D5
 10
76.0020
 20
164.249
 30
7.47968e-017
  70
    32
  0
VERTEX
  8
0
  5
88D6
 10
76.0009
 20
164.216
 30
7.49097e-017
  70
    32
  0
VERTEX
  8
0
  5
88D7
 10
76.0002
 20
164.183
 30
7.49774e-017
  70
    32
  0
VERTEX
  8
0
  5
88D8
 10
76.0000
 20
164.150
 30
7.50000e-017
  70
    32
  0
VERTEX
  8
0
  5
88D9
 10
76.0002
 20
164.117
 30
7.49774e-017
  70
    32
  0
VERTEX
  8
0
  5
88DA
 10
76.0009
 20
164.084
 30
7.49097e-017
  70
    32
  0
VERTEX
  8
0
  5
88DB
 10
76.0020
 20
164.051
 30
7.47968e-017
  70
    32
  0
VERTEX
  8
0
  5
88DC
 10
76.0036
 20
164.018
 30
7.46389e-017
  70
    32
  0
VERTEX
  8
0
  5
88DD
 10
76.0056
 20
163.985
 30
7.44360e-017
  70
    32
  0
VERTEX
  8
0
  5
88DE
 10
76.0081
 20
163.952
 30
7.41882e-017
  70
    32
  0
VERTEX
  8
0
  5
88DF
 10
76.0110
 20
163.919
 30
7.38958e-017
  70
    32
  0
VERTEX
  8
0
  5
88E0
 10
76.0144
 20
163.887
 30
7.35589e-017
  70
    32
  0
VERTEX
  8
0
  5
88E1
 10
76.0182
 20
163.854
 30
7.31777e-017
  70
    32
  0
VERTEX
  8
0
  5
88E2
 10
76.0225
 20
163.822
 30
7.27523e-017
  70
    32
  0
VERTEX
  8
0
  5
88E3
 10
76.0272
 20
163.790
 30
7.22832e-017
  70
    32
  0
VERTEX
  8
0
  5
88E4
 10
76.0323
 20
163.758
 30
7.17705e-017
  70
    32
  0
VERTEX
  8
0
  5
88E5
 10
76.0379
 20
163.727
 30
7.12146e-017
  70
    32
  0
VERTEX
  8
0
  5
88E6
 10
76.0438
 20
163.695
 30
7.06158e-017
  70
    32
  0
VERTEX
  8
0
  5
88E7
 10
76.0503
 20
163.664
 30
6.99745e-017
  70
    32
  0
VERTEX
  8
0
  5
88E8
 10
76.0571
 20
163.633
 30
6.92910e-017
  70
    32
  0
VERTEX
  8
0
  5
88E9
 10
76.0643
 20
163.603
 30
6.85657e-017
  70
    32
  0
VERTEX
  8
0
  5
88EA
 10
76.0720
 20
163.573
 30
6.77992e-017
  70
    32
  0
VERTEX
  8
0
  5
88EB
 10
76.0801
 20
163.543
 30
6.69918e-017
  70
    32
  0
VERTEX
  8
0
  5
88EC
 10
76.0886
 20
163.514
 30
6.61441e-017
  70
    32
  0
VERTEX
  8
0
  5
88ED
 10
76.0974
 20
163.485
 30
6.52565e-017
  70
    32
  0
VERTEX
  8
0
  5
88EE
 10
76.1067
 20
163.456
 30
6.43296e-017
  70
    32
  0
VERTEX
  8
0
  5
88EF
 10
76.1164
 20
163.428
 30
6.33640e-017
  70
    32
  0
VERTEX
  8
0
  5
88F0
 10
76.1264
 20
163.400
 30
6.23602e-017
  70
    32
  0
VERTEX
  8
0
  5
88F1
 10
76.1368
 20
163.373
 30
6.13189e-017
  70
    32
  0
VERTEX
  8
0
  5
88F2
 10
76.1476
 20
163.346
 30
6.02406e-017
  70
    32
  0
VERTEX
  8
0
  5
88F3
 10
76.1587
 20
163.319
 30
5.91260e-017
  70
    32
  0
VERTEX
  8
0
  5
88F4
 10
76.1702
 20
163.294
 30
5.79758e-017
  70
    32
  0
VERTEX
  8
0
  5
88F5
 10
76.1821
 20
163.268
 30
5.67907e-017
  70
    32
  0
VERTEX
  8
0
  5
88F6
 10
76.1943
 20
163.243
 30
5.55713e-017
  70
    32
  0
VERTEX
  8
0
  5
88F7
 10
76.2068
 20
163.219
 30
5.43185e-017
  70
    32
  0
VERTEX
  8
0
  5
88F8
 10
76.2197
 20
163.195
 30
5.30330e-017
  70
    32
  0
VERTEX
  8
0
  5
88F9
 10
76.2328
 20
163.172
 30
5.17155e-017
  70
    32
  0
VERTEX
  8
0
  5
88FA
 10
76.2463
 20
163.150
 30
5.03669e-017
  70
    32
  0
VERTEX
  8
0
  5
88FB
 10
76.2601
 20
163.128
 30
4.89880e-017
  70
    32
  0
VERTEX
  8
0
  5
88FC
 10
76.2742
 20
163.106
 30
4.75795e-017
  70
    32
  0
VERTEX
  8
0
  5
88FD
 10
76.2886
 20
163.086
 30
4.61424e-017
  70
    32
  0
VERTEX
  8
0
  5
88FE
 10
76.3032
 20
163.066
 30
4.46774e-017
  70
    32
  0
VERTEX
  8
0
  5
88FF
 10
76.3181
 20
163.046
 30
4.31856e-017
  70
    32
  0
VERTEX
  8
0
  5
8900
 10
76.3333
 20
163.028
 30
4.16678e-017
  70
    32
  0
VERTEX
  8
0
  5
8901
 10
76.3488
 20
163.009
 30
4.01248e-017
  70
    32
  0
VERTEX
  8
0
  5
8902
 10
76.3644
 20
162.992
 30
3.85577e-017
  70
    32
  0
VERTEX
  8
0
  5
8903
 10
76.3803
 20
162.975
 30
3.69674e-017
  70
    32
  0
VERTEX
  8
0
  5
8904
 10
76.3965
 20
162.959
 30
3.53548e-017
  70
    32
  0
VERTEX
  8
0
  5
8905
 10
76.4128
 20
162.944
 30
3.37208e-017
  70
    32
  0
VERTEX
  8
0
  5
8906
 10
76.4293
 20
162.930
 30
3.20666e-017
  70
    32
  0
VERTEX
  8
0
  5
8907
 10
76.4461
 20
162.916
 30
3.03931e-017
  70
    32
  0
VERTEX
  8
0
  5
8908
 10
76.4630
 20
162.903
 30
2.87013e-017
  70
    32
  0
VERTEX
  8
0
  5
8909
 10
76.4801
 20
162.890
 30
2.69921e-017
  70
    32
  0
VERTEX
  8
0
  5
890A
 10
76.4973
 20
162.879
 30
2.52667e-017
  70
    32
  0
VERTEX
  8
0
  5
890B
 10
76.5147
 20
162.868
 30
2.35261e-017
  70
    32
  0
VERTEX
  8
0
  5
890C
 10
76.5323
 20
162.858
 30
2.17714e-017
  70
    32
  0
VERTEX
  8
0
  5
890D
 10
76.5500
 20
162.849
 30
2.00035e-017
  70
    32
  0
VERTEX
  8
0
  5
890E
 10
76.5678
 20
162.840
 30
1.82235e-017
  70
    32
  0
VERTEX
  8
0
  5
890F
 10
76.5857
 20
162.833
 30
1.64326e-017
  70
    32
  0
VERTEX
  8
0
  5
8910
 10
76.6037
 20
162.826
 30
1.46318e-017
  70
    32
  0
VERTEX
  8
0
  5
8911
 10
76.6218
 20
162.820
 30
1.28221e-017
  70
    32
  0
VERTEX
  8
0
  5
8912
 10
76.6400
 20
162.815
 30
1.10048e-017
  70
    32
  0
VERTEX
  8
0
  5
8913
 10
76.6582
 20
162.810
 30
9.18080e-018
  70
    32
  0
VERTEX
  8
0
  5
8914
 10
76.6765
 20
162.807
 30
7.35129e-018
  70
    32
  0
VERTEX
  8
0
  5
8915
 10
76.6948
 20
162.804
 30
5.51734e-018
  70
    32
  0
VERTEX
  8
0
  5
8916
 10
76.7132
 20
162.802
 30
3.68008e-018
  70
    32
  0
VERTEX
  8
0
  5
8917
 10
76.7316
 20
162.800
 30
1.84059e-018
  70
    32
  0
VERTEX
  8
0
  5
8918
 10
76.7500
 20
162.800
 30
1.09105e-031
  70
    32
  0
SEQEND
  8
0
  5
8919
  0
ARC
  5
831D
  8
0
 10
106.83145782955
 20
197.9999996647
 30
0.0
 40
3.3734499999999912
 50
0.0
 51
71.025805836609265
  0
ARC
  5
831E
  8
0
 10
106.83145782955
 20
197.9999996647
 30
0.0
 40
3.373449999999993
 50
289.27478857587579
 51
0.0
  0
ARC
  5
831F
  8
0
 10
96.584271085250066
 20
197.9999996647
 30
0.0
 40
3.373449999999993
 50
97.358679769813278
 51
261.71991366639338
  0
LINE
  5
8320
  8
0
 10
64.999999851050063
 20
180.49999952319999
 30
0.0
 11
64.999999851050006
 21
170.4999996885
 31
0.0
  0
LINE
  5
8322
  8
0
 10
135.00000014905001
 20
170.4999996885
 30
0.0
 11
135.00000014905001
 21
180.49999952319999
 31
0.0
  0
LINE
  5
8324
  8
0
 10
64.999999851050006
 20
170.4999996885
 30
0.0
 11
65.500000864250012
 21
169.9999996647
 31
0.0
  0
LINE
  5
8325
  8
0
 10
134.49999913574999
 20
169.9999996647
 30
0.0
 11
135.00000014905001
 21
170.4999996885
 31
0.0
  0
LINE
  5
8326
  8
0
 10
123.58682453634999
 20
169.9153002203
 30
0.0
 11
123.55433069175
 21
169.9999996647
 31
0.0
  0
LINE
  5
8327
  8
0
 10
76.445669308350034
 20
169.9999996647
 30
0.0
 11
76.413175463750008
 21
169.9153002203
 31
0.0
  0
LINE
  5
8328
  8
0
 10
75.999999791450023
 20
162.79999978839999
 30
0.0
 11
75.999999791450023
 21
160.24999946360001
 31
0.0
  0
LINE
  5
8329
  8
0
 10
124.00000020864999
 20
160.24999946360001
 30
0.0
 11
124.00000020864999
 21
162.79999978839999
 31
0.0
  0
LINE
  5
832A
  8
0
 10
75.999999791450023
 20
169.12159885509999
 30
0.0
 11
75.999999791450023
 21
165.49999985849999
 31
0.0
  0
LINE
  5
832B
  8
0
 10
124.00000020864999
 20
165.49999985849999
 30
0.0
 11
124.00000020864999
 21
169.12159885509999
 31
0.0
  0
LINE
  5
832C
  8
0
 10
75.999999791450023
 20
160.24999946360001
 30
0.0
 11
76.250000298050054
 21
159.99999988830001
 31
0.0
  0
LINE
  5
832D
  8
0
 10
123.74999970205
 20
159.99999988830001
 30
0.0
 11
124.00000020864999
 21
160.24999946360001
 31
0.0
  0
LINE
  5
832E
  8
0
 10
124.00000020864999
 20
169.12159885509999
 30
0.0
 11
123.58682453634999
 21
169.9153002203
 31
0.0
  0
LINE
  5
832F
  8
0
 10
76.413175463750008
 20
169.9153002203
 30
0.0
 11
75.999999791450023
 21
169.12159885509999
 31
0.0
  0
LINE
  5
8330
  8
0
 10
76.250000298050054
 20
155.50000008200001
 30
0.0
 11
76.749999448649987
 21
155.0
 31
0.0
  0
LINE
  5
8331
  8
0
 10
123.25000055135
 20
155.0
 30
0.0
 11
123.74999970205
 21
155.50000008200001
 31
0.0
  0
LINE
  5
8332
  8
0
 10
76.250000298050054
 20
159.99999988830001
 30
0.0
 11
76.250000298050054
 21
155.50000008200001
 31
0.0
  0
LINE
  5
8333
  8
0
 10
123.74999970205
 20
155.50000008200001
 30
0.0
 11
123.74999970205
 21
159.99999988830001
 31
0.0
  0
LINE
  5
8334
  8
0
 10
65.500000864250012
 20
180.99999960509999
 30
0.0
 11
64.999999851050006
 21
180.49999952319999
 31
0.0
  0
LINE
  5
8335
  8
0
 10
135.00000014905001
 20
180.49999952319999
 30
0.0
 11
134.49999913574999
 21
180.99999960509999
 31
0.0
  0
LINE
  5
8336
  8
0
 10
119.50000040235
 20
181.4999996871
 30
0.0
 11
118.99999938905
 21
181.999999769
 31
0.0
  0
LINE
  5
8337
  8
0
 10
81.000000610949996
 20
181.999999769
 30
0.0
 11
80.499999597650003
 21
181.4999996871
 31
0.0
  0
LINE
  5
8338
  8
0
 10
119.50000040235
 20
180.99999960509999
 30
0.0
 11
119.50000040235
 21
181.4999996871
 31
0.0
  0
LINE
  5
8339
  8
0
 10
80.499999597650003
 20
181.4999996871
 30
0.0
 11
80.499999597650003
 21
180.99999960509999
 31
0.0
  0
LINE
  5
833A
  8
0
 10
109.99999977655
 20
189.50000006709999
 30
0.0
 11
109.49999969455
 21
189.99999921770001
 31
0.0
  0
LINE
  5
833B
  8
0
 10
90.500000305550017
 20
189.99999921770001
 30
0.0
 11
90.000000223550046
 21
189.50000006709999
 31
0.0
  0
LINE
  5
833C
  8
0
 10
90.000000223550046
 20
182.30250451719999
 30
0.0
 11
90.157473832350036
 21
181.999999769
 31
0.0
  0
LINE
  5
833D
  8
0
 10
109.84252616765001
 20
181.999999769
 30
0.0
 11
109.99999977655
 21
182.30250451719999
 31
0.0
  0
LINE
  5
833E
  8
0
 10
90.000000223550046
 20
189.50000006709999
 30
0.0
 11
90.000000223550046
 21
182.30250451719999
 31
0.0
  0
LINE
  5
833F
  8
0
 10
109.99999977655
 20
182.30250451719999
 30
0.0
 11
109.99999977655
 21
189.50000006709999
 31
0.0
  0
ARC
  5
8340
  8
0
 10
108.40000000005
 20
190.3999996647
 30
0.0
 40
0.3999999999999773
 50
180.0
 51
270.0
  0
ARC
  5
8341
  8
0
 10
91.600000000050045
 20
190.3999996647
 30
0.0
 40
0.3999999999999773
 50
270.0
 51
0.0
  0
ARC
  5
8342
  8
0
 10
106.00000000004999
 20
202.9999996647
 30
0.0
 40
2.0
 50
0.0
 51
90.0
  0
ARC
  5
8343
  8
0
 10
94.000000000050022
 20
202.9999996647
 30
0.0
 40
2.0
 50
90.0
 51
180.0
  0
LINE
  5
8344
  8
0
 10
91.999999620050076
 20
202.99999948589999
 30
0.0
 11
91.999999620050076
 21
190.40000040090001
 31
0.0
  0
LINE
  5
8345
  8
0
 10
108.00000038005
 20
201.35000135749999
 30
0.0
 11
108.00000038005
 21
202.99999948589999
 31
0.0
  0
LINE
  5
8346
  8
0
 10
108.00000038005
 20
190.40000040090001
 30
0.0
 11
108.00000038005
 21
194.6939357743
 31
0.0
  0
LINE
  5
834B
  8
0
 10
121.16100490095
 20
180.49999952319999
 30
0.0
 11
120.8041016012501
 21
180.99999960509999
 31
0.0
  0
LINE
  5
834D
  8
0
 10
79.195898398750046
 20
180.99999960509999
 30
0.0
 11
78.83899509905001
 21
180.49999952319999
 31
0.0
  0
LINE
  5
834F
  8
0
 10
72.121480852350032
 20
180.49999952319999
 30
0.0
 11
72.121480852350032
 21
174.99999955300001
 31
0.0
  0
LINE
  5
8350
  8
0
 10
72.121480852350032
 20
174.99999955300001
 30
0.0
 11
78.83899509905001
 21
174.99999955300001
 31
0.0
  0
LINE
  5
8351
  8
0
 10
78.83899509905001
 20
174.99999955300001
 30
0.0
 11
78.83899509905001
 21
180.49999952319999
 31
0.0
  0
LINE
  5
8352
  8
0
 10
121.16100490095
 20
180.49999952319999
 30
0.0
 11
121.16100490095
 21
174.99999955300001
 31
0.0
  0
LINE
  5
8353
  8
0
 10
121.16100490095
 20
174.99999955300001
 30
0.0
 11
127.87851914765
 21
174.99999955300001
 31
0.0
  0
LINE
  5
8354
  8
0
 10
127.87851914765
 20
174.99999955300001
 30
0.0
 11
127.87851914765
 21
180.49999952319999
 31
0.0
  0
LINE
  5
835C
  8
0
 10
134.49999913574999
 20
169.9999996647
 30
0.0
 11
65.500000864250069
 21
169.9999996647
 31
0.0
  0
LINE
  5
835F
  8
0
 10
75.999999791449966
 20
162.79999978839999
 30
0.0
 11
124.00000020864999
 21
162.79999978839999
 31
0.0
  0
LINE
  5
8363
  8
0
 10
75.999999791450023
 20
165.49999985849999
 30
0.0
 11
124.00000020864999
 21
165.49999985849999
 31
0.0
  0
LINE
  5
8366
  8
0
 10
76.250000298050054
 20
159.99999988830001
 30
0.0
 11
123.74999970205
 21
159.99999988830001
 31
0.0
  0
LINE
  5
836B
  8
0
 10
123.25000055135
 20
155.0
 30
0.0
 11
76.74999944864993
 21
155.0
 31
0.0
  0
LINE
  5
836C
  8
0
 10
72.121480852350032
 20
180.49999952319999
 30
0.0
 11
72.478384152050012
 21
180.99999960509999
 31
0.0
  0
LINE
  5
836D
  8
0
 10
134.4999991357501
 20
180.99999960509999
 30
0.0
 11
65.500000864250012
 21
180.99999960509999
 31
0.0
  0
LINE
  5
836F
  8
0
 10
127.52161584795
 20
180.99999960509999
 30
0.0
 11
127.87851914765
 21
180.49999952319999
 31
0.0
  0
LINE
  5
8373
  8
0
 10
81.000000610949996
 20
181.999999769
 30
0.0
 11
118.99999938905
 21
181.999999769
 31
0.0
  0
LINE
  5
8374
  8
0
 10
90.500000305550017
 20
189.99999921770001
 30
0.0
 11
109.49999969455
 21
189.99999921770001
 31
0.0
  0
ARC
  5
8377
  8
0
 10
95.902366701650067
 20
197.9999995977
 30
0.0
 40
3.3596275031819229
 50
296.66995308089889
 51
63.330046919101079
  0
POLYLINE
  5
8378
  8
0
 66
     1
 10
0.0
 20
0.0
 30
0.0
 70
   128
  0
VERTEX
  5
880E
  8
0
 10
94.7396628558771
 20
200.97405437384589
 30
0.0
  0
VERTEX
  5
880F
  8
0
 10
94.062566198450043
 20
200.3093936667
 30
0.0
  0
VERTEX
  5
8810
  8
0
 10
93.998617025435692
 20
200.1666925329823
 30
0.0
  0
SEQEND
  5
8811
  8
0
  0
POLYLINE
  5
8379
  8
0
 66
     1
 10
0.0
 20
0.0
 30
0.0
 70
   128
  0
VERTEX
  5
8812
  8
0
 10
94.067867081238774
 20
195.7532518392652
 30
0.0
  0
VERTEX
  5
8813
  8
0
 10
94.285279419350047
 20
195.39835277949999
 30
0.0
  0
VERTEX
  5
8814
  8
0
 10
94.739662855875906
 20
195.0259448215931
 30
0.0
  0
SEQEND
  5
8815
  8
0
  0
LINE
  5
837A
  8
0
 10
93.999999947850029
 20
204.9999998138
 30
0.0
 11
106.00000005215
 21
204.9999998138
 31
0.0
  0
ARC
  5
837B
  8
0
 10
96.099987632966247
 20
197.38409454555551
 30
0.0
 40
2.7223801387370119
 50
240.02102616487511
 51
298.77196897927911
  0
ARC
  5
837E
  8
0
 10
96.099353301574695
 20
198.67612506301401
 30
0.0
 40
2.6700631501335801
 50
60.594097071569671
 51
120.6129077826054
  0
ARC
  5
8384
  8
0
 10
115.20634691514149
 20
198.0219685658999
 30
0.0
 40
7.937709533977114
 50
155.21157683412969
 51
204.78842316586989
  0
ARC
  5
838D
  8
0
 10
106.8314578295
 20
269.9999998138
 30
0.0
 40
3.3734500000000041
 50
277.41840257179848
 51
82.581597428201448
  0
ARC
  5
838E
  8
0
 10
96.584271085200044
 20
275.9162158391
 30
0.0
 40
3.3734500000000169
 50
37.418402571799547
 51
202.58159742820061
  0
ARC
  5
838F
  8
0
 10
96.584271085200044
 20
264.0837837885
 30
0.0
 40
3.3734499999999952
 50
157.41840257179911
 51
322.58159742820038
  0
CIRCLE
  5
8396
  8
0
 10
100.0
 20
269.9999998138
 30
0.0
 40
8.0
  0
ARC
  5
839B
  8
0
 10
100.0
 20
269.9999998138
 30
0.0
 40
10.000000000000011
 50
8.0325963804995055
 51
90.0
  0
ARC
  5
839C
  8
0
 10
100.0
 20
269.9999998138
 30
0.0
 40
9.9999999999999982
 50
248.03259638050099
 51
351.96740361950032
  0
ARC
  5
839D
  8
0
 10
100.0
 20
269.9999998138
 30
0.0
 40
9.9999999999999911
 50
128.0325963804984
 51
231.96740361950151
  0
ARC
  5
839E
  8
0
 10
100.0
 20
269.9999998138
 30
0.0
 40
10.0
 50
90.0
 51
111.967403619499
  0
CIRCLE
  5
839F
  8
0
 10
83.499999999999986
 20
269.9999998138
 30
0.0
 40
0.75
  0
CIRCLE
  5
83A1
  8
0
 10
100.0
 20
269.9999998138
 30
0.0
 40
11.99999999999997
  0
CIRCLE
  5
83A2
  8
0
 10
100.0
 20
269.9999998138
 30
0.0
 40
19.499999999999972
  0
ARC
  5
83A3
  8
0
 10
78.786796564399992
 20
291.21320324940001
 30
0.0
 40
4.7500000000000178
 50
224.99999999999969
 51
44.999999999999709
  0
LINE
  5
83A4
  8
0
 10
82.145553454700007
 20
294.57196060580009
 30
0.0
 11
78.838994673718787
 21
297.87851938678131
 31
0.0
  0
LINE
  5
83A6
  8
0
 10
121.1610053262244
 20
297.87851938682439
 30
0.0
 11
117.85444654520001
 21
294.57196060580009
 31
0.0
  0
ARC
  5
83A7
  8
0
 10
121.21320343559999
 20
291.21320324940001
 30
0.0
 40
4.7500000000000382
 50
135.00000000000031
 51
315.00000000000023
  0
LINE
  5
83A8
  8
0
 10
124.5719607919
 20
287.8544463591
 30
0.0
 11
127.878519572938
 21
291.16100514013817
 31
0.0
  0
LINE
  5
83AA
  8
0
 10
127.8785195729812
 20
248.83899448751879
 30
0.0
 11
124.5719607919
 21
252.1455532686
 31
0.0
  0
ARC
  5
83AB
  8
0
 10
121.21320343559999
 20
248.78679637819999
 30
0.0
 40
4.7499999999999982
 50
44.999999999999709
 51
224.99999999999969
  0
LINE
  5
83AC
  8
0
 10
117.85444654520001
 20
245.42803902189999
 30
0.0
 11
121.1610053262812
 21
242.12148024081881
 31
0.0
  0
LINE
  5
83AE
  8
0
 10
78.838994673661887
 20
242.1214802408619
 30
0.0
 11
82.145553454700007
 21
245.42803902189999
 31
0.0
  0
ARC
  5
83AF
  8
0
 10
78.786796564399992
 20
248.78679637819999
 30
0.0
 40
4.7500000000000178
 50
315.00000000000023
 51
135.00000000000031
  0
LINE
  5
83B0
  8
0
 10
75.428039207999973
 20
252.1455532686
 30
0.0
 11
72.121480426975609
 21
248.8389944875756
 31
0.0
  0
LINE
  5
83B2
  8
0
 10
72.12148042701881
 20
291.16100514008122
 30
0.0
 11
75.428805173237265
 21
287.85368039386282
 31
0.0
  0
CIRCLE
  5
83B3
  8
0
 10
100.0
 20
269.9999998138
 30
0.0
 40
23.999999999999972
  0
CIRCLE
  5
83B7
  8
0
 10
100.0
 20
269.9999998138
 30
0.0
 40
22.999999999999972
  0
CIRCLE
  5
83C5
  8
0
 10
121.21320343559999
 20
291.21320324940001
 30
0.0
 40
2.599999999999965
  0
CIRCLE
  5
83C6
  8
0
 10
78.786796564399992
 20
291.21320324940001
 30
0.0
 40
2.599999999999965
  0
CIRCLE
  5
83CB
  8
0
 10
121.21320343559999
 20
248.78679637819999
 30
0.0
 40
2.599999999999993
  0
CIRCLE
  5
83CC
  8
0
 10
78.786796564399992
 20
248.78679637819999
 30
0.0
 40
2.599999999999993
  0
CIRCLE
  5
83D7
  8
0
 10
70.0
 20
90.000000000000014
 30
0.0
 40
1.7000000000000031
  0
CIRCLE
  5
83D8
  8
0
 10
130.0
 20
90.000000000000014
 30
0.0
 40
1.6999999999999891
  0
CIRCLE
  5
83DD
  8
0
 10
108.36455974179999
 20
72.440482913099999
 30
0.0
 40
1.2499999999999141
  0
LINE
  5
83DE
  8
0
 10
94.218181352999977
 20
69.811623692599994
 30
0.0
 11
94.589863345000026
 21
71.919538229699995
 31
0.0
  0
ARC
  5
83DF
  8
0
 10
91.635440258100004
 20
72.440482913099999
 30
0.0
 40
3.0000000000000222
 50
349.99999999999977
 51
126.83290058510021
  0
ARC
  5
83E0
  8
0
 10
100.0
 20
89.999999999999986
 30
0.0
 40
18.25
 50
303.84011202050073
 51
236.1598879794993
  0
ARC
  5
83E1
  8
0
 10
108.36455974179999
 20
72.440482913099999
 30
0.0
 40
3.0000000000000222
 50
53.167099414899781
 51
190.0000000000002
  0
LINE
  5
83E2
  8
0
 10
105.410136655
 20
71.919538229699995
 30
0.0
 11
105.78181864689989
 21
69.811623692599994
 31
0.0
  0
CIRCLE
  5
83E3
  8
0
 10
91.635440258100004
 20
72.440482913099999
 30
0.0
 40
1.2499999999999141
  0
CIRCLE
  5
83E9
  8
0
 10
100.0
 20
90.000000000000014
 30
0.0
 40
4.0
  0
CIRCLE
  5
83EB
  8
0
 10
100.0
 20
90.000000000000014
 30
0.0
 40
1.650000000000005
  0
CIRCLE
  5
83EC
  8
0
 10
100.0
 20
90.000000000000014
 30
0.0
 40
23.749999999999989
  0
CIRCLE
  5
83ED
  8
0
 10
100.0
 20
90.000000000000014
 30
0.0
 40
23.249999999999989
  0
CIRCLE
  5
83EF
  8
0
 10
100.0
 20
90.000000000000014
 30
0.0
 40
21.0
  0
CIRCLE
  5
83F0
  8
0
 10
100.0
 20
90.000000000000014
 30
0.0
 40
23.999999999999989
  0
CIRCLE
  5
83F1
  8
0
 10
100.0
 20
90.000000000000014
 30
0.0
 40
35.0
  0
CIRCLE
  5
83F7
  8
0
 10
130.0
 20
90.000000000000014
 30
0.0
 40
3.6000000000000081
  0
CIRCLE
  5
83F8
  8
0
 10
70.0
 20
90.000000000000014
 30
0.0
 40
3.599999999999993
  0
CIRCLE
  5
83FA
  8
0
 10
121.21320343559999
 20
68.786796564400007
 30
0.0
 40
2.6000000000000001
  0
CIRCLE
  5
83FB
  8
0
 10
78.786796564399992
 20
68.786796564400007
 30
0.0
 40
2.6000000000000001
  0
CIRCLE
  5
83FC
  8
0
 10
121.21320343559999
 20
111.21320343559999
 30
0.0
 40
2.599999999999993
  0
CIRCLE
  5
83FD
  8
0
 10
78.786796564399992
 20
111.21320343559999
 30
0.0
 40
2.600000000000009
  0
CIRCLE
  5
83FE
  8
0
 10
70.0
 20
90.000000000000014
 30
0.0
 40
1.0000000000000131
  0
CIRCLE
  5
83FF
  8
0
 10
130.0
 20
90.000000000000014
 30
0.0
 40
1.0
  0
POLYLINE
  5
8401
  8
0
 10
243.25000014899999
 20
162.79999966470001
 30
0.0
 66
     1
 70
     8
  0
VERTEX
  8
0
  5
891A
 10
243.250
 20
162.800
 30
1.08418e-030
  70
    32
  0
VERTEX
  8
0
  5
891B
 10
243.268
 20
162.800
 30
-3.68118e-018
  70
    32
  0
VERTEX
  8
0
  5
891C
 10
243.287
 20
162.802
 30
-7.36015e-018
  70
    32
  0
VERTEX
  8
0
  5
891D
 10
243.305
 20
162.804
 30
-1.10347e-017
  70
    32
  0
VERTEX
  8
0
  5
891E
 10
243.324
 20
162.807
 30
-1.47026e-017
  70
    32
  0
VERTEX
  8
0
  5
891F
 10
243.342
 20
162.810
 30
-1.83616e-017
  70
    32
  0
VERTEX
  8
0
  5
8920
 10
243.360
 20
162.815
 30
-2.20096e-017
  70
    32
  0
VERTEX
  8
0
  5
8921
 10
243.378
 20
162.820
 30
-2.56443e-017
  70
    32
  0
VERTEX
  8
0
  5
8922
 10
243.396
 20
162.826
 30
-2.92635e-017
  70
    32
  0
VERTEX
  8
0
  5
8923
 10
243.414
 20
162.833
 30
-3.28652e-017
  70
    32
  0
VERTEX
  8
0
  5
8924
 10
243.432
 20
162.840
 30
-3.64470e-017
  70
    32
  0
VERTEX
  8
0
  5
8925
 10
243.450
 20
162.849
 30
-4.00069e-017
  70
    32
  0
VERTEX
  8
0
  5
8926
 10
243.468
 20
162.858
 30
-4.35427e-017
  70
    32
  0
VERTEX
  8
0
  5
8927
 10
243.485
 20
162.868
 30
-4.70523e-017
  70
    32
  0
VERTEX
  8
0
  5
8928
 10
243.503
 20
162.879
 30
-5.05335e-017
  70
    32
  0
VERTEX
  8
0
  5
8929
 10
243.520
 20
162.890
 30
-5.39843e-017
  70
    32
  0
VERTEX
  8
0
  5
892A
 10
243.537
 20
162.903
 30
-5.74025e-017
  70
    32
  0
VERTEX
  8
0
  5
892B
 10
243.554
 20
162.916
 30
-6.07862e-017
  70
    32
  0
VERTEX
  8
0
  5
892C
 10
243.571
 20
162.930
 30
-6.41333e-017
  70
    32
  0
VERTEX
  8
0
  5
892D
 10
243.587
 20
162.944
 30
-6.74417e-017
  70
    32
  0
VERTEX
  8
0
  5
892E
 10
243.604
 20
162.959
 30
-7.07095e-017
  70
    32
  0
VERTEX
  8
0
  5
892F
 10
243.620
 20
162.975
 30
-7.39347e-017
  70
    32
  0
VERTEX
  8
0
  5
8930
 10
243.636
 20
162.992
 30
-7.71154e-017
  70
    32
  0
VERTEX
  8
0
  5
8931
 10
243.651
 20
163.009
 30
-8.02496e-017
  70
    32
  0
VERTEX
  8
0
  5
8932
 10
243.667
 20
163.028
 30
-8.33355e-017
  70
    32
  0
VERTEX
  8
0
  5
8933
 10
243.682
 20
163.046
 30
-8.63712e-017
  70
    32
  0
VERTEX
  8
0
  5
8934
 10
243.697
 20
163.066
 30
-8.93549e-017
  70
    32
  0
VERTEX
  8
0
  5
8935
 10
243.711
 20
163.086
 30
-9.22847e-017
  70
    32
  0
VERTEX
  8
0
  5
8936
 10
243.726
 20
163.106
 30
-9.51590e-017
  70
    32
  0
VERTEX
  8
0
  5
8937
 10
243.740
 20
163.128
 30
-9.79759e-017
  70
    32
  0
VERTEX
  8
0
  5
8938
 10
243.754
 20
163.150
 30
-1.00734e-016
  70
    32
  0
VERTEX
  8
0
  5
8939
 10
243.767
 20
163.172
 30
-1.03431e-016
  70
    32
  0
VERTEX
  8
0
  5
893A
 10
243.780
 20
163.195
 30
-1.06066e-016
  70
    32
  0
VERTEX
  8
0
  5
893B
 10
243.793
 20
163.219
 30
-1.08637e-016
  70
    32
  0
VERTEX
  8
0
  5
893C
 10
243.806
 20
163.243
 30
-1.11143e-016
  70
    32
  0
VERTEX
  8
0
  5
893D
 10
243.818
 20
163.268
 30
-1.13581e-016
  70
    32
  0
VERTEX
  8
0
  5
893E
 10
243.830
 20
163.294
 30
-1.15952e-016
  70
    32
  0
VERTEX
  8
0
  5
893F
 10
243.841
 20
163.319
 30
-1.18252e-016
  70
    32
  0
VERTEX
  8
0
  5
8940
 10
243.852
 20
163.346
 30
-1.20481e-016
  70
    32
  0
VERTEX
  8
0
  5
8941
 10
243.863
 20
163.373
 30
-1.22638e-016
  70
    32
  0
VERTEX
  8
0
  5
8942
 10
243.874
 20
163.400
 30
-1.24720e-016
  70
    32
  0
VERTEX
  8
0
  5
8943
 10
243.884
 20
163.428
 30
-1.26728e-016
  70
    32
  0
VERTEX
  8
0
  5
8944
 10
243.893
 20
163.456
 30
-1.28659e-016
  70
    32
  0
VERTEX
  8
0
  5
8945
 10
243.903
 20
163.485
 30
-1.30513e-016
  70
    32
  0
VERTEX
  8
0
  5
8946
 10
243.911
 20
163.514
 30
-1.32288e-016
  70
    32
  0
VERTEX
  8
0
  5
8947
 10
243.920
 20
163.543
 30
-1.33984e-016
  70
    32
  0
VERTEX
  8
0
  5
8948
 10
243.928
 20
163.573
 30
-1.35598e-016
  70
    32
  0
VERTEX
  8
0
  5
8949
 10
243.936
 20
163.603
 30
-1.37131e-016
  70
    32
  0
VERTEX
  8
0
  5
894A
 10
243.943
 20
163.633
 30
-1.38582e-016
  70
    32
  0
VERTEX
  8
0
  5
894B
 10
243.950
 20
163.664
 30
-1.39949e-016
  70
    32
  0
VERTEX
  8
0
  5
894C
 10
243.956
 20
163.695
 30
-1.41232e-016
  70
    32
  0
VERTEX
  8
0
  5
894D
 10
243.962
 20
163.727
 30
-1.42429e-016
  70
    32
  0
VERTEX
  8
0
  5
894E
 10
243.968
 20
163.758
 30
-1.43541e-016
  70
    32
  0
VERTEX
  8
0
  5
894F
 10
243.973
 20
163.790
 30
-1.44566e-016
  70
    32
  0
VERTEX
  8
0
  5
8950
 10
243.978
 20
163.822
 30
-1.45505e-016
  70
    32
  0
VERTEX
  8
0
  5
8951
 10
243.982
 20
163.854
 30
-1.46355e-016
  70
    32
  0
VERTEX
  8
0
  5
8952
 10
243.986
 20
163.887
 30
-1.47118e-016
  70
    32
  0
VERTEX
  8
0
  5
8953
 10
243.989
 20
163.919
 30
-1.47792e-016
  70
    32
  0
VERTEX
  8
0
  5
8954
 10
243.992
 20
163.952
 30
-1.48376e-016
  70
    32
  0
VERTEX
  8
0
  5
8955
 10
243.994
 20
163.985
 30
-1.48872e-016
  70
    32
  0
VERTEX
  8
0
  5
8956
 10
243.996
 20
164.018
 30
-1.49278e-016
  70
    32
  0
VERTEX
  8
0
  5
8957
 10
243.998
 20
164.051
 30
-1.49594e-016
  70
    32
  0
VERTEX
  8
0
  5
8958
 10
243.999
 20
164.084
 30
-1.49819e-016
  70
    32
  0
VERTEX
  8
0
  5
8959
 10
244.000
 20
164.117
 30
-1.49955e-016
  70
    32
  0
VERTEX
  8
0
  5
895A
 10
244.000
 20
164.150
 30
-1.50000e-016
  70
    32
  0
VERTEX
  8
0
  5
895B
 10
244.000
 20
164.183
 30
-1.49955e-016
  70
    32
  0
VERTEX
  8
0
  5
895C
 10
243.999
 20
164.216
 30
-1.49819e-016
  70
    32
  0
VERTEX
  8
0
  5
895D
 10
243.998
 20
164.249
 30
-1.49594e-016
  70
    32
  0
VERTEX
  8
0
  5
895E
 10
243.996
 20
164.282
 30
-1.49278e-016
  70
    32
  0
VERTEX
  8
0
  5
895F
 10
243.994
 20
164.315
 30
-1.48872e-016
  70
    32
  0
VERTEX
  8
0
  5
8960
 10
243.992
 20
164.348
 30
-1.48376e-016
  70
    32
  0
VERTEX
  8
0
  5
8961
 10
243.989
 20
164.381
 30
-1.47792e-016
  70
    32
  0
VERTEX
  8
0
  5
8962
 10
243.986
 20
164.413
 30
-1.47118e-016
  70
    32
  0
VERTEX
  8
0
  5
8963
 10
243.982
 20
164.446
 30
-1.46355e-016
  70
    32
  0
VERTEX
  8
0
  5
8964
 10
243.978
 20
164.478
 30
-1.45505e-016
  70
    32
  0
VERTEX
  8
0
  5
8965
 10
243.973
 20
164.510
 30
-1.44566e-016
  70
    32
  0
VERTEX
  8
0
  5
8966
 10
243.968
 20
164.542
 30
-1.43541e-016
  70
    32
  0
VERTEX
  8
0
  5
8967
 10
243.962
 20
164.573
 30
-1.42429e-016
  70
    32
  0
VERTEX
  8
0
  5
8968
 10
243.956
 20
164.605
 30
-1.41232e-016
  70
    32
  0
VERTEX
  8
0
  5
8969
 10
243.950
 20
164.636
 30
-1.39949e-016
  70
    32
  0
VERTEX
  8
0
  5
896A
 10
243.943
 20
164.667
 30
-1.38582e-016
  70
    32
  0
VERTEX
  8
0
  5
896B
 10
243.936
 20
164.697
 30
-1.37131e-016
  70
    32
  0
VERTEX
  8
0
  5
896C
 10
243.928
 20
164.727
 30
-1.35598e-016
  70
    32
  0
VERTEX
  8
0
  5
896D
 10
243.920
 20
164.757
 30
-1.33984e-016
  70
    32
  0
VERTEX
  8
0
  5
896E
 10
243.911
 20
164.786
 30
-1.32288e-016
  70
    32
  0
VERTEX
  8
0
  5
896F
 10
243.903
 20
164.815
 30
-1.30513e-016
  70
    32
  0
VERTEX
  8
0
  5
8970
 10
243.893
 20
164.844
 30
-1.28659e-016
  70
    32
  0
VERTEX
  8
0
  5
8971
 10
243.884
 20
164.872
 30
-1.26728e-016
  70
    32
  0
VERTEX
  8
0
  5
8972
 10
243.874
 20
164.900
 30
-1.24720e-016
  70
    32
  0
VERTEX
  8
0
  5
8973
 10
243.863
 20
164.927
 30
-1.22638e-016
  70
    32
  0
VERTEX
  8
0
  5
8974
 10
243.852
 20
164.954
 30
-1.20481e-016
  70
    32
  0
VERTEX
  8
0
  5
8975
 10
243.841
 20
164.981
 30
-1.18252e-016
  70
    32
  0
VERTEX
  8
0
  5
8976
 10
243.830
 20
165.006
 30
-1.15952e-016
  70
    32
  0
VERTEX
  8
0
  5
8977
 10
243.818
 20
165.032
 30
-1.13581e-016
  70
    32
  0
VERTEX
  8
0
  5
8978
 10
243.806
 20
165.057
 30
-1.11143e-016
  70
    32
  0
VERTEX
  8
0
  5
8979
 10
243.793
 20
165.081
 30
-1.08637e-016
  70
    32
  0
VERTEX
  8
0
  5
897A
 10
243.780
 20
165.105
 30
-1.06066e-016
  70
    32
  0
VERTEX
  8
0
  5
897B
 10
243.767
 20
165.128
 30
-1.03431e-016
  70
    32
  0
VERTEX
  8
0
  5
897C
 10
243.754
 20
165.150
 30
-1.00734e-016
  70
    32
  0
VERTEX
  8
0
  5
897D
 10
243.740
 20
165.172
 30
-9.79759e-017
  70
    32
  0
VERTEX
  8
0
  5
897E
 10
243.726
 20
165.194
 30
-9.51590e-017
  70
    32
  0
VERTEX
  8
0
  5
897F
 10
243.711
 20
165.214
 30
-9.22847e-017
  70
    32
  0
VERTEX
  8
0
  5
8980
 10
243.697
 20
165.234
 30
-8.93549e-017
  70
    32
  0
VERTEX
  8
0
  5
8981
 10
243.682
 20
165.254
 30
-8.63712e-017
  70
    32
  0
VERTEX
  8
0
  5
8982
 10
243.667
 20
165.272
 30
-8.33355e-017
  70
    32
  0
VERTEX
  8
0
  5
8983
 10
243.651
 20
165.291
 30
-8.02496e-017
  70
    32
  0
VERTEX
  8
0
  5
8984
 10
243.636
 20
165.308
 30
-7.71154e-017
  70
    32
  0
VERTEX
  8
0
  5
8985
 10
243.620
 20
165.325
 30
-7.39347e-017
  70
    32
  0
VERTEX
  8
0
  5
8986
 10
243.604
 20
165.341
 30
-7.07095e-017
  70
    32
  0
VERTEX
  8
0
  5
8987
 10
243.587
 20
165.356
 30
-6.74417e-017
  70
    32
  0
VERTEX
  8
0
  5
8988
 10
243.571
 20
165.370
 30
-6.41333e-017
  70
    32
  0
VERTEX
  8
0
  5
8989
 10
243.554
 20
165.384
 30
-6.07862e-017
  70
    32
  0
VERTEX
  8
0
  5
898A
 10
243.537
 20
165.397
 30
-5.74025e-017
  70
    32
  0
VERTEX
  8
0
  5
898B
 10
243.520
 20
165.410
 30
-5.39843e-017
  70
    32
  0
VERTEX
  8
0
  5
898C
 10
243.503
 20
165.421
 30
-5.05335e-017
  70
    32
  0
VERTEX
  8
0
  5
898D
 10
243.485
 20
165.432
 30
-4.70523e-017
  70
    32
  0
VERTEX
  8
0
  5
898E
 10
243.468
 20
165.442
 30
-4.35427e-017
  70
    32
  0
VERTEX
  8
0
  5
898F
 10
243.450
 20
165.451
 30
-4.00069e-017
  70
    32
  0
VERTEX
  8
0
  5
8990
 10
243.432
 20
165.460
 30
-3.64470e-017
  70
    32
  0
VERTEX
  8
0
  5
8991
 10
243.414
 20
165.467
 30
-3.28652e-017
  70
    32
  0
VERTEX
  8
0
  5
8992
 10
243.396
 20
165.474
 30
-2.92635e-017
  70
    32
  0
VERTEX
  8
0
  5
8993
 10
243.378
 20
165.480
 30
-2.56443e-017
  70
    32
  0
VERTEX
  8
0
  5
8994
 10
243.360
 20
165.485
 30
-2.20096e-017
  70
    32
  0
VERTEX
  8
0
  5
8995
 10
243.342
 20
165.490
 30
-1.83616e-017
  70
    32
  0
VERTEX
  8
0
  5
8996
 10
243.324
 20
165.493
 30
-1.47026e-017
  70
    32
  0
VERTEX
  8
0
  5
8997
 10
243.305
 20
165.496
 30
-1.10347e-017
  70
    32
  0
VERTEX
  8
0
  5
8998
 10
243.287
 20
165.498
 30
-7.36015e-018
  70
    32
  0
VERTEX
  8
0
  5
8999
 10
243.268
 20
165.500
 30
-3.68118e-018
  70
    32
  0
VERTEX
  8
0
  5
899A
 10
243.250
 20
165.500
 30
-1.69966e-031
  70
    32
  0
SEQEND
  8
0
  5
899B
  0
POLYLINE
  5
8402
  8
0
 10
196.75000014899999
 20
165.4999996647
 30
0.0
 66
     1
 70
     8
  0
VERTEX
  8
0
  5
899C
 10
196.750
 20
165.500
 30
0.000000
  70
    32
  0
VERTEX
  8
0
  5
899D
 10
196.732
 20
165.500
 30
-1.84059e-018
  70
    32
  0
VERTEX
  8
0
  5
899E
 10
196.713
 20
165.498
 30
-3.68008e-018
  70
    32
  0
VERTEX
  8
0
  5
899F
 10
196.695
 20
165.496
 30
-5.51734e-018
  70
    32
  0
VERTEX
  8
0
  5
89A0
 10
196.676
 20
165.493
 30
-7.35129e-018
  70
    32
  0
VERTEX
  8
0
  5
89A1
 10
196.658
 20
165.490
 30
-9.18080e-018
  70
    32
  0
VERTEX
  8
0
  5
89A2
 10
196.640
 20
165.485
 30
-1.10048e-017
  70
    32
  0
VERTEX
  8
0
  5
89A3
 10
196.622
 20
165.480
 30
-1.28221e-017
  70
    32
  0
VERTEX
  8
0
  5
89A4
 10
196.604
 20
165.474
 30
-1.46318e-017
  70
    32
  0
VERTEX
  8
0
  5
89A5
 10
196.586
 20
165.467
 30
-1.64326e-017
  70
    32
  0
VERTEX
  8
0
  5
89A6
 10
196.568
 20
165.460
 30
-1.82235e-017
  70
    32
  0
VERTEX
  8
0
  5
89A7
 10
196.550
 20
165.451
 30
-2.00035e-017
  70
    32
  0
VERTEX
  8
0
  5
89A8
 10
196.532
 20
165.442
 30
-2.17714e-017
  70
    32
  0
VERTEX
  8
0
  5
89A9
 10
196.515
 20
165.432
 30
-2.35261e-017
  70
    32
  0
VERTEX
  8
0
  5
89AA
 10
196.497
 20
165.421
 30
-2.52667e-017
  70
    32
  0
VERTEX
  8
0
  5
89AB
 10
196.480
 20
165.410
 30
-2.69921e-017
  70
    32
  0
VERTEX
  8
0
  5
89AC
 10
196.463
 20
165.397
 30
-2.87013e-017
  70
    32
  0
VERTEX
  8
0
  5
89AD
 10
196.446
 20
165.384
 30
-3.03931e-017
  70
    32
  0
VERTEX
  8
0
  5
89AE
 10
196.429
 20
165.370
 30
-3.20666e-017
  70
    32
  0
VERTEX
  8
0
  5
89AF
 10
196.413
 20
165.356
 30
-3.37208e-017
  70
    32
  0
VERTEX
  8
0
  5
89B0
 10
196.396
 20
165.341
 30
-3.53548e-017
  70
    32
  0
VERTEX
  8
0
  5
89B1
 10
196.380
 20
165.325
 30
-3.69674e-017
  70
    32
  0
VERTEX
  8
0
  5
89B2
 10
196.364
 20
165.308
 30
-3.85577e-017
  70
    32
  0
VERTEX
  8
0
  5
89B3
 10
196.349
 20
165.291
 30
-4.01248e-017
  70
    32
  0
VERTEX
  8
0
  5
89B4
 10
196.333
 20
165.272
 30
-4.16678e-017
  70
    32
  0
VERTEX
  8
0
  5
89B5
 10
196.318
 20
165.254
 30
-4.31856e-017
  70
    32
  0
VERTEX
  8
0
  5
89B6
 10
196.303
 20
165.234
 30
-4.46774e-017
  70
    32
  0
VERTEX
  8
0
  5
89B7
 10
196.289
 20
165.214
 30
-4.61424e-017
  70
    32
  0
VERTEX
  8
0
  5
89B8
 10
196.274
 20
165.194
 30
-4.75795e-017
  70
    32
  0
VERTEX
  8
0
  5
89B9
 10
196.260
 20
165.172
 30
-4.89880e-017
  70
    32
  0
VERTEX
  8
0
  5
89BA
 10
196.246
 20
165.150
 30
-5.03669e-017
  70
    32
  0
VERTEX
  8
0
  5
89BB
 10
196.233
 20
165.128
 30
-5.17155e-017
  70
    32
  0
VERTEX
  8
0
  5
89BC
 10
196.220
 20
165.105
 30
-5.30330e-017
  70
    32
  0
VERTEX
  8
0
  5
89BD
 10
196.207
 20
165.081
 30
-5.43185e-017
  70
    32
  0
VERTEX
  8
0
  5
89BE
 10
196.194
 20
165.057
 30
-5.55713e-017
  70
    32
  0
VERTEX
  8
0
  5
89BF
 10
196.182
 20
165.032
 30
-5.67907e-017
  70
    32
  0
VERTEX
  8
0
  5
89C0
 10
196.170
 20
165.006
 30
-5.79758e-017
  70
    32
  0
VERTEX
  8
0
  5
89C1
 10
196.159
 20
164.981
 30
-5.91260e-017
  70
    32
  0
VERTEX
  8
0
  5
89C2
 10
196.148
 20
164.954
 30
-6.02406e-017
  70
    32
  0
VERTEX
  8
0
  5
89C3
 10
196.137
 20
164.927
 30
-6.13189e-017
  70
    32
  0
VERTEX
  8
0
  5
89C4
 10
196.126
 20
164.900
 30
-6.23602e-017
  70
    32
  0
VERTEX
  8
0
  5
89C5
 10
196.116
 20
164.872
 30
-6.33640e-017
  70
    32
  0
VERTEX
  8
0
  5
89C6
 10
196.107
 20
164.844
 30
-6.43296e-017
  70
    32
  0
VERTEX
  8
0
  5
89C7
 10
196.097
 20
164.815
 30
-6.52565e-017
  70
    32
  0
VERTEX
  8
0
  5
89C8
 10
196.089
 20
164.786
 30
-6.61441e-017
  70
    32
  0
VERTEX
  8
0
  5
89C9
 10
196.080
 20
164.757
 30
-6.69918e-017
  70
    32
  0
VERTEX
  8
0
  5
89CA
 10
196.072
 20
164.727
 30
-6.77992e-017
  70
    32
  0
VERTEX
  8
0
  5
89CB
 10
196.064
 20
164.697
 30
-6.85657e-017
  70
    32
  0
VERTEX
  8
0
  5
89CC
 10
196.057
 20
164.667
 30
-6.92910e-017
  70
    32
  0
VERTEX
  8
0
  5
89CD
 10
196.050
 20
164.636
 30
-6.99745e-017
  70
    32
  0
VERTEX
  8
0
  5
89CE
 10
196.044
 20
164.605
 30
-7.06158e-017
  70
    32
  0
VERTEX
  8
0
  5
89CF
 10
196.038
 20
164.573
 30
-7.12146e-017
  70
    32
  0
VERTEX
  8
0
  5
89D0
 10
196.032
 20
164.542
 30
-7.17705e-017
  70
    32
  0
VERTEX
  8
0
  5
89D1
 10
196.027
 20
164.510
 30
-7.22832e-017
  70
    32
  0
VERTEX
  8
0
  5
89D2
 10
196.022
 20
164.478
 30
-7.27523e-017
  70
    32
  0
VERTEX
  8
0
  5
89D3
 10
196.018
 20
164.446
 30
-7.31777e-017
  70
    32
  0
VERTEX
  8
0
  5
89D4
 10
196.014
 20
164.413
 30
-7.35589e-017
  70
    32
  0
VERTEX
  8
0
  5
89D5
 10
196.011
 20
164.381
 30
-7.38958e-017
  70
    32
  0
VERTEX
  8
0
  5
89D6
 10
196.008
 20
164.348
 30
-7.41882e-017
  70
    32
  0
VERTEX
  8
0
  5
89D7
 10
196.006
 20
164.315
 30
-7.44360e-017
  70
    32
  0
VERTEX
  8
0
  5
89D8
 10
196.004
 20
164.282
 30
-7.46389e-017
  70
    32
  0
VERTEX
  8
0
  5
89D9
 10
196.002
 20
164.249
 30
-7.47968e-017
  70
    32
  0
VERTEX
  8
0
  5
89DA
 10
196.001
 20
164.216
 30
-7.49097e-017
  70
    32
  0
VERTEX
  8
0
  5
89DB
 10
196.000
 20
164.183
 30
-7.49774e-017
  70
    32
  0
VERTEX
  8
0
  5
89DC
 10
196.000
 20
164.150
 30
-7.50000e-017
  70
    32
  0
VERTEX
  8
0
  5
89DD
 10
196.000
 20
164.117
 30
-7.49774e-017
  70
    32
  0
VERTEX
  8
0
  5
89DE
 10
196.001
 20
164.084
 30
-7.49097e-017
  70
    32
  0
VERTEX
  8
0
  5
89DF
 10
196.002
 20
164.051
 30
-7.47968e-017
  70
    32
  0
VERTEX
  8
0
  5
89E0
 10
196.004
 20
164.018
 30
-7.46389e-017
  70
    32
  0
VERTEX
  8
0
  5
89E1
 10
196.006
 20
163.985
 30
-7.44360e-017
  70
    32
  0
VERTEX
  8
0
  5
89E2
 10
196.008
 20
163.952
 30
-7.41882e-017
  70
    32
  0
VERTEX
  8
0
  5
89E3
 10
196.011
 20
163.919
 30
-7.38958e-017
  70
    32
  0
VERTEX
  8
0
  5
89E4
 10
196.014
 20
163.887
 30
-7.35589e-017
  70
    32
  0
VERTEX
  8
0
  5
89E5
 10
196.018
 20
163.854
 30
-7.31777e-017
  70
    32
  0
VERTEX
  8
0
  5
89E6
 10
196.022
 20
163.822
 30
-7.27523e-017
  70
    32
  0
VERTEX
  8
0
  5
89E7
 10
196.027
 20
163.790
 30
-7.22832e-017
  70
    32
  0
VERTEX
  8
0
  5
89E8
 10
196.032
 20
163.758
 30
-7.17705e-017
  70
    32
  0
VERTEX
  8
0
  5
89E9
 10
196.038
 20
163.727
 30
-7.12146e-017
  70
    32
  0
VERTEX
  8
0
  5
89EA
 10
196.044
 20
163.695
 30
-7.06158e-017
  70
    32
  0
VERTEX
  8
0
  5
89EB
 10
196.050
 20
163.664
 30
-6.99745e-017
  70
    32
  0
VERTEX
  8
0
  5
89EC
 10
196.057
 20
163.633
 30
-6.92910e-017
  70
    32
  0
VERTEX
  8
0
  5
89ED
 10
196.064
 20
163.603
 30
-6.85657e-017
  70
    32
  0
VERTEX
  8
0
  5
89EE
 10
196.072
 20
163.573
 30
-6.77992e-017
  70
    32
  0
VERTEX
  8
0
  5
89EF
 10
196.080
 20
163.543
 30
-6.69918e-017
  70
    32
  0
VERTEX
  8
0
  5
89F0
 10
196.089
 20
163.514
 30
-6.61441e-017
  70
    32
  0
VERTEX
  8
0
  5
89F1
 10
196.097
 20
163.485
 30
-6.52565e-017
  70
    32
  0
VERTEX
  8
0
  5
89F2
 10
196.107
 20
163.456
 30
-6.43296e-017
  70
    32
  0
VERTEX
  8
0
  5
89F3
 10
196.116
 20
163.428
 30
-6.33640e-017
  70
    32
  0
VERTEX
  8
0
  5
89F4
 10
196.126
 20
163.400
 30
-6.23602e-017
  70
    32
  0
VERTEX
  8
0
  5
89F5
 10
196.137
 20
163.373
 30
-6.13189e-017
  70
    32
  0
VERTEX
  8
0
  5
89F6
 10
196.148
 20
163.346
 30
-6.02406e-017
  70
    32
  0
VERTEX
  8
0
  5
89F7
 10
196.159
 20
163.319
 30
-5.91260e-017
  70
    32
  0
VERTEX
  8
0
  5
89F8
 10
196.170
 20
163.294
 30
-5.79758e-017
  70
    32
  0
VERTEX
  8
0
  5
89F9
 10
196.182
 20
163.268
 30
-5.67907e-017
  70
    32
  0
VERTEX
  8
0
  5
89FA
 10
196.194
 20
163.243
 30
-5.55713e-017
  70
    32
  0
VERTEX
  8
0
  5
89FB
 10
196.207
 20
163.219
 30
-5.43185e-017
  70
    32
  0
VERTEX
  8
0
  5
89FC
 10
196.220
 20
163.195
 30
-5.30330e-017
  70
    32
  0
VERTEX
  8
0
  5
89FD
 10
196.233
 20
163.172
 30
-5.17155e-017
  70
    32
  0
VERTEX
  8
0
  5
89FE
 10
196.246
 20
163.150
 30
-5.03669e-017
  70
    32
  0
VERTEX
  8
0
  5
89FF
 10
196.260
 20
163.128
 30
-4.89880e-017
  70
    32
  0
VERTEX
  8
0
  5
8A00
 10
196.274
 20
163.106
 30
-4.75795e-017
  70
    32
  0
VERTEX
  8
0
  5
8A01
 10
196.289
 20
163.086
 30
-4.61424e-017
  70
    32
  0
VERTEX
  8
0
  5
8A02
 10
196.303
 20
163.066
 30
-4.46774e-017
  70
    32
  0
VERTEX
  8
0
  5
8A03
 10
196.318
 20
163.046
 30
-4.31856e-017
  70
    32
  0
VERTEX
  8
0
  5
8A04
 10
196.333
 20
163.028
 30
-4.16678e-017
  70
    32
  0
VERTEX
  8
0
  5
8A05
 10
196.349
 20
163.009
 30
-4.01248e-017
  70
    32
  0
VERTEX
  8
0
  5
8A06
 10
196.364
 20
162.992
 30
-3.85577e-017
  70
    32
  0
VERTEX
  8
0
  5
8A07
 10
196.380
 20
162.975
 30
-3.69674e-017
  70
    32
  0
VERTEX
  8
0
  5
8A08
 10
196.396
 20
162.959
 30
-3.53548e-017
  70
    32
  0
VERTEX
  8
0
  5
8A09
 10
196.413
 20
162.944
 30
-3.37208e-017
  70
    32
  0
VERTEX
  8
0
  5
8A0A
 10
196.429
 20
162.930
 30
-3.20666e-017
  70
    32
  0
VERTEX
  8
0
  5
8A0B
 10
196.446
 20
162.916
 30
-3.03931e-017
  70
    32
  0
VERTEX
  8
0
  5
8A0C
 10
196.463
 20
162.903
 30
-2.87013e-017
  70
    32
  0
VERTEX
  8
0
  5
8A0D
 10
196.480
 20
162.890
 30
-2.69921e-017
  70
    32
  0
VERTEX
  8
0
  5
8A0E
 10
196.497
 20
162.879
 30
-2.52667e-017
  70
    32
  0
VERTEX
  8
0
  5
8A0F
 10
196.515
 20
162.868
 30
-2.35261e-017
  70
    32
  0
VERTEX
  8
0
  5
8A10
 10
196.532
 20
162.858
 30
-2.17714e-017
  70
    32
  0
VERTEX
  8
0
  5
8A11
 10
196.550
 20
162.849
 30
-2.00035e-017
  70
    32
  0
VERTEX
  8
0
  5
8A12
 10
196.568
 20
162.840
 30
-1.82235e-017
  70
    32
  0
VERTEX
  8
0
  5
8A13
 10
196.586
 20
162.833
 30
-1.64326e-017
  70
    32
  0
VERTEX
  8
0
  5
8A14
 10
196.604
 20
162.826
 30
-1.46318e-017
  70
    32
  0
VERTEX
  8
0
  5
8A15
 10
196.622
 20
162.820
 30
-1.28221e-017
  70
    32
  0
VERTEX
  8
0
  5
8A16
 10
196.640
 20
162.815
 30
-1.10048e-017
  70
    32
  0
VERTEX
  8
0
  5
8A17
 10
196.658
 20
162.810
 30
-9.18080e-018
  70
    32
  0
VERTEX
  8
0
  5
8A18
 10
196.676
 20
162.807
 30
-7.35129e-018
  70
    32
  0
VERTEX
  8
0
  5
8A19
 10
196.695
 20
162.804
 30
-5.51734e-018
  70
    32
  0
VERTEX
  8
0
  5
8A1A
 10
196.713
 20
162.802
 30
-3.68008e-018
  70
    32
  0
VERTEX
  8
0
  5
8A1B
 10
196.732
 20
162.800
 30
-1.84059e-018
  70
    32
  0
VERTEX
  8
0
  5
8A1C
 10
196.750
 20
162.800
 30
1.85599e-030
  70
    32
  0
SEQEND
  8
0
  5
8A1D
  0
ARC
  5
8408
  8
0
 10
214.0837841236999
 20
197.9999996647
 30
0.0
 40
3.3734500000000058
 50
128.14845457540019
 51
231.85154542459969
  0
LINE
  5
8409
  8
0
 10
185.0
 20
170.4999996885
 30
0.0
 11
185.50000101329999
 21
169.9999996647
 31
0.0
  0
LINE
  5
840A
  8
0
 10
254.4999992846999
 20
169.9999996647
 30
0.0
 11
255.000000298
 21
170.4999996885
 31
0.0
  0
LINE
  5
840B
  8
0
 10
185.0
 20
180.49999952319999
 30
0.0
 11
185.0
 21
170.4999996885
 31
0.0
  0
LINE
  5
840C
  8
0
 10
255.000000298
 20
170.4999996885
 30
0.0
 11
255.000000298
 21
180.49999952319999
 31
0.0
  0
LINE
  5
840D
  8
0
 10
243.58682468529989
 20
169.9153002203
 30
0.0
 11
243.5543308407
 21
169.9999996647
 31
0.0
  0
LINE
  5
840E
  8
0
 10
196.4456694573
 20
169.9999996647
 30
0.0
 11
196.4131756127
 21
169.9153002203
 31
0.0
  0
LINE
  5
840F
  8
0
 10
195.9999999403999
 20
162.79999978839999
 30
0.0
 11
195.9999999403999
 21
160.24999946360001
 31
0.0
  0
LINE
  5
8410
  8
0
 10
244.0000003575999
 20
160.24999946360001
 30
0.0
 11
244.0000003575999
 21
162.79999978839999
 31
0.0
  0
LINE
  5
8411
  8
0
 10
195.9999999403999
 20
169.12159885509999
 30
0.0
 11
195.9999999403999
 21
165.49999985849999
 31
0.0
  0
LINE
  5
8412
  8
0
 10
244.0000003575999
 20
165.49999985849999
 30
0.0
 11
244.0000003575999
 21
169.12159885509999
 31
0.0
  0
LINE
  5
8413
  8
0
 10
244.0000003575999
 20
169.12159885509999
 30
0.0
 11
243.58682468529989
 21
169.9153002203
 31
0.0
  0
LINE
  5
8414
  8
0
 10
196.4131756127
 20
169.9153002203
 30
0.0
 11
195.9999999403999
 21
169.12159885509999
 31
0.0
  0
LINE
  5
8415
  8
0
 10
195.9999999403999
 20
160.24999946360001
 30
0.0
 11
196.25000044699999
 21
159.99999988830001
 31
0.0
  0
LINE
  5
8416
  8
0
 10
243.74999985100001
 20
159.99999988830001
 30
0.0
 11
244.0000003575999
 21
160.24999946360001
 31
0.0
  0
LINE
  5
8417
  8
0
 10
196.25000044699999
 20
155.50000008200001
 30
0.0
 11
196.74999959769991
 21
155.0
 31
0.0
  0
LINE
  5
8418
  8
0
 10
243.25000070040011
 20
155.0
 30
0.0
 11
243.74999985100001
 21
155.50000008200001
 31
0.0
  0
LINE
  5
8419
  8
0
 10
196.25000044699999
 20
159.99999988830001
 30
0.0
 11
196.25000044699999
 21
155.50000008200001
 31
0.0
  0
LINE
  5
841A
  8
0
 10
243.74999985100001
 20
155.50000008200001
 30
0.0
 11
243.74999985100001
 21
159.99999988830001
 31
0.0
  0
LINE
  5
841B
  8
0
 10
185.50000101329999
 20
180.99999960509999
 30
0.0
 11
185.0
 21
180.49999952319999
 31
0.0
  0
LINE
  5
841C
  8
0
 10
255.000000298
 20
180.49999952319999
 30
0.0
 11
254.4999992846999
 21
180.99999960509999
 31
0.0
  0
LINE
  5
841D
  8
0
 10
239.50000055129999
 20
181.4999996871
 30
0.0
 11
238.9999995380999
 21
181.999999769
 31
0.0
  0
LINE
  5
841E
  8
0
 10
201.00000076000001
 20
181.999999769
 30
0.0
 11
200.49999974670001
 21
181.4999996871
 31
0.0
  0
LINE
  5
841F
  8
0
 10
239.50000055129999
 20
180.99999960509999
 30
0.0
 11
239.50000055129999
 21
181.4999996871
 31
0.0
  0
LINE
  5
8420
  8
0
 10
200.49999974670001
 20
181.4999996871
 30
0.0
 11
200.49999974670001
 21
180.99999960509999
 31
0.0
  0
LINE
  5
8421
  8
0
 10
229.99999992550011
 20
189.50000006709999
 30
0.0
 11
229.49999984350001
 21
189.99999921770001
 31
0.0
  0
LINE
  5
8422
  8
0
 10
210.5000004545
 20
189.99999921770001
 30
0.0
 11
210.00000037250001
 21
189.50000006709999
 31
0.0
  0
LINE
  5
8423
  8
0
 10
210.00000037250001
 20
189.50000006709999
 30
0.0
 11
210.00000037250001
 21
182.30250451719999
 31
0.0
  0
LINE
  5
8424
  8
0
 10
229.99999992550011
 20
182.30250451719999
 30
0.0
 11
229.99999992550011
 21
189.50000006709999
 31
0.0
  0
LINE
  5
8425
  8
0
 10
210.00000037250001
 20
182.30250451719999
 30
0.0
 11
210.15747398139999
 21
181.999999769
 31
0.0
  0
LINE
  5
8426
  8
0
 10
229.84252631659999
 20
181.999999769
 30
0.0
 11
229.99999992550011
 21
182.30250451719999
 31
0.0
  0
ARC
  5
8427
  8
0
 10
228.40000014899999
 20
190.3999996647
 30
0.0
 40
0.4000000000000341
 50
180.0
 51
270.0
  0
ARC
  5
8428
  8
0
 10
211.60000014900001
 20
190.3999996647
 30
0.0
 40
0.4000000000000341
 50
270.0
 51
0.0
  0
LINE
  5
8429
  8
0
 10
211.999999769
 20
202.99999948589999
 30
0.0
 11
211.999999769
 21
190.40000040090001
 31
0.0
  0
LINE
  5
842A
  8
0
 10
228.000000529
 20
190.40000040090001
 30
0.0
 11
228.000000529
 21
202.99999948589999
 31
0.0
  0
ARC
  5
842B
  8
0
 10
226.0000001489999
 20
202.9999996647
 30
0.0
 40
2.0
 50
0.0
 51
90.0
  0
ARC
  5
842C
  8
0
 10
214.00000014899999
 20
202.9999996647
 30
0.0
 40
2.0
 50
90.0
 51
180.0
  0
LINE
  5
8430
  8
0
 10
254.4999992846999
 20
169.9999996647
 30
0.0
 11
185.50000101329999
 21
169.9999996647
 31
0.0
  0
LINE
  5
8431
  8
0
 10
241.1610050499001
 20
174.99999955300001
 30
0.0
 11
247.87851929659999
 21
174.99999955300001
 31
0.0
  0
LINE
  5
8432
  8
0
 10
247.87851929659999
 20
174.99999955300001
 30
0.0
 11
247.87851929659999
 21
180.49999952319999
 31
0.0
  0
LINE
  5
8435
  8
0
 10
192.1214810013999
 20
180.49999952319999
 30
0.0
 11
192.1214810013999
 21
174.99999955300001
 31
0.0
  0
LINE
  5
8436
  8
0
 10
192.1214810013999
 20
174.99999955300001
 30
0.0
 11
198.83899524809999
 21
174.99999955300001
 31
0.0
  0
LINE
  5
8437
  8
0
 10
198.83899524809999
 20
174.99999955300001
 30
0.0
 11
198.83899524809999
 21
180.49999952319999
 31
0.0
  0
LINE
  5
8439
  8
0
 10
241.1610050499001
 20
180.49999952319999
 30
0.0
 11
241.1610050499001
 21
174.99999955300001
 31
0.0
  0
LINE
  5
843B
  8
0
 10
199.19589854779991
 20
180.99999960509999
 30
0.0
 11
198.83899524809999
 21
180.49999952319999
 31
0.0
  0
LINE
  5
843C
  8
0
 10
254.4999992846999
 20
180.99999960509999
 30
0.0
 11
185.50000101329999
 21
180.99999960509999
 31
0.0
  0
LINE
  5
843D
  8
0
 10
241.1610050499001
 20
180.49999952319999
 30
0.0
 11
240.80410175029991
 21
180.99999960509999
 31
0.0
  0
CIRCLE
  5
843E
  8
0
 10
220.00000014899999
 20
173.9999996647
 30
0.0
 40
1.5
  0
LINE
  5
8442
  8
0
 10
195.9999999403999
 20
162.79999978839999
 30
0.0
 11
244.0000003575999
 21
162.79999978839999
 31
0.0
  0
LINE
  5
8444
  8
0
 10
195.9999999403999
 20
165.49999985849999
 30
0.0
 11
244.0000003575999
 21
165.49999985849999
 31
0.0
  0
LINE
  5
8445
  8
0
 10
196.25000044699999
 20
159.99999988830001
 30
0.0
 11
243.74999985100001
 21
159.99999988830001
 31
0.0
  0
LINE
  5
8447
  8
0
 10
243.25000070040011
 20
155.0
 30
0.0
 11
196.74999959769991
 21
155.0
 31
0.0
  0
LINE
  5
8448
  8
0
 10
192.1214810013999
 20
180.49999952319999
 30
0.0
 11
192.47838430109999
 21
180.99999960509999
 31
0.0
  0
LINE
  5
844B
  8
0
 10
247.521615997
 20
180.99999960509999
 30
0.0
 11
247.87851929659999
 21
180.49999952319999
 31
0.0
  0
LINE
  5
844F
  8
0
 10
201.00000076000001
 20
181.999999769
 30
0.0
 11
238.9999995380999
 21
181.999999769
 31
0.0
  0
LINE
  5
8450
  8
0
 10
210.5000004545
 20
189.99999921770001
 30
0.0
 11
229.49999984350001
 21
189.99999921770001
 31
0.0
  0
LINE
  5
845B
  8
0
 10
214.00000009690001
 20
204.9999998138
 30
0.0
 11
226.00000020120001
 21
204.9999998138
 31
0.0
  0
CIRCLE
  5
8461
  8
0
 10
100.0
 20
269.9999998138
 30
0.0
 40
35.0
  0
CIRCLE
  5
84AD
  8
1
 10
100.0
 20
269.9999998138
 30
0.0
 40
30.00000000000507
  0
CIRCLE
  5
84AE
  8
1
 10
100.0
 20
90.0
 30
0.0
 40
30.00000000000507
  0
LINE
  5
84BD
  8
1
 10
60.0
 20
269.9999998138
 30
0.0
 11
140.0
 21
269.9999998138
 31
0.0
  0
LINE
  5
84BE
  8
1
 10
100.0
 20
309.99999981380012
 30
0.0
 11
100.0
 21
229.9999998138
 31
0.0
  0
LINE
  5
84C3
  8
1
 10
82.746594539044665
 20
287.25340527475532
 30
0.0
 11
74.826998589755362
 21
295.1730012240447
 31
0.0
  0
LINE
  5
84C4
  8
1
 10
117.25340546095531
 20
287.25340527475532
 30
0.0
 11
125.17300141024459
 21
295.1730012240447
 31
0.0
  0
LINE
  5
84C5
  8
1
 10
82.746594539044665
 20
252.74659435284471
 30
0.0
 11
74.826998589755362
 21
244.82699840355539
 31
0.0
  0
LINE
  5
84C6
  8
1
 10
117.25340546095531
 20
252.74659435284471
 30
0.0
 11
125.17300141024459
 21
244.82699840355539
 31
0.0
  0
LINE
  5
84C7
  8
1
 10
82.746594539044665
 20
107.25340546095531
 30
0.0
 11
74.826998589755362
 21
115.17300141024459
 31
0.0
  0
LINE
  5
84C8
  8
1
 10
117.25340546095531
 20
107.25340546095531
 30
0.0
 11
125.17300141024459
 21
115.17300141024459
 31
0.0
  0
LINE
  5
84C9
  8
1
 10
82.746594539044665
 20
72.746594539044651
 30
0.0
 11
74.826998589755362
 21
64.826998589755362
 31
0.0
  0
LINE
  5
84CA
  8
1
 10
117.25340546095531
 20
72.746594539044651
 30
0.0
 11
125.17300141024459
 21
64.826998589755362
 31
0.0
  0
LINE
  5
84CB
  8
1
 10
60.0
 20
90.0
 30
0.0
 11
140.0
 21
90.0
 31
0.0
  0
LINE
  5
84CC
  8
1
 10
100.0
 20
130.0
 30
0.0
 11
100.0
 21
50.0
 31
0.0
  0
LINE
  5
851C
  8
1
 10
100.0
 20
209.9999998138
 30
0.0
 11
100.0
 21
150.0
 31
0.0
  0
LINE
  5
851D
  8
1
 10
220.00000014905001
 20
209.9999998138
 30
0.0
 11
220.00000014905001
 21
150.0
 31
0.0
  0
LINE
  5
8524
  8
1
 10
78.786796564450015
 20
166.9999996647
 30
0.0
 11
78.786796564450015
 21
183.99999960509999
 31
0.0
  0
LINE
  5
8525
  8
1
 10
121.21320343555
 20
166.9999996647
 30
0.0
 11
121.21320343555
 21
183.99999960509999
 31
0.0
  0
LINE
  5
8526
  8
1
 10
198.7867967135
 20
166.9999996647
 30
0.0
 11
198.7867967135
 21
183.99999960509999
 31
0.0
  0
LINE
  5
8527
  8
1
 10
241.2132035846
 20
166.9999996647
 30
0.0
 11
241.2132035846
 21
183.99999960509999
 31
0.0
  0
LINE
  5
857B
  8
2
 10
78.83899509905001
 20
174.99999955300001
 30
0.0
 11
83.536796644350034
 21
174.99999955300001
 31
0.0
  0
LINE
  5
857C
  8
2
 10
83.536796644350034
 20
174.99999955300001
 30
0.0
 11
83.536796644350034
 21
180.99999960509999
 31
0.0
  0
LINE
  5
857D
  8
2
 10
76.186797022849987
 20
174.49999947099991
 30
0.0
 11
76.186797022849987
 21
170.4999996885
 31
0.0
  0
LINE
  5
857E
  8
2
 10
81.38679563994998
 20
170.4999996885
 30
0.0
 11
81.38679563994998
 21
174.49999947099991
 31
0.0
  0
LINE
  5
857F
  8
2
 10
121.161004901125
 20
174.99999955310579
 30
0.0
 11
116.463203355825
 21
174.99999955308229
 31
0.0
  0
LINE
  5
8580
  8
2
 10
116.463203355825
 20
174.99999955308229
 30
0.0
 11
116.463203355795
 21
180.9999996051823
 31
0.0
  0
LINE
  5
8583
  8
2
 10
198.83899524809999
 20
174.99999955300001
 30
0.0
 11
203.53679679339999
 21
174.99999955300001
 31
0.0
  0
LINE
  5
8584
  8
2
 10
203.53679679339999
 20
174.99999955300001
 30
0.0
 11
203.53679679339999
 21
180.99999960509999
 31
0.0
  0
LINE
  5
8587
  8
2
 10
241.16100505017519
 20
174.99999955310579
 30
0.0
 11
236.46320350487511
 21
174.99999955308229
 31
0.0
  0
LINE
  5
8588
  8
2
 10
236.46320350487511
 20
174.99999955308229
 30
0.0
 11
236.4632035048451
 21
180.9999996051823
 31
0.0
  0
CIRCLE
  5
85EB
  8
0
 10
220.00000014899999
 20
198.00000083250001
 30
0.0
 40
3.3700000000000001
  0
ARC
  5
85EC
  8
0
 10
225.91621617435331
 20
197.99999966466049
 30
0.0
 40
3.3734500000000058
 50
308.14845457501559
 51
51.851545424215047
  0
CIRCLE
  5
86E1
  8
3
 10
78.786796564399992
 20
291.21320324940001
 30
0.0
 40
3.0
  0
CIRCLE
  5
86E2
  8
3
 10
121.21320343559999
 20
291.21320324940001
 30
0.0
 40
3.0
  0
CIRCLE
  5
86E3
  8
3
 10
78.786796564399992
 20
248.78679637819999
 30
0.0
 40
3.0
  0
CIRCLE
  5
86E4
  8
3
 10
121.21320343559999
 20
248.78679637819999
 30
0.0
 40
3.0
  0
CIRCLE
  5
86E5
  8
3
 10
78.786796564399992
 20
111.21320343559999
 30
0.0
 40
3.0
  0
CIRCLE
  5
86E6
  8
3
 10
121.21320343559999
 20
111.21320343559999
 30
0.0
 40
3.0
  0
CIRCLE
  5
86E7
  8
3
 10
78.786796564399992
 20
68.786796564399992
 30
0.0
 40
3.0
  0
CIRCLE
  5
86E8
  8
3
 10
121.21320343559999
 20
68.786796564399992
 30
0.0
 40
3.0
  0
LINE
  5
86FC
  8
2
 10
81.786796564450015
 20
170.09999955560019
 30
0.0
 11
81.786796564450029
 21
174.89999965045979
 31
0.0
  0
LINE
  5
86FD
  8
2
 10
75.786796564450015
 20
170.10000002169929
 30
0.0
 11
75.786796564450015
 21
174.89999918436061
 31
0.0
  0
LINE
  5
8707
  8
2
 10
81.886796653250016
 20
169.9999996647
 30
0.0
 11
81.386795639950023
 21
170.4999996885
 31
0.0
  0
LINE
  5
8708
  8
2
 10
76.18679702285003
 20
170.4999996885
 30
0.0
 11
75.686796009550022
 21
169.9999996647
 31
0.0
  0
LINE
  5
8709
  8
2
 10
75.686796009550022
 20
174.99999955300001
 30
0.0
 11
76.18679702285003
 21
174.499999471
 31
0.0
  0
LINE
  5
870A
  8
2
 10
81.386795639950023
 20
174.499999471
 30
0.0
 11
81.886796653250016
 21
174.99999955300001
 31
0.0
  0
LINE
  5
870B
  8
2
 10
81.38679563994998
 20
174.49999947099991
 30
0.0
 11
76.186797022849987
 21
174.49999947099991
 31
0.0
  0
LINE
  5
870C
  8
2
 10
76.18679702285003
 20
170.4999996885
 30
0.0
 11
81.386795639950023
 21
170.4999996885
 31
0.0
  0
LINE
  5
870D
  8
0
 10
118.87207617945
 20
169.9999996647
 30
0.0
 11
118.83958233484999
 21
169.9153002203
 31
0.0
  0
LINE
  5
870E
  8
2
 10
118.6132038939499
 20
174.49999947099991
 30
0.0
 11
118.6132038939499
 21
170.4999996885
 31
0.0
  0
LINE
  5
870F
  8
2
 10
123.81320251104989
 20
170.4999996885
 30
0.0
 11
123.81320251104989
 21
174.49999947099991
 31
0.0
  0
LINE
  5
8710
  8
2
 10
124.21320343555
 20
170.09999955560019
 30
0.0
 11
124.21320343555
 21
174.89999965045979
 31
0.0
  0
LINE
  5
8711
  8
2
 10
118.21320343555
 20
170.10000002169929
 30
0.0
 11
118.21320343555
 21
174.89999918436061
 31
0.0
  0
LINE
  5
8712
  8
2
 10
124.31320352435
 20
169.9999996647
 30
0.0
 11
123.81320251104999
 21
170.4999996885
 31
0.0
  0
LINE
  5
8713
  8
2
 10
118.61320389395
 20
170.4999996885
 30
0.0
 11
118.11320288064999
 21
169.9999996647
 31
0.0
  0
LINE
  5
8714
  8
2
 10
118.11320288064999
 20
174.99999955300001
 30
0.0
 11
118.61320389395
 21
174.499999471
 31
0.0
  0
LINE
  5
8715
  8
2
 10
123.81320251104999
 20
174.499999471
 30
0.0
 11
124.31320352435
 21
174.99999955300001
 31
0.0
  0
LINE
  5
8716
  8
2
 10
123.81320251104989
 20
174.49999947099991
 30
0.0
 11
118.6132038939499
 21
174.49999947099991
 31
0.0
  0
LINE
  5
8717
  8
2
 10
118.61320389395
 20
170.4999996885
 30
0.0
 11
123.81320251104999
 21
170.4999996885
 31
0.0
  0
LINE
  5
8718
  8
0
 10
196.44566945739999
 20
169.9999996647
 30
0.0
 11
196.41317561279999
 21
169.9153002203
 31
0.0
  0
LINE
  5
8719
  8
2
 10
196.1867971719
 20
174.49999947099991
 30
0.0
 11
196.1867971719
 21
170.4999996885
 31
0.0
  0
LINE
  5
871A
  8
2
 10
201.38679578899999
 20
170.4999996885
 30
0.0
 11
201.38679578899999
 21
174.49999947099991
 31
0.0
  0
LINE
  5
871B
  8
2
 10
201.7867967135
 20
170.09999955560019
 30
0.0
 11
201.7867967135
 21
174.89999965045979
 31
0.0
  0
LINE
  5
871C
  8
2
 10
195.7867967135
 20
170.10000002169929
 30
0.0
 11
195.7867967135
 21
174.89999918436061
 31
0.0
  0
LINE
  5
871D
  8
2
 10
201.88679680230001
 20
169.9999996647
 30
0.0
 11
201.38679578899999
 21
170.4999996885
 31
0.0
  0
LINE
  5
871E
  8
2
 10
196.1867971719
 20
170.4999996885
 30
0.0
 11
195.6867961586
 21
169.9999996647
 31
0.0
  0
LINE
  5
871F
  8
2
 10
195.6867961586
 20
174.99999955300001
 30
0.0
 11
196.1867971719
 21
174.499999471
 31
0.0
  0
LINE
  5
8720
  8
2
 10
201.38679578899999
 20
174.499999471
 30
0.0
 11
201.88679680230001
 21
174.99999955300001
 31
0.0
  0
LINE
  5
8721
  8
2
 10
201.38679578899999
 20
174.49999947099991
 30
0.0
 11
196.1867971719
 21
174.49999947099991
 31
0.0
  0
LINE
  5
8722
  8
2
 10
196.1867971719
 20
170.4999996885
 30
0.0
 11
201.38679578899999
 21
170.4999996885
 31
0.0
  0
LINE
  5
8723
  8
0
 10
238.87207632849999
 20
169.9999996647
 30
0.0
 11
238.83958248389999
 21
169.9153002203
 31
0.0
  0
LINE
  5
8724
  8
2
 10
238.613204043
 20
174.49999947099991
 30
0.0
 11
238.613204043
 21
170.4999996885
 31
0.0
  0
LINE
  5
8725
  8
2
 10
243.81320266009999
 20
170.4999996885
 30
0.0
 11
243.81320266009999
 21
174.49999947099991
 31
0.0
  0
LINE
  5
8726
  8
2
 10
244.2132035846
 20
170.09999955560019
 30
0.0
 11
244.2132035846
 21
174.89999965045979
 31
0.0
  0
LINE
  5
8727
  8
2
 10
238.2132035846
 20
170.10000002169929
 30
0.0
 11
238.2132035846
 21
174.89999918436061
 31
0.0
  0
LINE
  5
8728
  8
2
 10
244.3132036734001
 20
169.9999996647
 30
0.0
 11
243.81320266009999
 21
170.4999996885
 31
0.0
  0
LINE
  5
8729
  8
2
 10
238.61320404300011
 20
170.4999996885
 30
0.0
 11
238.1132030297
 21
169.9999996647
 31
0.0
  0
LINE
  5
872A
  8
2
 10
238.1132030297
 20
174.99999955300001
 30
0.0
 11
238.61320404300011
 21
174.499999471
 31
0.0
  0
LINE
  5
872B
  8
2
 10
243.81320266009999
 20
174.499999471
 30
0.0
 11
244.3132036734001
 21
174.99999955300001
 31
0.0
  0
LINE
  5
872C
  8
2
 10
243.81320266009999
 20
174.49999947099991
 30
0.0
 11
238.613204043
 21
174.49999947099991
 31
0.0
  0
LINE
  5
872D
  8
2
 10
238.61320404300011
 20
170.4999996885
 30
0.0
 11
243.81320266009999
 21
170.4999996885
 31
0.0
  0
CIRCLE
  5
8730
  8
0
 10
100.0
 20
269.99999981380012
 30
0.0
 40
18.99999938905
  0
ENDSEC
  0
EOF
