  0
SECTION
  2
HEADER
  9
$ACADVER
  1
AC1009
  9
$INSBASE
 10
0.0
 20
0.0
 30
0.0
  9
$EXTMIN
 10
-0.0204638472032742
 20
-2.960436562073669
 30
0.0
  9
$EXTMAX
 10
564.18559656810669
 20
400.84548833959559
 30
0.0
  9
$LIMMIN
 10
0.0
 20
0.0
  9
$LIMMAX
 10
270.0
 20
175.0
  9
$ORTHOMODE
 70
     1
  9
$REGENMODE
 70
     1
  9
$FILLMODE
 70
     1
  9
$QTEXTMODE
 70
     0
  9
$MIRRTEXT
 70
     0
  9
$DRAGMODE
 70
     2
  9
$LTSCALE
 40
10.0
  9
$OSMODE
 70
  3071
  9
$ATTMODE
 70
     1
  9
$TEXTSIZE
 40
0.2
  9
$TRACEWID
 40
0.05
  9
$TEXTSTYLE
  7
STANDARD
  9
$CLAYER
  8
0
  9
$CELTYPE
  6
BYLAYER
  9
$CECOLOR
 62
   256
  9
$DIMSCALE
 40
1.0
  9
$DIMASZ
 40
3.0
  9
$DIMEXO
 40
2.0
  9
$DIMDLI
 40
0.38
  9
$DIMRND
 40
0.0
  9
$DIMDLE
 40
0.0
  9
$DIMEXE
 40
2.0
  9
$DIMTP
 40
0.0
  9
$DIMTM
 40
0.0
  9
$DIMTXT
 40
3.2000000000000002
  9
$DIMCEN
 40
0.0
  9
$DIMTSZ
 40
0.0
  9
$DIMTOL
 70
     0
  9
$DIMLIM
 70
     0
  9
$DIMTIH
 70
     0
  9
$DIMTOH
 70
     0
  9
$DIMSE1
 70
     0
  9
$DIMSE2
 70
     0
  9
$DIMTAD
 70
     1
  9
$DIMZIN
 70
     0
  9
$DIMBLK
  1

  9
$DIMASO
 70
     1
  9
$DIMSHO
 70
     0
  9
$DIMPOST
  1

  9
$DIMAPOST
  1

  9
$DIMALT
 70
     0
  9
$DIMALTD
 70
     2
  9
$DIMALTF
 40
25.399999999999999
  9
$DIMLFAC
 40
1.0
  9
$DIMTOFL
 70
     1
  9
$DIMTVP
 40
1.6000000000000001
  9
$DIMTIX
 70
     1
  9
$DIMSOXD
 70
     0
  9
$DIMSAH
 70
     0
  9
$DIMBLK1
  1

  9
$DIMBLK2
  1

  9
$DIMSTYLE
  2
STANDARD
  9
$DIMCLRD
 70
     0
  9
$DIMCLRE
 70
     0
  9
$DIMCLRT
 70
     0
  9
$DIMTFAC
 40
1.0
  9
$DIMGAP
 40
0.09
  9
$LUNITS
 70
     2
  9
$LUPREC
 70
     4
  9
$SKETCHINC
 40
0.1
  9
$FILLETRAD
 40
0.0
  9
$AUNITS
 70
     1
  9
$AUPREC
 70
     4
  9
$MENU
  1
E:\r13\win\SUPPORT\ACAD
  9
$ELEVATION
 40
0.0
  9
$PELEVATION
 40
0.0
  9
$THICKNESS
 40
0.0
  9
$LIMCHECK
 70
     0
  9
$BLIPMODE
 70
     0
  9
$CHAMFERA
 40
0.0
  9
$CHAMFERB
 40
0.0
  9
$SKPOLY
 70
     0
  9
$TDCREATE
 40
2449839.7803587969
  9
$TDUPDATE
 40
2456597.5507971072
  9
$TDINDWG
 40
0.0489160648
  9
$TDUSRTIMER
 40
0.0489160648
  9
$USRTIMER
 70
     1
  9
$ANGBASE
 50
0.0
  9
$ANGDIR
 70
     0
  9
$PDMODE
 70
     0
  9
$PDSIZE
 40
0.0
  9
$PLINEWID
 40
0.0
  9
$COORDS
 70
     1
  9
$SPLFRAME
 70
     0
  9
$SPLINETYPE
 70
     6
  9
$SPLINESEGS
 70
     8
  9
$ATTDIA
 70
     0
  9
$ATTREQ
 70
     1
  9
$HANDLING
 70
     1
  9
$HANDSEED
  5
D58
  9
$SURFTAB1
 70
     6
  9
$SURFTAB2
 70
     6
  9
$SURFTYPE
 70
     6
  9
$SURFU
 70
     6
  9
$SURFV
 70
     6
  9
$UCSNAME
  2

  9
$UCSORG
 10
0.0
 20
0.0
 30
0.0
  9
$UCSXDIR
 10
1.0
 20
0.0
 30
0.0
  9
$UCSYDIR
 10
0.0
 20
1.0
 30
0.0
  9
$PUCSNAME
  2

  9
$PUCSORG
 10
0.0
 20
0.0
 30
0.0
  9
$PUCSXDIR
 10
1.0
 20
0.0
 30
0.0
  9
$PUCSYDIR
 10
0.0
 20
1.0
 30
0.0
  9
$USERI1
 70
     0
  9
$USERI2
 70
     1
  9
$USERI3
 70
     1
  9
$USERI4
 70
     0
  9
$USERI5
 70
     0
  9
$USERR1
 40
0.0
  9
$USERR2
 40
0.0
  9
$USERR3
 40
0.0
  9
$USERR4
 40
0.0
  9
$USERR5
 40
0.0
  9
$WORLDVIEW
 70
     1
  9
$SHADEDGE
 70
     3
  9
$SHADEDIF
 70
    70
  9
$TILEMODE
 70
     1
  9
$MAXACTVP
 70
    16
  9
$PLIMCHECK
 70
     0
  9
$PEXTMIN
 10
1.0000000000000000E+020
 20
1.0000000000000000E+020
 30
1.0000000000000000E+020
  9
$PEXTMAX
 10
-1.0000000000000000E+020
 20
-1.0000000000000000E+020
 30
-1.0000000000000000E+020
  9
$PLIMMIN
 10
0.0
 20
0.0
  9
$PLIMMAX
 10
12.0
 20
9.0
  9
$UNITMODE
 70
     0
  9
$VISRETAIN
 70
     0
  9
$PLINEGEN
 70
     0
  9
$PSLTSCALE
 70
     0
  0
ENDSEC
  0
SECTION
  2
TABLES
  0
TABLE
  2
VPORT
 70
     1
  0
VPORT
  2
*ACTIVE
 70
     0
 10
0.0
 20
0.0
 11
1.0
 21
1.0
 12
293.26114862728451
 22
198.93951403870429
 13
0.0
 23
0.0
 14
10.0
 24
10.0
 15
10.0
 25
10.0
 16
0.0
 26
0.0
 36
1.0
 17
0.0
 27
0.0
 37
0.0
 40
407.45826740119469
 41
1.831871345029239
 42
50.0
 43
0.0
 44
0.0
 50
0.0
 51
0.0
 71
     0
 72
   500
 73
     1
 74
     0
 75
     0
 76
     0
 77
     0
 78
     2
  0
ENDTAB
  0
TABLE
  2
LTYPE
 70
     3
  0
LTYPE
  2
CONTINUOUS
 70
     0
  3
Solid Line
 72
    65
 73
     0
 40
0.0
  0
LTYPE
  2
CENTER
 70
     0
  3
____ _ ____ _ ____ _ ____ _ ____ _ ____ _ ____
 72
    65
 73
     4
 40
2.0
 49
1.25
 49
-0.25
 49
0.25
 49
-0.25
  0
LTYPE
  2
PHANTOM2
 70
     0
  3
___ _ _ ___ _ _ ___ _ _ ___ _ _
 72
    65
 73
     6
 40
1.25
 49
0.625
 49
-0.125
 49
0.125
 49
-0.125
 49
0.125
 49
-0.125
  0
ENDTAB
  0
TABLE
  2
LAYER
 70
     2
  0
LAYER
  2
0
 70
     0
 62
     7
  6
CONTINUOUS
  0
LAYER
  2
1
 70
     0
 62
     1
  6
CENTER
  0
ENDTAB
  0
TABLE
  2
STYLE
 70
     2
  0
STYLE
  2
STANDARD
 70
     0
 40
0.0
 41
1.0
 50
0.0
 71
     0
 42
0.2
  3
TXT
  4
BIGFONT
  0
STYLE
  2
STANDARD1
 70
     0
 40
0.0
 41
1.0
 50
0.0
 71
     0
 42
3.0
  3
txt
  4

  0
ENDTAB
  0
TABLE
  2
VIEW
 70
     1
  0
VIEW
  2
ALL
 70
     0
 40
179.5384664489153
 10
135.0
 20
89.769233224457665
 41
0.0
 11
0.0
 21
0.0
 31
1.0
 12
0.0
 22
0.0
 32
0.0
 42
0.0
 43
0.0
 44
0.0
 50
0.0
 71
     0
  0
ENDTAB
  0
TABLE
  2
UCS
 70
     0
  0
ENDTAB
  0
TABLE
  2
APPID
 70
    17
  0
APPID
  2
ACAD
 70
     0
  0
APPID
  2
GENIUS_GENODEF_13
 70
     0
  0
APPID
  2
GENIUS_GENOBJ-N-FIL_13
 70
     0
  0
APPID
  2
GENIUS_GENOREF_13
 70
     0
  0
APPID
  2
GENIUS_GENOBJ-N-CEN_13
 70
     0
  0
APPID
  2
GENIUS_GENCFG_13
 70
     0
  0
APPID
  2
GENIUS_GENCFG0_13
 70
     0
  0
APPID
  2
GENIUS_GENCFG1_13
 70
     0
  0
APPID
  2
GENIUS_GENCFG2_13
 70
     0
  0
APPID
  2
GENIUS_GENCFG3_13
 70
     0
  0
APPID
  2
GENIUS_GENCFG4_13
 70
     0
  0
APPID
  2
GENIUS_GEVCFG0_13
 70
     0
  0
APPID
  2
GENIUS_GENOENT_13
 70
     0
  0
APPID
  2
GENIUS_GENOBJ-N-CRS_13
 70
     0
  0
APPID
  2
GENIUS_GENOLIS_13
 70
     0
  0
APPID
  2
ACAD_MLEADERVER
 70
     0
  0
APPID
  2
ACAD_NAV_VCDISPLAY
 70
     0
  0
ENDTAB
  0
TABLE
  2
DIMSTYLE
 70
     1
  0
DIMSTYLE
  2
STANDARD
 70
     0
  3

  4

  5

  6

  7

 40
1.0
 41
0.18
 42
0.0625
 43
0.38
 44
0.18
 45
0.0
 46
0.0
 47
0.0
 48
0.0
140
0.18
141
0.09
142
0.0
143
25.399999999999999
144
1.0
145
0.0
146
1.0
147
0.09
 71
     0
 72
     0
 73
     1
 74
     1
 75
     0
 76
     0
 77
     0
 78
     0
170
     0
171
     2
172
     0
173
     0
174
     0
175
     0
176
     0
177
     0
178
     0
  0
ENDTAB
  0
ENDSEC
  0
SECTION
  2
BLOCKS
  0
BLOCK
  8
0
  2
$MODEL_SPACE
 70
     0
 10
0.0
 20
0.0
 30
0.0
  3
$MODEL_SPACE
  1

  0
ENDBLK
  5
B7F
  8
0
  0
BLOCK
 67
     1
  8
0
  2
$PAPER_SPACE
 70
     0
 10
0.0
 20
0.0
 30
0.0
  3
$PAPER_SPACE
  1

  0
ENDBLK
  5
B7D
 67
     1
  8
0
  0
ENDSEC
  0
SECTION
  2
ENTITIES
  0
LINE
  5
AA4
  8
0
 10
200.835739408357
 20
377.8454866576904
 30
0.0
 11
200.835739408357
 21
153.8454866576904
 31
0.0
  0
LINE
  5
AA5
  8
0
 10
174.83573940835689
 20
377.8454866576904
 30
0.0
 11
174.83573940835689
 21
153.8454866576904
 31
0.0
  0
LINE
  5
AA6
  8
0
 10
150.83573940835689
 20
289.84548665769051
 30
0.0
 11
150.83573940835689
 21
241.84548665769049
 31
0.0
  0
ARC
  5
AA7
  8
0
 10
187.835739408357
 20
153.8454866576904
 30
0.0
 40
13.0
 50
180.0
 51
0.0
  0
LINE
  5
AA8
  8
0
 10
167.82314909454479
 20
240.48926896818321
 30
0.0
 11
174.83573940835689
 21
221.36317571858001
 31
0.0
  0
LINE
  5
AA9
  8
1
 10
140.83573940835689
 20
265.84548665769051
 30
0.0
 11
210.835739408357
 21
265.84548665769051
 31
0.0
1001
GENIUS_GENODEF_13
1002
{
1000
HIER
1070
     0
1002
}
1002
{
1000
MANEDIT
1070
     0
1002
}
1002
{
1000
NOSEL
1070
     0
1002
}
1002
{
1000
BEHIND
1070
     0
1002
}
1002
{
1000
REACTOR
1002
}
1001
GENIUS_GENOBJ-N-CEN_13
1002
{
1000
OWNER
1000
GEN
1002
}
  0
LINE
  5
AAA
  8
0
 10
165.92959573202859
 20
241.84548665769049
 30
0.0
 11
150.83573940835689
 21
241.84548665769049
 31
0.0
  0
ARC
  5
AAB
  8
0
 10
165.92959573202859
 20
239.8454866576904
 30
0.0
 40
2.0
 50
18.777332559355031
 51
90.0
1001
GENIUS_GENODEF_13
1002
{
1000
HIER
1070
     0
1002
}
1002
{
1000
MANEDIT
1070
     0
1002
}
1002
{
1000
NOSEL
1070
     0
1002
}
1002
{
1000
BEHIND
1070
     0
1002
}
1002
{
1000
REACTOR
1002
}
1001
GENIUS_GENOBJ-N-FIL_13
1002
{
1000
OWNER
1000
GEN
1002
}
  0
LINE
  5
AAE
  8
0
 10
162.04067597342041
 20
291.28005244916392
 30
0.0
 11
174.83573940835689
 21
333.1911773527159
 31
0.0
  0
LINE
  5
AAF
  8
0
 10
150.83573940835689
 20
289.84548665769051
 30
0.0
 11
160.12226930229261
 21
289.84548665769051
 31
0.0
  0
ARC
  5
AB0
  8
0
 10
160.12226930229261
 20
291.84548665769051
 30
0.0
 40
2.0
 50
270.0
 51
343.57756286963371
1001
GENIUS_GENODEF_13
1002
{
1000
HIER
1070
     0
1002
}
1002
{
1000
MANEDIT
1070
     0
1002
}
1002
{
1000
NOSEL
1070
     0
1002
}
1002
{
1000
BEHIND
1070
     0
1002
}
1002
{
1000
REACTOR
1002
}
1001
GENIUS_GENOBJ-N-FIL_13
1002
{
1000
OWNER
1000
GEN
1002
}
  0
ARC
  5
AB1
  8
0
 10
187.835739408357
 20
377.8454866576904
 30
0.0
 40
13.0
 50
0.0
 51
180.0
  0
LINE
  5
AB2
  8
1
 10
435.79296685216292
 20
400.84548833959559
 30
0.0
 11
435.79296685216292
 21
265.84548831653558
 31
0.0
1001
GENIUS_GENODEF_13
1002
{
1000
HIER
1070
     0
1002
}
1002
{
1000
MANEDIT
1070
     0
1002
}
1002
{
1000
NOSEL
1070
     0
1002
}
1002
{
1000
BEHIND
1070
     0
1002
}
1002
{
1000
REACTOR
1002
}
1001
GENIUS_GENOBJ-N-CEN_13
1002
{
1000
OWNER
1000
GEN
1002
}
  0
LINE
  5
AB3
  8
1
 10
435.79296685216292
 20
265.84548831653558
 30
0.0
 11
307.40033712132191
 21
307.56278248481971
 31
0.0
1001
GENIUS_GENODEF_13
1002
{
1000
HIER
1070
     0
1002
}
1002
{
1000
MANEDIT
1070
     0
1002
}
1002
{
1000
NOSEL
1070
     0
1002
}
1002
{
1000
BEHIND
1070
     0
1002
}
1002
{
1000
REACTOR
1002
}
1001
GENIUS_GENOBJ-N-CEN_13
1002
{
1000
OWNER
1000
GEN
1002
}
  0
LINE
  5
AB4
  8
1
 10
435.79296685216292
 20
265.84548768291302
 30
0.0
 11
564.18559656810669
 21
307.56278253066921
 31
0.0
1001
GENIUS_GENODEF_13
1002
{
1000
HIER
1070
     0
1002
}
1002
{
1000
MANEDIT
1070
     0
1002
}
1002
{
1000
NOSEL
1070
     0
1002
}
1002
{
1000
BEHIND
1070
     0
1002
}
1002
{
1000
REACTOR
1002
}
1001
GENIUS_GENOBJ-N-CEN_13
1002
{
1000
OWNER
1000
GEN
1002
}
  0
CIRCLE
  5
AB5
  8
0
 10
435.79296685216292
 20
265.8454883395957
 30
0.0
 40
112.0
  0
LINE
  5
AB6
  8
0
 10
349.50074085216301
 20
282.22850233959571
 30
0.0
 11
407.70963272583379
 21
260.98993989209089
 31
0.0
  0
ARC
  5
AB7
  8
0
 10
435.79296685216292
 20
265.8454883395957
 30
0.0
 40
95.0
 50
173.06478200000001
 51
222.93521799999999
  0
CIRCLE
  5
AB9
  8
0
 10
435.79296685216292
 20
265.8454883395957
 30
0.0
 40
11.0
  0
ARC
  5
ABA
  8
0
 10
435.79296685216292
 20
265.8454883395957
 30
0.0
 40
95.0
 50
317.06478199999998
 51
6.9352179999999981
  0
LINE
  5
ABB
  8
0
 10
463.87630097849211
 20
260.98993989209089
 30
0.0
 11
522.08519285216289
 21
282.22850233959571
 31
0.0
  0
CIRCLE
  5
ABC
  8
0
 10
435.79296685216292
 20
265.8454883395957
 30
0.0
 40
125.0
  0
CIRCLE
  5
ABD
  8
0
 10
435.7929678272078
 20
265.8454879997243
 30
0.0
 40
107.66987332094909
  0
LINE
  5
ABE
  8
1
 10
356.4419576182795
 20
156.62819422568651
 30
0.0
 11
435.79296685216298
 21
265.84548665769017
 31
0.0
1001
GENIUS_GENODEF_13
1002
{
1000
HIER
1070
     0
1002
}
1002
{
1000
MANEDIT
1070
     0
1002
}
1002
{
1000
NOSEL
1070
     0
1002
}
1002
{
1000
BEHIND
1070
     0
1002
}
1002
{
1000
REACTOR
1002
}
1001
GENIUS_GENOBJ-N-CEN_13
1002
{
1000
OWNER
1000
GEN
1002
}
  0
LINE
  5
ABF
  8
1
 10
435.79296685216292
 20
265.84548768291302
 30
0.0
 11
515.14397604708984
 21
156.62819419738281
 31
0.0
1001
GENIUS_GENODEF_13
1002
{
1000
HIER
1070
     0
1002
}
1002
{
1000
MANEDIT
1070
     0
1002
}
1002
{
1000
NOSEL
1070
     0
1002
}
1002
{
1000
BEHIND
1070
     0
1002
}
1002
{
1000
REACTOR
1002
}
1001
GENIUS_GENOBJ-N-CEN_13
1002
{
1000
OWNER
1000
GEN
1002
}
  0
ARC
  5
AC0
  8
0
 10
435.79296685216292
 20
265.8454883395957
 30
0.0
 40
95.0
 50
245.06478200000001
 51
294.93521800000002
  0
LINE
  5
AC2
  8
0
 10
393.54603085216303
 20
188.83933433959561
 30
0.0
 11
431.73264044694082
 21
237.63620287306611
 31
0.0
  0
ARC
  5
AC3
  8
0
 10
398.27116585216299
 20
185.14161933959571
 30
0.0
 40
6.0
 50
141.95459199999999
 51
245.06478200000001
  0
LINE
  5
AC4
  8
0
 10
410.21905223943668
 20
253.26674007510269
 30
0.0
 11
375.61078385216291
 21
201.8700543395957
 31
0.0
  0
ARC
  5
AC5
  8
0
 10
370.63390085216292
 20
205.2212683395957
 30
0.0
 40
6.0
 50
222.93521799999999
 51
326.04540800000001
  0
LINE
  5
AC7
  8
0
 10
439.85329325738508
 20
237.63620287306611
 30
0.0
 11
478.03990285216292
 21
188.83933433959561
 31
0.0
  0
ARC
  5
AC8
  8
0
 10
473.3147678521629
 20
185.14161933959571
 30
0.0
 40
6.0
 50
294.93521800000002
 51
38.045408000000002
  0
LINE
  5
AC9
  8
0
 10
495.97514985216287
 20
201.8700543395957
 30
0.0
 11
461.36688146488922
 21
253.2667400751028
 31
0.0
  0
ARC
  5
ACA
  8
0
 10
500.95203285216297
 20
205.2212683395957
 30
0.0
 40
6.0
 50
213.95459199999999
 51
317.06478199999998
  0
ARC
  5
ACF
  8
0
 10
435.79296685216292
 20
366.8454883395957
 30
0.0
 40
14.0
 50
203.01078174564151
 51
336.98921936060299
  0
LINE
  5
AD0
  8
0
 10
424.70837485216288
 20
352.97690133959571
 30
0.0
 11
422.49683786088048
 21
291.0538782274752
 31
0.0
  0
ARC
  5
AD1
  8
0
 10
435.79296685216292
 20
265.8454883395957
 30
0.0
 40
95.0
 50
101.06478199999999
 51
150.93521799999999
  0
ARC
  5
AD2
  8
0
 10
358.0006488521629
 20
309.08152833959571
 30
0.0
 40
6.0
 50
150.93521799999999
 51
254.04540800000001
  0
LINE
  5
AD3
  8
0
 10
415.92709306992089
 20
286.28067935972462
 30
0.0
 11
356.35139585216302
 21
303.31264933959568
 31
0.0
  0
ARC
  5
AD4
  8
0
 10
347.44415185216297
 20
276.59197433959571
 30
0.0
 40
6.0
 50
69.954592000000005
 51
173.06478200000001
  0
ARC
  5
AD6
  8
0
 10
410.02089015651319
 20
355.90016683707478
 30
0.0
 40
14.0
 50
23.010781745641552
 51
105.9701975503246
1001
GENIUS_GENODEF_13
1002
{
1000
HIER
1070
     0
1002
}
1002
{
1000
MANEDIT
1070
     0
1002
}
1002
{
1000
NOSEL
1070
     0
1002
}
1002
{
1000
BEHIND
1070
     0
1002
}
1002
{
1000
REACTOR
1002
}
1001
GENIUS_GENOBJ-N-FIL_13
1002
{
1000
OWNER
1000
GEN
1002
}
  0
ARC
  5
AD7
  8
0
 10
418.71219785216289
 20
353.19105133959567
 30
0.0
 40
6.0
 50
357.95459099999999
 51
101.06478199999999
  0
ARC
  5
AD8
  8
0
 10
435.79296685216292
 20
265.8454883395957
 30
0.0
 40
95.0
 50
29.064782000000001
 51
78.935218000000006
  0
LINE
  5
AD9
  8
0
 10
449.08909584344542
 20
291.0538782274752
 30
0.0
 11
446.87755885216302
 21
352.97690133959571
 31
0.0
  0
ARC
  5
ADA
  8
0
 10
513.58528485216289
 20
309.08152833959571
 30
0.0
 40
6.0
 50
285.95459199999999
 51
29.064782000000001
  0
LINE
  5
ADB
  8
0
 10
515.23453785216293
 20
303.31264933959568
 30
0.0
 11
455.6588406344049
 21
286.28067935972462
 31
0.0
  0
ARC
  5
ADD
  8
0
 10
524.14178185216304
 20
276.59197433959571
 30
0.0
 40
6.0
 50
6.935219
 51
110.04540799999999
  0
ARC
  5
ADE
  8
0
 10
461.56504375914301
 20
355.90016733467741
 30
0.0
 40
14.0
 50
74.029803555931778
 51
156.9892193606149
1001
GENIUS_GENODEF_13
1002
{
1000
HIER
1070
     0
1002
}
1002
{
1000
MANEDIT
1070
     0
1002
}
1002
{
1000
NOSEL
1070
     0
1002
}
1002
{
1000
BEHIND
1070
     0
1002
}
1002
{
1000
REACTOR
1002
}
1001
GENIUS_GENOBJ-N-FIL_13
1002
{
1000
OWNER
1000
GEN
1002
}
  0
ARC
  5
ADF
  8
0
 10
452.87373685216301
 20
353.19105133959567
 30
0.0
 40
6.0
 50
78.935218999999989
 51
182.04540900000001
  0
CIRCLE
  5
BD8
  8
0
 10
435.79296685216292
 20
265.84548768291302
 30
0.0
 40
24.0
  0
ARC
  5
BD9
  8
0
 10
435.79296685216292
 20
265.84548768291302
 30
0.0
 40
28.5
 50
45.809341951206633
 51
62.1906594304102
  0
ARC
  5
BDA
  8
0
 10
435.79296685216292
 20
265.84548768291302
 30
0.0
 40
28.5
 50
189.80933802192851
 51
206.19065896008959
  0
ARC
  5
BDB
  8
0
 10
435.79296685216292
 20
265.84548768291302
 30
0.0
 40
28.5
 50
117.80934056958959
 51
134.19065804879349
  0
ARC
  5
BDC
  8
0
 10
435.79296685216292
 20
265.84548768291302
 30
0.0
 40
28.5
 50
333.80934103991041
 51
350.19066197807138
  0
ARC
  5
BDD
  8
0
 10
435.79296685216292
 20
265.84548768291302
 30
0.0
 40
28.5
 50
261.80933950844661
 51
278.19066049155327
  0
TEXT
  5
CC9
  8
0
 62
     3
 10
0.0
 20
0.0
 30
0.0
 40
10.0
  1
ALV250N
  7
STANDARD1
  0
ENDSEC
  0
EOF
