  0
SECTION
  2
HEADER
  9
$ACADVER
  1
AC1009
  9
$INSBASE
 10
0.0
 20
0.0
 30
0.0
  9
$EXTMIN
 10
-0.0204638472032742
 20
-2.960436562073669
 30
0.0
  9
$EXTMAX
 10
427.51328644165318
 20
298.56690877488307
 30
0.0
  9
$LIMMIN
 10
0.0
 20
0.0
  9
$LIMMAX
 10
270.0
 20
175.0
  9
$ORTHOMODE
 70
     1
  9
$REGENMODE
 70
     1
  9
$FILLMODE
 70
     1
  9
$QTEXTMODE
 70
     0
  9
$MIRRTEXT
 70
     0
  9
$DRAGMODE
 70
     2
  9
$LTSCALE
 40
10.0
  9
$OSMODE
 70
  3071
  9
$ATTMODE
 70
     1
  9
$TEXTSIZE
 40
0.2
  9
$TRACEWID
 40
0.05
  9
$TEXTSTYLE
  7
STANDARD
  9
$CLAYER
  8
0
  9
$CELTYPE
  6
BYLAYER
  9
$CECOLOR
 62
   256
  9
$DIMSCALE
 40
1.0
  9
$DIMASZ
 40
3.0
  9
$DIMEXO
 40
2.0
  9
$DIMDLI
 40
0.38
  9
$DIMRND
 40
0.0
  9
$DIMDLE
 40
0.0
  9
$DIMEXE
 40
2.0
  9
$DIMTP
 40
0.0
  9
$DIMTM
 40
0.0
  9
$DIMTXT
 40
3.2000000000000002
  9
$DIMCEN
 40
0.0
  9
$DIMTSZ
 40
0.0
  9
$DIMTOL
 70
     0
  9
$DIMLIM
 70
     0
  9
$DIMTIH
 70
     0
  9
$DIMTOH
 70
     0
  9
$DIMSE1
 70
     0
  9
$DIMSE2
 70
     0
  9
$DIMTAD
 70
     1
  9
$DIMZIN
 70
     0
  9
$DIMBLK
  1

  9
$DIMASO
 70
     1
  9
$DIMSHO
 70
     0
  9
$DIMPOST
  1

  9
$DIMAPOST
  1

  9
$DIMALT
 70
     0
  9
$DIMALTD
 70
     2
  9
$DIMALTF
 40
25.399999999999999
  9
$DIMLFAC
 40
1.0
  9
$DIMTOFL
 70
     1
  9
$DIMTVP
 40
1.6000000000000001
  9
$DIMTIX
 70
     1
  9
$DIMSOXD
 70
     0
  9
$DIMSAH
 70
     0
  9
$DIMBLK1
  1

  9
$DIMBLK2
  1

  9
$DIMSTYLE
  2
STANDARD
  9
$DIMCLRD
 70
     0
  9
$DIMCLRE
 70
     0
  9
$DIMCLRT
 70
     0
  9
$DIMTFAC
 40
1.0
  9
$DIMGAP
 40
0.09
  9
$LUNITS
 70
     2
  9
$LUPREC
 70
     4
  9
$SKETCHINC
 40
0.1
  9
$FILLETRAD
 40
0.0
  9
$AUNITS
 70
     1
  9
$AUPREC
 70
     4
  9
$MENU
  1
E:\r13\win\SUPPORT\ACAD
  9
$ELEVATION
 40
0.0
  9
$PELEVATION
 40
0.0
  9
$THICKNESS
 40
0.0
  9
$LIMCHECK
 70
     0
  9
$BLIPMODE
 70
     0
  9
$CHAMFERA
 40
0.0
  9
$CHAMFERB
 40
0.0
  9
$SKPOLY
 70
     0
  9
$TDCREATE
 40
2449839.7803587969
  9
$TDUPDATE
 40
2456597.5506781372
  9
$TDINDWG
 40
0.046761875
  9
$TDUSRTIMER
 40
0.046761875
  9
$USRTIMER
 70
     1
  9
$ANGBASE
 50
0.0
  9
$ANGDIR
 70
     0
  9
$PDMODE
 70
     0
  9
$PDSIZE
 40
0.0
  9
$PLINEWID
 40
0.0
  9
$COORDS
 70
     1
  9
$SPLFRAME
 70
     0
  9
$SPLINETYPE
 70
     6
  9
$SPLINESEGS
 70
     8
  9
$ATTDIA
 70
     0
  9
$ATTREQ
 70
     1
  9
$HANDLING
 70
     1
  9
$HANDSEED
  5
CBE
  9
$SURFTAB1
 70
     6
  9
$SURFTAB2
 70
     6
  9
$SURFTYPE
 70
     6
  9
$SURFU
 70
     6
  9
$SURFV
 70
     6
  9
$UCSNAME
  2

  9
$UCSORG
 10
0.0
 20
0.0
 30
0.0
  9
$UCSXDIR
 10
1.0
 20
0.0
 30
0.0
  9
$UCSYDIR
 10
0.0
 20
1.0
 30
0.0
  9
$PUCSNAME
  2

  9
$PUCSORG
 10
0.0
 20
0.0
 30
0.0
  9
$PUCSXDIR
 10
1.0
 20
0.0
 30
0.0
  9
$PUCSYDIR
 10
0.0
 20
1.0
 30
0.0
  9
$USERI1
 70
     0
  9
$USERI2
 70
     1
  9
$USERI3
 70
     1
  9
$USERI4
 70
     0
  9
$USERI5
 70
     0
  9
$USERR1
 40
0.0
  9
$USERR2
 40
0.0
  9
$USERR3
 40
0.0
  9
$USERR4
 40
0.0
  9
$USERR5
 40
0.0
  9
$WORLDVIEW
 70
     1
  9
$SHADEDGE
 70
     3
  9
$SHADEDIF
 70
    70
  9
$TILEMODE
 70
     1
  9
$MAXACTVP
 70
    16
  9
$PLIMCHECK
 70
     0
  9
$PEXTMIN
 10
1.0000000000000000E+020
 20
1.0000000000000000E+020
 30
1.0000000000000000E+020
  9
$PEXTMAX
 10
-1.0000000000000000E+020
 20
-1.0000000000000000E+020
 30
-1.0000000000000000E+020
  9
$PLIMMIN
 10
0.0
 20
0.0
  9
$PLIMMAX
 10
12.0
 20
9.0
  9
$UNITMODE
 70
     0
  9
$VISRETAIN
 70
     0
  9
$PLINEGEN
 70
     0
  9
$PSLTSCALE
 70
     0
  0
ENDSEC
  0
SECTION
  2
TABLES
  0
TABLE
  2
VPORT
 70
     1
  0
VPORT
  2
*ACTIVE
 70
     0
 10
0.0
 20
0.0
 11
1.0
 21
1.0
 12
222.0958604948344
 22
147.8028299992105
 13
0.0
 23
0.0
 14
10.0
 24
10.0
 15
10.0
 25
10.0
 16
0.0
 26
0.0
 36
1.0
 17
0.0
 27
0.0
 37
0.0
 40
304.25083387628302
 41
1.831871345029239
 42
50.0
 43
0.0
 44
0.0
 50
0.0
 51
0.0
 71
     0
 72
   500
 73
     1
 74
     0
 75
     0
 76
     0
 77
     0
 78
     2
  0
ENDTAB
  0
TABLE
  2
LTYPE
 70
     3
  0
LTYPE
  2
CONTINUOUS
 70
     0
  3
Solid Line
 72
    65
 73
     0
 40
0.0
  0
LTYPE
  2
CENTER
 70
     0
  3
____ _ ____ _ ____ _ ____ _ ____ _ ____ _ ____
 72
    65
 73
     4
 40
2.0
 49
1.25
 49
-0.25
 49
0.25
 49
-0.25
  0
LTYPE
  2
PHANTOM2
 70
     0
  3
___ _ _ ___ _ _ ___ _ _ ___ _ _
 72
    65
 73
     6
 40
1.25
 49
0.625
 49
-0.125
 49
0.125
 49
-0.125
 49
0.125
 49
-0.125
  0
ENDTAB
  0
TABLE
  2
LAYER
 70
     2
  0
LAYER
  2
0
 70
     0
 62
     7
  6
CONTINUOUS
  0
LAYER
  2
1
 70
     0
 62
     1
  6
CENTER
  0
ENDTAB
  0
TABLE
  2
STYLE
 70
     2
  0
STYLE
  2
STANDARD
 70
     0
 40
0.0
 41
1.0
 50
0.0
 71
     0
 42
0.2
  3
TXT
  4
BIGFONT
  0
STYLE
  2
STANDARD1
 70
     0
 40
0.0
 41
1.0
 50
0.0
 71
     0
 42
3.0
  3
txt
  4

  0
ENDTAB
  0
TABLE
  2
VIEW
 70
     1
  0
VIEW
  2
ALL
 70
     0
 40
179.5384664489153
 10
135.0
 20
89.769233224457665
 41
0.0
 11
0.0
 21
0.0
 31
1.0
 12
0.0
 22
0.0
 32
0.0
 42
0.0
 43
0.0
 44
0.0
 50
0.0
 71
     0
  0
ENDTAB
  0
TABLE
  2
UCS
 70
     0
  0
ENDTAB
  0
TABLE
  2
APPID
 70
    17
  0
APPID
  2
ACAD
 70
     0
  0
APPID
  2
GENIUS_GENODEF_13
 70
     0
  0
APPID
  2
GENIUS_GENOBJ-N-FIL_13
 70
     0
  0
APPID
  2
GENIUS_GENOREF_13
 70
     0
  0
APPID
  2
GENIUS_GENOBJ-N-CEN_13
 70
     0
  0
APPID
  2
GENIUS_GENCFG_13
 70
     0
  0
APPID
  2
GENIUS_GENCFG0_13
 70
     0
  0
APPID
  2
GENIUS_GENCFG1_13
 70
     0
  0
APPID
  2
GENIUS_GENCFG2_13
 70
     0
  0
APPID
  2
GENIUS_GENCFG3_13
 70
     0
  0
APPID
  2
GENIUS_GENCFG4_13
 70
     0
  0
APPID
  2
GENIUS_GEVCFG0_13
 70
     0
  0
APPID
  2
GENIUS_GENOENT_13
 70
     0
  0
APPID
  2
GENIUS_GENOBJ-N-CRS_13
 70
     0
  0
APPID
  2
GENIUS_GENOLIS_13
 70
     0
  0
APPID
  2
ACAD_MLEADERVER
 70
     0
  0
APPID
  2
ACAD_NAV_VCDISPLAY
 70
     0
  0
ENDTAB
  0
TABLE
  2
DIMSTYLE
 70
     1
  0
DIMSTYLE
  2
STANDARD
 70
     0
  3

  4

  5

  6

  7

 40
1.0
 41
0.18
 42
0.0625
 43
0.38
 44
0.18
 45
0.0
 46
0.0
 47
0.0
 48
0.0
140
0.18
141
0.09
142
0.0
143
25.399999999999999
144
1.0
145
0.0
146
1.0
147
0.09
 71
     0
 72
     0
 73
     1
 74
     1
 75
     0
 76
     0
 77
     0
 78
     0
170
     0
171
     2
172
     0
173
     0
174
     0
175
     0
176
     0
177
     0
178
     0
  0
ENDTAB
  0
ENDSEC
  0
SECTION
  2
BLOCKS
  0
BLOCK
  8
0
  2
$MODEL_SPACE
 70
     0
 10
0.0
 20
0.0
 30
0.0
  3
$MODEL_SPACE
  1

  0
ENDBLK
  5
AE7
  8
0
  0
BLOCK
 67
     1
  8
0
  2
$PAPER_SPACE
 70
     0
 10
0.0
 20
0.0
 30
0.0
  3
$PAPER_SPACE
  1

  0
ENDBLK
  5
AE5
 67
     1
  8
0
  0
ENDSEC
  0
SECTION
  2
ENTITIES
  0
LINE
  5
A36
  8
0
 10
143.16056836040809
 20
277.56690866385441
 30
0.0
 11
143.16056836040809
 21
99.566908663854406
 31
0.0
  0
LINE
  5
A37
  8
0
 10
121.16056836040811
 20
277.56690866385441
 30
0.0
 11
121.16056836040811
 21
99.566908663854406
 31
0.0
  0
LINE
  5
A38
  8
0
 10
98.160568360408092
 20
209.56690866385441
 30
0.0
 11
98.160568360408092
 21
167.56690866385441
 31
0.0
  0
ARC
  5
A39
  8
0
 10
132.16056836040809
 20
99.566908663854406
 30
0.0
 40
11.0
 50
180.0
 51
0.0
  0
LINE
  5
A3A
  8
1
 10
88.160568360408092
 20
188.56690866385441
 30
0.0
 11
153.16056836040809
 21
188.56690866385441
 31
0.0
1001
GENIUS_GENODEF_13
1002
{
1000
HIER
1070
     0
1002
}
1002
{
1000
MANEDIT
1070
     0
1002
}
1002
{
1000
NOSEL
1070
     0
1002
}
1002
{
1000
BEHIND
1070
     0
1002
}
1002
{
1000
REACTOR
1002
}
1001
GENIUS_GENOBJ-N-CEN_13
1002
{
1000
OWNER
1000
GEN
1002
}
  0
LINE
  5
A3B
  8
0
 10
113.080654405093
 20
167.56690866385441
 30
0.0
 11
98.160568360408092
 21
167.56690866385441
 31
0.0
  0
LINE
  5
A3C
  8
0
 10
114.75292570283661
 20
166.66395410810131
 30
0.0
 11
121.16056836040811
 21
158.89652199428349
 31
0.0
  0
ARC
  5
A3D
  8
0
 10
113.080654405093
 20
165.56690866385441
 30
0.0
 40
2.0
 50
33.265724451202402
 51
90.0
1001
GENIUS_GENODEF_13
1002
{
1000
HIER
1070
     0
1002
}
1002
{
1000
MANEDIT
1070
     0
1002
}
1002
{
1000
NOSEL
1070
     0
1002
}
1002
{
1000
BEHIND
1070
     0
1002
}
1002
{
1000
REACTOR
1002
}
1001
GENIUS_GENOBJ-N-FIL_13
1002
{
1000
OWNER
1000
GEN
1002
}
  0
LINE
  5
A3F
  8
0
 10
107.4165707149466
 20
210.92261346034849
 30
0.0
 11
121.16056836040811
 21
249.31185602694089
 31
0.0
  0
LINE
  5
A40
  8
0
 10
98.160568360408092
 20
209.56690866385441
 30
0.0
 11
105.5231918065558
 21
209.56690866385441
 31
0.0
  0
ARC
  5
A41
  8
0
 10
105.5231918065558
 20
211.56690866385441
 30
0.0
 40
2.0
 50
270.0
 51
341.20714743515612
1001
GENIUS_GENODEF_13
1002
{
1000
HIER
1070
     0
1002
}
1002
{
1000
MANEDIT
1070
     0
1002
}
1002
{
1000
NOSEL
1070
     0
1002
}
1002
{
1000
BEHIND
1070
     0
1002
}
1002
{
1000
REACTOR
1002
}
1001
GENIUS_GENOBJ-N-FIL_13
1002
{
1000
OWNER
1000
GEN
1002
}
  0
ARC
  5
A42
  8
0
 10
132.16056836040809
 20
277.56690866385441
 30
0.0
 40
11.0
 50
0.0
 51
180.0
  0
LINE
  5
A43
  8
1
 10
327.51328644165318
 20
188.56690866385421
 30
0.0
 11
327.51328644165318
 21
298.56690877488307
 31
0.0
1001
GENIUS_GENODEF_13
1002
{
1000
HIER
1070
     0
1002
}
1002
{
1000
MANEDIT
1070
     0
1002
}
1002
{
1000
NOSEL
1070
     0
1002
}
1002
{
1000
BEHIND
1070
     0
1002
}
1002
{
1000
REACTOR
1002
}
1001
GENIUS_GENOBJ-N-CEN_13
1002
{
1000
OWNER
1000
GEN
1002
}
  0
CIRCLE
  5
A44
  8
0
 10
327.51328644165318
 20
188.5669087748831
 30
0.0
 40
89.0
  0
CIRCLE
  5
A45
  8
0
 10
327.51328644165318
 20
188.5669087748831
 30
0.0
 40
100.0
  0
CIRCLE
  5
A48
  8
0
 10
327.51328644165318
 20
188.5669087748831
 30
0.0
 40
9.0
  0
CIRCLE
  5
A4A
  8
0
 10
327.51328644165318
 20
188.56690866385421
 30
0.0
 40
84.669872981077717
  0
ARC
  5
A4B
  8
0
 10
327.51328634549941
 20
188.56690860833979
 30
0.0
 40
75.0
 50
343.82262100000003
 51
76.177378999999945
  0
ARC
  5
A4C
  8
0
 10
327.51328653780712
 20
188.5669086083397
 30
0.0
 40
75.0
 50
103.822621
 51
196.177379
  0
LINE
  5
A4D
  8
1
 10
327.51328644165318
 20
188.56690866385421
 30
0.0
 11
232.2504920717447
 21
133.5669086945511
 31
0.0
1001
GENIUS_GENODEF_13
1002
{
1000
HIER
1070
     0
1002
}
1002
{
1000
MANEDIT
1070
     0
1002
}
1002
{
1000
NOSEL
1070
     0
1002
}
1002
{
1000
BEHIND
1070
     0
1002
}
1002
{
1000
REACTOR
1002
}
1001
GENIUS_GENOBJ-N-CEN_13
1002
{
1000
OWNER
1000
GEN
1002
}
  0
LINE
  5
A4E
  8
1
 10
327.51328644165318
 20
188.56690866385421
 30
0.0
 11
422.77608081156171
 21
133.5669086945511
 31
0.0
1001
GENIUS_GENODEF_13
1002
{
1000
HIER
1070
     0
1002
}
1002
{
1000
MANEDIT
1070
     0
1002
}
1002
{
1000
NOSEL
1070
     0
1002
}
1002
{
1000
BEHIND
1070
     0
1002
}
1002
{
1000
REACTOR
1002
}
1001
GENIUS_GENOBJ-N-CEN_13
1002
{
1000
OWNER
1000
GEN
1002
}
  0
ARC
  5
A4F
  8
0
 10
327.51328644165318
 20
188.5669087748831
 30
0.0
 40
75.0
 50
223.822621
 51
316.17737899999997
  0
LINE
  5
A51
  8
0
 10
274.85528444165323
 20
145.33462677488311
 30
0.0
 11
316.99129516436687
 21
166.9963801686896
 31
0.0
  0
ARC
  5
A52
  8
0
 10
277.36994644165333
 20
140.4431577748831
 30
0.0
 40
5.5
 50
117.20729799999999
 51
223.822621
  0
LINE
  5
A53
  8
0
 10
303.57166520884959
 20
190.23986196414899
 30
0.0
 11
263.74403144165331
 21
164.5798827748832
 31
0.0
  0
ARC
  5
A54
  8
0
 10
260.76522544165317
 20
169.20337777488311
 30
0.0
 40
5.5
 50
196.177379
 51
302.79270300000002
  0
LINE
  5
A55
  8
0
 10
338.0352777189396
 20
166.9963801686896
 30
0.0
 11
380.1712884416533
 21
145.33462677488311
 31
0.0
  0
ARC
  5
A56
  8
0
 10
377.6566264416532
 20
140.4431577748831
 30
0.0
 40
5.5
 50
316.17737899999997
 51
62.792703000000003
  0
LINE
  5
A57
  8
0
 10
391.28254144165328
 20
164.5798827748832
 30
0.0
 11
351.45490767445688
 21
190.23986196414899
 31
0.0
  0
ARC
  5
A59
  8
0
 10
394.26134744165319
 20
169.20337777488311
 30
0.0
 40
5.5
 50
237.20729700000001
 51
343.82262100000003
  0
ARC
  5
A5B
  8
0
 10
327.51328644165318
 20
268.56690866385418
 30
0.0
 40
12.0
 50
206.1951291511912
 51
333.80487084879701
  0
ARC
  5
A5C
  8
0
 10
310.9085654416532
 20
256.05419077488318
 30
0.0
 40
5.5
 50
357.2072970000001
 51
103.822621
  0
LINE
  5
A5D
  8
0
 10
316.4020334416532
 20
255.78621677488309
 30
0.0
 11
314.09365568529739
 21
208.46448415342249
 31
0.0
  0
ARC
  5
A5E
  8
0
 10
305.97818484449311
 20
257.97259890814161
 30
0.0
 40
12.0
 50
26.195129151191178
 51
107.2379990352556
1001
GENIUS_GENODEF_13
1002
{
1000
HIER
1070
     0
1002
}
1002
{
1000
MANEDIT
1070
     0
1002
}
1002
{
1000
NOSEL
1070
     0
1002
}
1002
{
1000
BEHIND
1070
     0
1002
}
1002
{
1000
REACTOR
1002
}
1001
GENIUS_GENOBJ-N-FIL_13
1002
{
1000
OWNER
1000
GEN
1002
}
  0
ARC
  5
A5F
  8
0
 10
344.11800744165328
 20
256.05419077488318
 30
0.0
 40
5.5
 50
76.177379999999999
 51
182.79270299999999
  0
LINE
  5
A60
  8
0
 10
340.93291719800902
 20
208.4644841534226
 30
0.0
 11
338.62453944165333
 21
255.78621677488309
 31
0.0
  0
ARC
  5
A61
  8
0
 10
349.04838803881341
 20
257.97259890814161
 30
0.0
 40
12.0
 50
72.762000964744331
 51
153.8048708488088
1001
GENIUS_GENODEF_13
1002
{
1000
HIER
1070
     0
1002
}
1002
{
1000
MANEDIT
1070
     0
1002
}
1002
{
1000
NOSEL
1070
     0
1002
}
1002
{
1000
BEHIND
1070
     0
1002
}
1002
{
1000
REACTOR
1002
}
1001
GENIUS_GENOBJ-N-FIL_13
1002
{
1000
OWNER
1000
GEN
1002
}
  0
CIRCLE
  5
B42
  8
0
 10
327.51328644165318
 20
188.56690866385421
 30
0.0
 40
21.0
  0
ARC
  5
B43
  8
0
 10
327.51328644165318
 20
188.56690866385421
 30
0.0
 40
24.0
 50
3.997123267764886
 51
56.002876494518681
  0
ARC
  5
B44
  8
0
 10
327.51328644165318
 20
188.56690866385421
 30
0.0
 40
24.0
 50
243.99712135985209
 51
296.00287864014791
  0
ARC
  5
B45
  8
0
 10
327.51328644165318
 20
188.56690866385421
 30
0.0
 40
24.0
 50
123.9971235054815
 51
176.00287673223499
  0
TEXT
  5
C2F
  8
0
 62
     3
 10
0.0
 20
0.0
 30
0.0
 40
10.0
  1
ALV200N
  7
STANDARD1
  0
ENDSEC
  0
EOF
