  0
SECTION
  2
HEADER
  9
$ACADVER
  1
AC1009
  9
$INSBASE
 10
0.0
 20
0.0
 30
0.0
  9
$EXTMIN
 10
-0.0204638472032742
 20
-2.960436562073669
 30
0.0
  9
$EXTMAX
 10
297.60452374417008
 20
205.32879987381889
 30
0.0
  9
$LIMMIN
 10
0.0
 20
0.0
  9
$LIMMAX
 10
270.0
 20
175.0
  9
$ORTHOMODE
 70
     0
  9
$REGENMODE
 70
     1
  9
$FILLMODE
 70
     1
  9
$QTEXTMODE
 70
     0
  9
$MIRRTEXT
 70
     0
  9
$DRAGMODE
 70
     2
  9
$LTSCALE
 40
10.0
  9
$OSMODE
 70
  3071
  9
$ATTMODE
 70
     1
  9
$TEXTSIZE
 40
0.2
  9
$TRACEWID
 40
0.05
  9
$TEXTSTYLE
  7
STANDARD
  9
$CLAYER
  8
0
  9
$CELTYPE
  6
BYLAYER
  9
$CECOLOR
 62
   256
  9
$DIMSCALE
 40
1.0
  9
$DIMASZ
 40
3.0
  9
$DIMEXO
 40
2.0
  9
$DIMDLI
 40
0.38
  9
$DIMRND
 40
0.0
  9
$DIMDLE
 40
0.0
  9
$DIMEXE
 40
2.0
  9
$DIMTP
 40
0.0
  9
$DIMTM
 40
0.0
  9
$DIMTXT
 40
3.2000000000000002
  9
$DIMCEN
 40
0.0
  9
$DIMTSZ
 40
0.0
  9
$DIMTOL
 70
     0
  9
$DIMLIM
 70
     0
  9
$DIMTIH
 70
     0
  9
$DIMTOH
 70
     0
  9
$DIMSE1
 70
     0
  9
$DIMSE2
 70
     0
  9
$DIMTAD
 70
     1
  9
$DIMZIN
 70
     0
  9
$DIMBLK
  1

  9
$DIMASO
 70
     1
  9
$DIMSHO
 70
     0
  9
$DIMPOST
  1

  9
$DIMAPOST
  1

  9
$DIMALT
 70
     0
  9
$DIMALTD
 70
     2
  9
$DIMALTF
 40
25.399999999999999
  9
$DIMLFAC
 40
1.0
  9
$DIMTOFL
 70
     1
  9
$DIMTVP
 40
1.6000000000000001
  9
$DIMTIX
 70
     1
  9
$DIMSOXD
 70
     0
  9
$DIMSAH
 70
     0
  9
$DIMBLK1
  1

  9
$DIMBLK2
  1

  9
$DIMSTYLE
  2
STANDARD
  9
$DIMCLRD
 70
     0
  9
$DIMCLRE
 70
     0
  9
$DIMCLRT
 70
     0
  9
$DIMTFAC
 40
1.0
  9
$DIMGAP
 40
0.09
  9
$LUNITS
 70
     2
  9
$LUPREC
 70
     4
  9
$SKETCHINC
 40
0.1
  9
$FILLETRAD
 40
0.0
  9
$AUNITS
 70
     1
  9
$AUPREC
 70
     4
  9
$MENU
  1
E:\r13\win\SUPPORT\ACAD
  9
$ELEVATION
 40
0.0
  9
$PELEVATION
 40
0.0
  9
$THICKNESS
 40
0.0
  9
$LIMCHECK
 70
     0
  9
$BLIPMODE
 70
     0
  9
$CHAMFERA
 40
0.0
  9
$CHAMFERB
 40
0.0
  9
$SKPOLY
 70
     0
  9
$TDCREATE
 40
2449839.7803587969
  9
$TDUPDATE
 40
2456597.550421366
  9
$TDINDWG
 40
0.0456866782
  9
$TDUSRTIMER
 40
0.0456866782
  9
$USRTIMER
 70
     1
  9
$ANGBASE
 50
0.0
  9
$ANGDIR
 70
     0
  9
$PDMODE
 70
     0
  9
$PDSIZE
 40
0.0
  9
$PLINEWID
 40
0.0
  9
$COORDS
 70
     1
  9
$SPLFRAME
 70
     0
  9
$SPLINETYPE
 70
     6
  9
$SPLINESEGS
 70
     8
  9
$ATTDIA
 70
     0
  9
$ATTREQ
 70
     1
  9
$HANDLING
 70
     1
  9
$HANDSEED
  5
CC9
  9
$SURFTAB1
 70
     6
  9
$SURFTAB2
 70
     6
  9
$SURFTYPE
 70
     6
  9
$SURFU
 70
     6
  9
$SURFV
 70
     6
  9
$UCSNAME
  2

  9
$UCSORG
 10
0.0
 20
0.0
 30
0.0
  9
$UCSXDIR
 10
1.0
 20
0.0
 30
0.0
  9
$UCSYDIR
 10
0.0
 20
1.0
 30
0.0
  9
$PUCSNAME
  2

  9
$PUCSORG
 10
0.0
 20
0.0
 30
0.0
  9
$PUCSXDIR
 10
1.0
 20
0.0
 30
0.0
  9
$PUCSYDIR
 10
0.0
 20
1.0
 30
0.0
  9
$USERI1
 70
     0
  9
$USERI2
 70
     1
  9
$USERI3
 70
     1
  9
$USERI4
 70
     0
  9
$USERI5
 70
     0
  9
$USERR1
 40
0.0
  9
$USERR2
 40
0.0
  9
$USERR3
 40
0.0
  9
$USERR4
 40
0.0
  9
$USERR5
 40
0.0
  9
$WORLDVIEW
 70
     1
  9
$SHADEDGE
 70
     3
  9
$SHADEDIF
 70
    70
  9
$TILEMODE
 70
     1
  9
$MAXACTVP
 70
    16
  9
$PLIMCHECK
 70
     0
  9
$PEXTMIN
 10
1.0000000000000000E+020
 20
1.0000000000000000E+020
 30
1.0000000000000000E+020
  9
$PEXTMAX
 10
-1.0000000000000000E+020
 20
-1.0000000000000000E+020
 30
-1.0000000000000000E+020
  9
$PLIMMIN
 10
0.0
 20
0.0
  9
$PLIMMAX
 10
12.0
 20
9.0
  9
$UNITMODE
 70
     0
  9
$VISRETAIN
 70
     0
  9
$PLINEGEN
 70
     0
  9
$PSLTSCALE
 70
     0
  0
ENDSEC
  0
SECTION
  2
TABLES
  0
TABLE
  2
VPORT
 70
     1
  0
VPORT
  2
*ACTIVE
 70
     0
 10
0.0
 20
0.0
 11
1.0
 21
1.0
 12
154.56273561326
 22
101.1840253836466
 13
0.0
 23
0.0
 14
10.0
 24
10.0
 15
10.0
 25
10.0
 16
0.0
 26
0.0
 36
1.0
 17
0.0
 27
0.0
 37
0.0
 40
210.17026232140239
 41
1.831871345029239
 42
50.0
 43
0.0
 44
0.0
 50
0.0
 51
0.0
 71
     0
 72
   500
 73
     1
 74
     0
 75
     0
 76
     0
 77
     0
 78
     2
  0
ENDTAB
  0
TABLE
  2
LTYPE
 70
     3
  0
LTYPE
  2
CONTINUOUS
 70
     0
  3
Solid Line
 72
    65
 73
     0
 40
0.0
  0
LTYPE
  2
CENTER
 70
     0
  3
____ _ ____ _ ____ _ ____ _ ____ _ ____ _ ____
 72
    65
 73
     4
 40
2.0
 49
1.25
 49
-0.25
 49
0.25
 49
-0.25
  0
LTYPE
  2
PHANTOM2
 70
     0
  3
___ _ _ ___ _ _ ___ _ _ ___ _ _
 72
    65
 73
     6
 40
1.25
 49
0.625
 49
-0.125
 49
0.125
 49
-0.125
 49
0.125
 49
-0.125
  0
ENDTAB
  0
TABLE
  2
LAYER
 70
     2
  0
LAYER
  2
0
 70
     0
 62
     7
  6
CONTINUOUS
  0
LAYER
  2
1
 70
     0
 62
     1
  6
CENTER
  0
ENDTAB
  0
TABLE
  2
STYLE
 70
     2
  0
STYLE
  2
STANDARD
 70
     0
 40
0.0
 41
1.0
 50
0.0
 71
     0
 42
0.2
  3
TXT
  4
BIGFONT
  0
STYLE
  2
STANDARD1
 70
     0
 40
0.0
 41
1.0
 50
0.0
 71
     0
 42
3.0
  3
txt
  4

  0
ENDTAB
  0
TABLE
  2
VIEW
 70
     1
  0
VIEW
  2
ALL
 70
     0
 40
179.5384664489153
 10
135.0
 20
89.769233224457665
 41
0.0
 11
0.0
 21
0.0
 31
1.0
 12
0.0
 22
0.0
 32
0.0
 42
0.0
 43
0.0
 44
0.0
 50
0.0
 71
     0
  0
ENDTAB
  0
TABLE
  2
UCS
 70
     0
  0
ENDTAB
  0
TABLE
  2
APPID
 70
    17
  0
APPID
  2
ACAD
 70
     0
  0
APPID
  2
GENIUS_GENODEF_13
 70
     0
  0
APPID
  2
GENIUS_GENOBJ-N-FIL_13
 70
     0
  0
APPID
  2
GENIUS_GENOREF_13
 70
     0
  0
APPID
  2
GENIUS_GENOBJ-N-CEN_13
 70
     0
  0
APPID
  2
GENIUS_GENCFG_13
 70
     0
  0
APPID
  2
GENIUS_GENCFG0_13
 70
     0
  0
APPID
  2
GENIUS_GENCFG1_13
 70
     0
  0
APPID
  2
GENIUS_GENCFG2_13
 70
     0
  0
APPID
  2
GENIUS_GENCFG3_13
 70
     0
  0
APPID
  2
GENIUS_GENCFG4_13
 70
     0
  0
APPID
  2
GENIUS_GEVCFG0_13
 70
     0
  0
APPID
  2
GENIUS_GENOENT_13
 70
     0
  0
APPID
  2
GENIUS_GENOBJ-N-CRS_13
 70
     0
  0
APPID
  2
GENIUS_GENOLIS_13
 70
     0
  0
APPID
  2
ACAD_MLEADERVER
 70
     0
  0
APPID
  2
ACAD_NAV_VCDISPLAY
 70
     0
  0
ENDTAB
  0
TABLE
  2
DIMSTYLE
 70
     1
  0
DIMSTYLE
  2
STANDARD
 70
     0
  3

  4

  5

  6

  7

 40
1.0
 41
0.18
 42
0.0625
 43
0.38
 44
0.18
 45
0.0
 46
0.0
 47
0.0
 48
0.0
140
0.18
141
0.09
142
0.0
143
25.399999999999999
144
1.0
145
0.0
146
1.0
147
0.09
 71
     0
 72
     0
 73
     1
 74
     1
 75
     0
 76
     0
 77
     0
 78
     0
170
     0
171
     2
172
     0
173
     0
174
     0
175
     0
176
     0
177
     0
178
     0
  0
ENDTAB
  0
ENDSEC
  0
SECTION
  2
BLOCKS
  0
BLOCK
  8
0
  2
$MODEL_SPACE
 70
     0
 10
0.0
 20
0.0
 30
0.0
  3
$MODEL_SPACE
  1

  0
ENDBLK
  5
AEA
  8
0
  0
BLOCK
 67
     1
  8
0
  2
$PAPER_SPACE
 70
     0
 10
0.0
 20
0.0
 30
0.0
  3
$PAPER_SPACE
  1

  0
ENDBLK
  5
AE8
 67
     1
  8
0
  0
ENDSEC
  0
SECTION
  2
ENTITIES
  0
LINE
  5
A38
  8
0
 10
105.1198670216048
 20
78.328799773976414
 30
0.0
 11
105.1198670216048
 21
187.32879977397641
 31
0.0
  0
LINE
  5
A39
  8
0
 10
85.119867021604875
 20
148.82879977397641
 30
0.0
 11
85.119867021604875
 21
116.8287997739764
 31
0.0
  0
LINE
  5
A3A
  8
0
 10
121.1198670216049
 20
187.32879977397641
 30
0.0
 11
121.1198670216049
 21
78.328799773976414
 31
0.0
  0
LINE
  5
A3B
  8
0
 10
103.1198670216048
 20
148.82879977397641
 30
0.0
 11
103.1198670216048
 21
125.6100310412816
 31
0.0
  0
LINE
  5
A3C
  8
1
 10
75.119867021604875
 20
132.82879977397641
 30
0.0
 11
131.11986702160479
 21
132.82879977397641
 31
0.0
1001
GENIUS_GENODEF_13
1002
{
1000
HIER
1070
     0
1002
}
1002
{
1000
MANEDIT
1070
     0
1002
}
1002
{
1000
NOSEL
1070
     0
1002
}
1002
{
1000
BEHIND
1070
     0
1002
}
1002
{
1000
REACTOR
1002
}
1001
GENIUS_GENOBJ-N-CEN_13
1002
{
1000
OWNER
1000
GEN
1002
}
  0
ARC
  5
A3D
  8
0
 10
113.1198670216049
 20
78.328799773976414
 30
0.0
 40
8.0
 50
180.0
 51
0.0
  0
LINE
  5
A3E
  8
0
 10
105.1198670216048
 20
111.3272377427549
 30
0.0
 11
96.398022240170533
 21
116.5969554821566
 31
0.0
  0
LINE
  5
A3F
  8
0
 10
95.757759162998212
 20
116.8287997739764
 30
0.0
 11
85.119867021604875
 21
116.8287997739764
 31
0.0
  0
ARC
  5
A40
  8
0
 10
95.757759162998212
 20
115.8287997739764
 30
0.0
 40
1.0
 50
50.188560700682892
 51
90.0
1001
GENIUS_GENODEF_13
1002
{
1000
HIER
1070
     0
1002
}
1002
{
1000
MANEDIT
1070
     0
1002
}
1002
{
1000
NOSEL
1070
     0
1002
}
1002
{
1000
BEHIND
1070
     0
1002
}
1002
{
1000
REACTOR
1002
}
1001
GENIUS_GENOBJ-N-FIL_13
1002
{
1000
OWNER
1000
GEN
1002
}
  0
LINE
  5
A42
  8
0
 10
103.1198670216048
 20
125.6100310412816
 30
0.0
 11
105.1198670216048
 21
123.72952023198521
 31
0.0
  0
LINE
  5
A43
  8
0
 10
105.1198670216048
 20
171.40238774606749
 30
0.0
 11
89.347017572271284
 21
149.28151373893149
 31
0.0
  0
LINE
  5
A44
  8
0
 10
105.1198670216048
 20
155.40652297097139
 30
0.0
 11
100.84269817810571
 21
150.34698271843121
 31
0.0
  0
LINE
  5
A45
  8
0
 10
85.119867021604875
 20
148.82879977397641
 30
0.0
 11
88.510071937331645
 21
148.82879977397641
 31
0.0
  0
ARC
  5
A46
  8
0
 10
88.510071937331446
 20
149.82879977397641
 30
0.0
 40
1.0
 50
270.0
 51
326.81897787373561
1001
GENIUS_GENODEF_13
1002
{
1000
HIER
1070
     0
1002
}
1002
{
1000
MANEDIT
1070
     0
1002
}
1002
{
1000
NOSEL
1070
     0
1002
}
1002
{
1000
BEHIND
1070
     0
1002
}
1002
{
1000
REACTOR
1002
}
1001
GENIUS_GENOBJ-N-FIL_13
1002
{
1000
OWNER
1000
GEN
1002
}
  0
LINE
  5
A47
  8
0
 10
101.69796798119511
 20
148.82879977397641
 30
0.0
 11
103.1198670216048
 21
148.82879977397641
 31
0.0
  0
ARC
  5
A48
  8
0
 10
101.69796798119491
 20
149.82879977397641
 30
0.0
 40
1.0
 50
148.78955425683901
 51
270.0
1001
GENIUS_GENODEF_13
1002
{
1000
HIER
1070
     0
1002
}
1002
{
1000
MANEDIT
1070
     0
1002
}
1002
{
1000
NOSEL
1070
     0
1002
}
1002
{
1000
BEHIND
1070
     0
1002
}
1002
{
1000
REACTOR
1002
}
1001
GENIUS_GENOBJ-N-FIL_13
1002
{
1000
OWNER
1000
GEN
1002
}
  0
ARC
  5
A49
  8
0
 10
113.1198670216049
 20
187.32879977397641
 30
0.0
 40
8.0
 50
0.0
 51
180.0
  0
LINE
  5
A4A
  8
1
 10
234.8176818363236
 20
132.82879977397641
 30
0.0
 11
234.8176818363236
 21
205.32879987381889
 31
0.0
1001
GENIUS_GENODEF_13
1002
{
1000
HIER
1070
     0
1002
}
1002
{
1000
MANEDIT
1070
     0
1002
}
1002
{
1000
NOSEL
1070
     0
1002
}
1002
{
1000
BEHIND
1070
     0
1002
}
1002
{
1000
REACTOR
1002
}
1001
GENIUS_GENOBJ-N-CEN_13
1002
{
1000
OWNER
1000
GEN
1002
}
  0
ARC
  5
A4B
  8
0
 10
234.8176818363236
 20
132.82879987381889
 30
0.0
 40
43.5
 50
106.81383099999999
 51
193.18616900000001
  0
CIRCLE
  5
A4C
  8
0
 10
234.8176818363236
 20
132.82879987381889
 30
0.0
 40
54.0
  0
ARC
  5
A4D
  8
0
 10
234.8176818363236
 20
132.82879987381889
 30
0.0
 40
43.5
 50
346.81383099999999
 51
73.186168999999992
  0
CIRCLE
  5
A50
  8
0
 10
234.8176818363236
 20
132.82879987381889
 30
0.0
 40
6.0
  0
CIRCLE
  5
A52
  8
0
 10
234.8176818363236
 20
132.82879987381889
 30
0.0
 40
62.5
  0
CIRCLE
  5
A53
  8
0
 10
234.8176818363236
 20
132.82879987381889
 30
0.0
 40
51.5
  0
LINE
  5
A54
  8
1
 10
234.8176818363236
 20
132.82879977397641
 30
0.0
 11
297.60452374417008
 21
96.578800105003921
 31
0.0
1001
GENIUS_GENODEF_13
1002
{
1000
HIER
1070
     0
1002
}
1002
{
1000
MANEDIT
1070
     0
1002
}
1002
{
1000
NOSEL
1070
     0
1002
}
1002
{
1000
BEHIND
1070
     0
1002
}
1002
{
1000
REACTOR
1002
}
1001
GENIUS_GENOBJ-N-CEN_13
1002
{
1000
OWNER
1000
GEN
1002
}
  0
LINE
  5
A55
  8
0
 10
271.85198883632359
 20
120.771952873819
 30
0.0
 11
253.31766780411149
 21
132.85158555136931
 31
0.0
  0
ARC
  5
A56
  8
0
 10
262.19252583632368
 20
103.6634458738189
 30
0.0
 40
3.5
 50
313.18616800000001
 51
63.09405899999998
  0
LINE
  5
A57
  8
1
 10
234.8176818363236
 20
132.82879977397641
 30
0.0
 11
172.03083992847709
 21
96.578800105003921
 31
0.0
1001
GENIUS_GENODEF_13
1002
{
1000
HIER
1070
     0
1002
}
1002
{
1000
MANEDIT
1070
     0
1002
}
1002
{
1000
NOSEL
1070
     0
1002
}
1002
{
1000
BEHIND
1070
     0
1002
}
1002
{
1000
REACTOR
1002
}
1001
GENIUS_GENOBJ-N-CEN_13
1002
{
1000
OWNER
1000
GEN
1002
}
  0
LINE
  5
A58
  8
0
 10
216.31769586853571
 20
132.85158555136931
 30
0.0
 11
197.78337483632359
 21
120.771952873819
 31
0.0
  0
ARC
  5
A59
  8
0
 10
195.87232183632361
 20
123.70416587381889
 30
0.0
 40
3.5
 50
193.18616900000001
 51
303.09405800000002
  0
ARC
  5
A5A
  8
0
 10
207.4428378363236
 20
103.6634458738189
 30
0.0
 40
3.5
 50
116.905941
 51
226.81383099999999
  0
ARC
  5
A5B
  8
0
 10
234.8176818363236
 20
132.82879987381889
 30
0.0
 40
43.5
 50
226.81383099999999
 51
313.18616900000001
  0
LINE
  5
A5D
  8
0
 10
205.85899183632361
 20
106.7845728738189
 30
0.0
 11
225.58742163144601
 21
116.795949230475
 31
0.0
  0
LINE
  5
A5E
  8
0
 10
244.0479420412012
 20
116.795949230475
 30
0.0
 11
263.77637183632368
 21
106.7845728738189
 31
0.0
  0
ARC
  5
A60
  8
0
 10
273.76304183632368
 20
123.70416587381889
 30
0.0
 40
3.5
 50
236.9059410000001
 51
346.81383099999999
  0
ARC
  5
A61
  8
0
 10
223.2471658363236
 20
171.11878787381889
 30
0.0
 40
3.5
 50
356.90594199999998
 51
106.81383099999999
  0
ARC
  5
A62
  8
0
 10
246.3881978363236
 20
171.11878787381889
 30
0.0
 40
3.5
 50
73.186168999999992
 51
183.09405799999999
  0
ARC
  5
A63
  8
0
 10
234.8176818363236
 20
179.82879977397641
 30
0.0
 40
10.0
 50
208.14311375230241
 51
331.85688624768568
  0
LINE
  5
A64
  8
0
 10
226.74206383632369
 20
170.92987387381891
 30
0.0
 11
225.5479559176618
 21
148.8388647767454
 31
0.0
  0
LINE
  5
A65
  8
0
 10
244.08740775498541
 20
148.8388647767454
 30
0.0
 11
242.89329983632359
 21
170.92987387381891
 31
0.0
  0
ARC
  5
A67
  8
0
 10
217.18223802158619
 20
170.39528921548131
 30
0.0
 40
10.0
 50
28.143113752302369
 51
115.1475273129727
1001
GENIUS_GENODEF_13
1002
{
1000
HIER
1070
     0
1002
}
1002
{
1000
MANEDIT
1070
     0
1002
}
1002
{
1000
NOSEL
1070
     0
1002
}
1002
{
1000
BEHIND
1070
     0
1002
}
1002
{
1000
REACTOR
1002
}
1001
GENIUS_GENOBJ-N-FIL_13
1002
{
1000
OWNER
1000
GEN
1002
}
  0
ARC
  5
A68
  8
0
 10
252.4531256510611
 20
170.39528921548131
 30
0.0
 40
10.0
 50
64.852472687027259
 51
151.85688624769759
1001
GENIUS_GENODEF_13
1002
{
1000
HIER
1070
     0
1002
}
1002
{
1000
MANEDIT
1070
     0
1002
}
1002
{
1000
NOSEL
1070
     0
1002
}
1002
{
1000
BEHIND
1070
     0
1002
}
1002
{
1000
REACTOR
1002
}
1001
GENIUS_GENOBJ-N-FIL_13
1002
{
1000
OWNER
1000
GEN
1002
}
  0
CIRCLE
  5
B45
  8
0
 10
234.8176818363236
 20
132.82879977397641
 30
0.0
 40
16.0
  0
ARC
  5
B46
  8
0
 10
234.8176818363236
 20
132.82879977397641
 30
0.0
 40
18.5
 50
0.0705691463577327
 51
59.929431309212852
  0
ARC
  5
B47
  8
0
 10
234.8176818363236
 20
132.82879977397641
 30
0.0
 40
18.5
 50
120.0705686907873
 51
179.9294308536424
  0
ARC
  5
B48
  8
0
 10
234.8176818363236
 20
132.82879977397641
 30
0.0
 40
18.5
 50
240.07056813483339
 51
299.92943186516669
  0
TEXT
  5
C3A
  8
0
 62
     3
 10
0.0
 20
0.0
 30
0.0
 40
10.0
  1
ALV125N
  7
STANDARD1
  0
ENDSEC
  0
EOF
