  0
SECTION
  2
HEADER
  9
$ACADVER
  1
AC1009
  9
$INSBASE
 10
0.0
 20
0.0
 30
0.0
  9
$EXTMIN
 10
-0.0204638472032742
 20
-2.960436562073669
 30
0.0
  9
$EXTMAX
 10
226.14629612663771
 20
242.69383426567771
 30
0.0
  9
$LIMMIN
 10
0.0
 20
0.0
  9
$LIMMAX
 10
270.0
 20
175.0
  9
$ORTHOMODE
 70
     0
  9
$REGENMODE
 70
     1
  9
$FILLMODE
 70
     1
  9
$QTEXTMODE
 70
     0
  9
$MIRRTEXT
 70
     0
  9
$DRAGMODE
 70
     2
  9
$LTSCALE
 40
10.0
  9
$OSMODE
 70
  3071
  9
$ATTMODE
 70
     1
  9
$TEXTSIZE
 40
0.2
  9
$TRACEWID
 40
0.05
  9
$TEXTSTYLE
  7
STANDARD
  9
$CLAYER
  8
0
  9
$CELTYPE
  6
BYLAYER
  9
$CECOLOR
 62
   256
  9
$DIMSCALE
 40
1.0
  9
$DIMASZ
 40
3.0
  9
$DIMEXO
 40
2.0
  9
$DIMDLI
 40
0.38
  9
$DIMRND
 40
0.0
  9
$DIMDLE
 40
0.0
  9
$DIMEXE
 40
2.0
  9
$DIMTP
 40
0.0
  9
$DIMTM
 40
0.0
  9
$DIMTXT
 40
3.0
  9
$DIMCEN
 40
0.0
  9
$DIMTSZ
 40
0.0
  9
$DIMTOL
 70
     0
  9
$DIMLIM
 70
     0
  9
$DIMTIH
 70
     0
  9
$DIMTOH
 70
     0
  9
$DIMSE1
 70
     0
  9
$DIMSE2
 70
     0
  9
$DIMTAD
 70
     1
  9
$DIMZIN
 70
     0
  9
$DIMBLK
  1

  9
$DIMASO
 70
     0
  9
$DIMSHO
 70
     0
  9
$DIMPOST
  1

  9
$DIMAPOST
  1

  9
$DIMALT
 70
     0
  9
$DIMALTD
 70
     2
  9
$DIMALTF
 40
25.399999999999999
  9
$DIMLFAC
 40
1.0
  9
$DIMTOFL
 70
     1
  9
$DIMTVP
 40
1.6000000000000001
  9
$DIMTIX
 70
     1
  9
$DIMSOXD
 70
     0
  9
$DIMSAH
 70
     0
  9
$DIMBLK1
  1

  9
$DIMBLK2
  1

  9
$DIMSTYLE
  2
STANDARD
  9
$DIMCLRD
 70
     0
  9
$DIMCLRE
 70
     0
  9
$DIMCLRT
 70
     0
  9
$DIMTFAC
 40
1.0
  9
$DIMGAP
 40
0.09
  9
$LUNITS
 70
     2
  9
$LUPREC
 70
     4
  9
$SKETCHINC
 40
0.1
  9
$FILLETRAD
 40
0.0
  9
$AUNITS
 70
     1
  9
$AUPREC
 70
     4
  9
$MENU
  1
E:\r13\win\SUPPORT\ACAD
  9
$ELEVATION
 40
0.0
  9
$PELEVATION
 40
0.0
  9
$THICKNESS
 40
0.0
  9
$LIMCHECK
 70
     0
  9
$BLIPMODE
 70
     0
  9
$CHAMFERA
 40
0.0
  9
$CHAMFERB
 40
0.0
  9
$SKPOLY
 70
     0
  9
$TDCREATE
 40
2449839.7803587969
  9
$TDUPDATE
 40
2456597.5496666441
  9
$TDINDWG
 40
0.0506845718
  9
$TDUSRTIMER
 40
0.0506845718
  9
$USRTIMER
 70
     1
  9
$ANGBASE
 50
0.0
  9
$ANGDIR
 70
     0
  9
$PDMODE
 70
     0
  9
$PDSIZE
 40
0.0
  9
$PLINEWID
 40
0.0
  9
$COORDS
 70
     1
  9
$SPLFRAME
 70
     0
  9
$SPLINETYPE
 70
     6
  9
$SPLINESEGS
 70
     8
  9
$ATTDIA
 70
     0
  9
$ATTREQ
 70
     1
  9
$HANDLING
 70
     1
  9
$HANDSEED
  5
F70
  9
$SURFTAB1
 70
     6
  9
$SURFTAB2
 70
     6
  9
$SURFTYPE
 70
     6
  9
$SURFU
 70
     6
  9
$SURFV
 70
     6
  9
$UCSNAME
  2

  9
$UCSORG
 10
0.0
 20
0.0
 30
0.0
  9
$UCSXDIR
 10
1.0
 20
0.0
 30
0.0
  9
$UCSYDIR
 10
0.0
 20
1.0
 30
0.0
  9
$PUCSNAME
  2

  9
$PUCSORG
 10
0.0
 20
0.0
 30
0.0
  9
$PUCSXDIR
 10
1.0
 20
0.0
 30
0.0
  9
$PUCSYDIR
 10
0.0
 20
1.0
 30
0.0
  9
$USERI1
 70
     0
  9
$USERI2
 70
     1
  9
$USERI3
 70
     1
  9
$USERI4
 70
     0
  9
$USERI5
 70
     0
  9
$USERR1
 40
0.0
  9
$USERR2
 40
0.0
  9
$USERR3
 40
0.0
  9
$USERR4
 40
0.0
  9
$USERR5
 40
0.0
  9
$WORLDVIEW
 70
     1
  9
$SHADEDGE
 70
     3
  9
$SHADEDIF
 70
    70
  9
$TILEMODE
 70
     1
  9
$MAXACTVP
 70
    16
  9
$PLIMCHECK
 70
     0
  9
$PEXTMIN
 10
1.0000000000000000E+020
 20
1.0000000000000000E+020
 30
1.0000000000000000E+020
  9
$PEXTMAX
 10
-1.0000000000000000E+020
 20
-1.0000000000000000E+020
 30
-1.0000000000000000E+020
  9
$PLIMMIN
 10
0.0
 20
0.0
  9
$PLIMMAX
 10
12.0
 20
9.0
  9
$UNITMODE
 70
     0
  9
$VISRETAIN
 70
     0
  9
$PLINEGEN
 70
     0
  9
$PSLTSCALE
 70
     0
  0
ENDSEC
  0
SECTION
  2
TABLES
  0
TABLE
  2
VPORT
 70
     1
  0
VPORT
  2
*ACTIVE
 70
     0
 10
0.0
 20
0.0
 11
1.0
 21
1.0
 12
141.79286492714041
 22
119.8656320866483
 13
0.0
 23
0.0
 14
10.0
 24
10.0
 15
10.0
 25
10.0
 16
0.0
 26
0.0
 36
1.0
 17
0.0
 27
0.0
 37
0.0
 40
247.87454765680761
 41
1.831871345029239
 42
50.0
 43
0.0
 44
0.0
 50
0.0
 51
0.0
 71
     0
 72
   500
 73
     1
 74
     0
 75
     0
 76
     0
 77
     0
 78
     2
  0
ENDTAB
  0
TABLE
  2
LTYPE
 70
     4
  0
LTYPE
  2
CONTINUOUS
 70
     0
  3
Solid Line
 72
    65
 73
     0
 40
0.0
  0
LTYPE
  2
CENTER
 70
     0
  3
____ _ ____ _ ____ _ ____ _ ____ _ ____ _ ____
 72
    65
 73
     4
 40
2.0
 49
1.25
 49
-0.25
 49
0.25
 49
-0.25
  0
LTYPE
  2
HIDDEN
 70
     0
  3
__ __ __ __ __ __ __ __ __ __ __ __ __ __ __ __
 72
    65
 73
     2
 40
0.375
 49
0.25
 49
-0.125
  0
LTYPE
  2
PHANTOM2
 70
     0
  3
___ _ _ ___ _ _ ___ _ _ ___ _ _
 72
    65
 73
     6
 40
1.25
 49
0.625
 49
-0.125
 49
0.125
 49
-0.125
 49
0.125
 49
-0.125
  0
ENDTAB
  0
TABLE
  2
LAYER
 70
     4
  0
LAYER
  2
0
 70
     0
 62
     7
  6
CONTINUOUS
  0
LAYER
  2
1
 70
     0
 62
     1
  6
CENTER
  0
LAYER
  2
ITTEN
 70
     0
 62
     1
  6
CENTER
  0
LAYER
  2
2
 70
     0
 62
     2
  6
HIDDEN
  0
ENDTAB
  0
TABLE
  2
STYLE
 70
     2
  0
STYLE
  2
STANDARD
 70
     0
 40
0.0
 41
1.0
 50
0.0
 71
     0
 42
0.2
  3
TXT
  4
BIGFONT
  0
STYLE
  2
STANDARD1
 70
     0
 40
0.0
 41
1.0
 50
0.0
 71
     0
 42
3.0
  3
txt
  4

  0
ENDTAB
  0
TABLE
  2
VIEW
 70
     1
  0
VIEW
  2
ALL
 70
     0
 40
179.5384664489153
 10
135.0
 20
89.769233224457665
 41
0.0
 11
0.0
 21
0.0
 31
1.0
 12
0.0
 22
0.0
 32
0.0
 42
0.0
 43
0.0
 44
0.0
 50
0.0
 71
     0
  0
ENDTAB
  0
TABLE
  2
UCS
 70
     0
  0
ENDTAB
  0
TABLE
  2
APPID
 70
    18
  0
APPID
  2
ACAD
 70
     0
  0
APPID
  2
GENIUS_GENODEF_13
 70
     0
  0
APPID
  2
GENIUS_GENOBJ-N-FIL_13
 70
     0
  0
APPID
  2
GENIUS_GENOREF_13
 70
     0
  0
APPID
  2
GENIUS_GENOBJ-N-CEN_13
 70
     0
  0
APPID
  2
GENIUS_GENCFG_13
 70
     0
  0
APPID
  2
GENIUS_GENCFG0_13
 70
     0
  0
APPID
  2
GENIUS_GENCFG1_13
 70
     0
  0
APPID
  2
GENIUS_GENCFG2_13
 70
     0
  0
APPID
  2
GENIUS_GENCFG3_13
 70
     0
  0
APPID
  2
GENIUS_GENCFG4_13
 70
     0
  0
APPID
  2
GENIUS_GEVCFG0_13
 70
     0
  0
APPID
  2
GENIUS_GENOENT_13
 70
     0
  0
APPID
  2
GENIUS_GENOBJ-N-CRS_13
 70
     0
  0
APPID
  2
GENIUS_GENOLIS_13
 70
     0
  0
APPID
  2
DCO15
 70
     0
  0
APPID
  2
ACAD_MLEADERVER
 70
     0
  0
APPID
  2
ACAD_NAV_VCDISPLAY
 70
     0
  0
ENDTAB
  0
TABLE
  2
DIMSTYLE
 70
     1
  0
DIMSTYLE
  2
STANDARD
 70
     0
  3

  4

  5

  6

  7

 40
1.0
 41
0.18
 42
0.0625
 43
0.38
 44
0.18
 45
0.0
 46
0.0
 47
0.0
 48
0.0
140
0.18
141
0.09
142
0.0
143
25.399999999999999
144
1.0
145
0.0
146
1.0
147
0.09
 71
     0
 72
     0
 73
     1
 74
     1
 75
     0
 76
     0
 77
     0
 78
     0
170
     0
171
     2
172
     0
173
     0
174
     0
175
     0
176
     0
177
     0
178
     0
  0
ENDTAB
  0
ENDSEC
  0
SECTION
  2
BLOCKS
  0
BLOCK
  8
0
  2
$MODEL_SPACE
 70
     0
 10
0.0
 20
0.0
 30
0.0
  3
$MODEL_SPACE
  1

  0
ENDBLK
  5
DC9
  8
0
  0
BLOCK
 67
     1
  8
0
  2
$PAPER_SPACE
 70
     0
 10
0.0
 20
0.0
 30
0.0
  3
$PAPER_SPACE
  1

  0
ENDBLK
  5
DC7
 67
     1
  8
0
  0
BLOCK
  8
0
  2
BATU
 70
     0
 10
0.0
 20
0.0
 30
0.0
  3
BATU
  1

  0
LINE
  5
92D
  8
ITTEN
 10
0.5
 20
0.0
 30
0.0
 11
-0.5
 21
0.0
 31
0.0
  0
LINE
  5
92E
  8
ITTEN
 10
0.0
 20
0.5
 30
0.0
 11
0.0
 21
-0.5
 31
0.0
  0
ENDBLK
  5
932
  8
0
  0
ENDSEC
  0
SECTION
  2
ENTITIES
  0
LINE
  5
D26
  8
0
 10
196.39629612663771
 20
53.049766650308207
 30
0.0
 11
196.91994812663771
 21
83.049766650308214
 31
0.0
  0
LINE
  5
D27
  8
0
 10
169.37264412663771
 20
83.049766650308214
 30
0.0
 11
169.89629612663771
 21
53.049766650308207
 31
0.0
  0
LINE
  5
D28
  8
2
 10
190.14629612663771
 20
81.049766650308214
 30
0.0
 11
190.14629612663771
 21
87.049766650307916
 31
0.0
  0
LINE
  5
D29
  8
2
 10
176.14629612663759
 20
81.049766650308214
 30
0.0
 11
176.14629612663759
 21
87.049766650307916
 31
0.0
  0
LINE
  5
D2A
  8
2
 10
175.14629612663759
 20
53.049766650308207
 30
0.0
 11
175.14629612663759
 21
81.049766650308214
 31
0.0
  0
LINE
  5
D2B
  8
2
 10
191.14629612663771
 20
53.049766650308207
 30
0.0
 11
191.14629612663771
 21
81.049766650308214
 31
0.0
  0
LINE
  5
D2C
  8
1
 10
183.14629612663771
 20
48.049766650308207
 30
0.0
 11
183.14629612663771
 21
106.0497666503082
 31
0.0
  0
LINE
  5
D2D
  8
0
 10
169.89629612663771
 20
53.049766650308207
 30
0.0
 11
196.39629612663771
 21
53.049766650308207
 31
0.0
  0
LINE
  5
D31
  8
2
 10
183.14629612663771
 20
91.091218534635317
 30
0.0
 11
176.14629612663759
 21
87.049766650307888
 31
0.0
  0
LINE
  5
D32
  8
0
 10
147.14629612663771
 20
83.049766650308214
 30
0.0
 11
219.14629612663771
 21
83.049766650308214
 31
0.0
  0
LINE
  5
D33
  8
2
 10
191.14629612663771
 20
81.049766650308214
 30
0.0
 11
175.14629612663759
 21
81.049766650308214
 31
0.0
  0
LINE
  5
D34
  8
2
 10
190.14629612663771
 20
87.049766650307916
 30
0.0
 11
176.14629612663759
 21
87.049766650307916
 31
0.0
  0
LINE
  5
D35
  8
1
 10
226.14629612663771
 20
199.69383426567771
 30
0.0
 11
140.14629612663771
 21
199.69383426567771
 31
0.0
  0
ARC
  5
D36
  8
0
 10
183.14629612663771
 20
165.69383426567771
 30
0.0
 40
6.0
 50
179.66167899999999
 51
0.338321
  0
ARC
  5
D37
  8
0
 10
183.14629612663771
 20
233.69383426567771
 30
0.0
 40
6.0
 50
359.66167899999999
 51
180.33832100000001
  0
ARC
  5
D38
  8
0
 10
149.34588412663771
 20
165.89342226567771
 30
0.0
 40
27.801002
 50
359.66167899999999
 51
90.338320999999993
  0
ARC
  5
D39
  8
0
 10
149.34588412663771
 20
233.4942462656777
 30
0.0
 40
27.801002
 50
269.66167899999999
 51
0.338321
  0
ARC
  5
D3A
  8
0
 10
183.14629612663771
 20
3.0497666503082139
 30
0.0
 40
100.0
 50
67.975686999999994
 51
112.02431300000001
  0
ARC
  5
D3B
  8
0
 10
149.14629612663771
 20
199.69383426567771
 30
0.0
 40
6.0
 50
89.661679000000007
 51
270.33832100000001
  0
LINE
  5
D3C
  8
0
 10
143.14629612663771
 20
92.044148650308216
 30
0.0
 11
143.14629612663771
 21
87.049766650308214
 31
0.0
  0
ARC
  5
D3D
  8
0
 10
147.14629612663771
 20
87.049766650308214
 30
0.0
 40
4.0
 50
180.0
 51
270.0
  0
ARC
  5
D3E
  8
0
 10
147.14629612663771
 20
92.044148650308216
 30
0.0
 40
4.0
 50
112.02431300000001
 51
180.0
  0
LINE
  5
D40
  8
1
 10
183.14629612663771
 20
156.69383426567771
 30
0.0
 11
183.14629612663771
 21
242.69383426567771
 31
0.0
  0
ARC
  5
D41
  8
0
 10
217.14629612663771
 20
199.69383426567771
 30
0.0
 40
6.0
 50
269.66167899999999
 51
90.338320999999993
  0
ARC
  5
D42
  8
0
 10
216.9467081266377
 20
233.4942462656777
 30
0.0
 40
27.801002
 50
179.66167899999999
 51
270.33832100000001
  0
LINE
  5
D43
  8
2
 10
183.14629612663771
 20
91.091218534635317
 30
0.0
 11
190.14629612663779
 21
87.049766650307888
 31
0.0
  0
LINE
  5
D45
  8
0
 10
223.14629612663771
 20
92.044148650308216
 30
0.0
 11
223.14629612663771
 21
87.049766650308214
 31
0.0
  0
ARC
  5
D46
  8
0
 10
219.14629612663771
 20
87.049766650308214
 30
0.0
 40
4.0
 50
270.0
 51
0.0
  0
ARC
  5
D47
  8
0
 10
219.14629612663771
 20
92.044148650308216
 30
0.0
 40
4.0
 50
0.0
 51
67.975686999999994
  0
ARC
  5
D48
  8
0
 10
216.9467081266377
 20
165.89342226567771
 30
0.0
 40
27.801002
 50
89.661679000000007
 51
180.33832100000001
  0
INSERT
  5
D49
  8
0
  2
BATU
 10
183.14629612663771
 20
199.69383426567771
 30
0.0
 41
0.001
 42
0.001
 43
0.001
  0
TEXT
  5
EDF
  8
0
 62
     3
 10
0.0
 20
0.0
 30
0.0
 40
10.0
  1
ALCK80R
  7
STANDARD1
  0
ENDSEC
  0
EOF
