  0
SECTION
  2
HEADER
  9
$ACADVER
  1
AC1009
  9
$INSBASE
 10
0.0
 20
0.0
 30
0.0
  9
$EXTMIN
 10
-0.0204638472032742
 20
-2.960436562073669
 30
0.0
  9
$EXTMAX
 10
173.55191910059469
 20
177.0101930911631
 30
0.0
  9
$LIMMIN
 10
0.0
 20
0.0
  9
$LIMMAX
 10
270.0
 20
175.0
  9
$ORTHOMODE
 70
     0
  9
$REGENMODE
 70
     1
  9
$FILLMODE
 70
     1
  9
$QTEXTMODE
 70
     0
  9
$MIRRTEXT
 70
     0
  9
$DRAGMODE
 70
     2
  9
$LTSCALE
 40
10.0
  9
$OSMODE
 70
  3071
  9
$ATTMODE
 70
     1
  9
$TEXTSIZE
 40
0.2
  9
$TRACEWID
 40
0.05
  9
$TEXTSTYLE
  7
STANDARD
  9
$CLAYER
  8
0
  9
$CELTYPE
  6
BYLAYER
  9
$CECOLOR
 62
   256
  9
$DIMSCALE
 40
1.0
  9
$DIMASZ
 40
3.0
  9
$DIMEXO
 40
2.0
  9
$DIMDLI
 40
0.38
  9
$DIMRND
 40
0.0
  9
$DIMDLE
 40
0.0
  9
$DIMEXE
 40
2.0
  9
$DIMTP
 40
0.0
  9
$DIMTM
 40
0.0
  9
$DIMTXT
 40
3.0
  9
$DIMCEN
 40
0.0
  9
$DIMTSZ
 40
0.0
  9
$DIMTOL
 70
     0
  9
$DIMLIM
 70
     0
  9
$DIMTIH
 70
     0
  9
$DIMTOH
 70
     0
  9
$DIMSE1
 70
     0
  9
$DIMSE2
 70
     0
  9
$DIMTAD
 70
     1
  9
$DIMZIN
 70
     0
  9
$DIMBLK
  1

  9
$DIMASO
 70
     1
  9
$DIMSHO
 70
     0
  9
$DIMPOST
  1

  9
$DIMAPOST
  1

  9
$DIMALT
 70
     0
  9
$DIMALTD
 70
     2
  9
$DIMALTF
 40
25.399999999999999
  9
$DIMLFAC
 40
1.0
  9
$DIMTOFL
 70
     1
  9
$DIMTVP
 40
1.6000000000000001
  9
$DIMTIX
 70
     1
  9
$DIMSOXD
 70
     0
  9
$DIMSAH
 70
     0
  9
$DIMBLK1
  1

  9
$DIMBLK2
  1

  9
$DIMSTYLE
  2
STANDARD
  9
$DIMCLRD
 70
     0
  9
$DIMCLRE
 70
     0
  9
$DIMCLRT
 70
     0
  9
$DIMTFAC
 40
1.0
  9
$DIMGAP
 40
0.09
  9
$LUNITS
 70
     2
  9
$LUPREC
 70
     4
  9
$SKETCHINC
 40
0.1
  9
$FILLETRAD
 40
0.0
  9
$AUNITS
 70
     1
  9
$AUPREC
 70
     4
  9
$MENU
  1
E:\r13\win\SUPPORT\ACAD
  9
$ELEVATION
 40
0.0
  9
$PELEVATION
 40
0.0
  9
$THICKNESS
 40
0.0
  9
$LIMCHECK
 70
     0
  9
$BLIPMODE
 70
     0
  9
$CHAMFERA
 40
0.0
  9
$CHAMFERB
 40
0.0
  9
$SKPOLY
 70
     0
  9
$TDCREATE
 40
2449839.7803587969
  9
$TDUPDATE
 40
2456597.549601262
  9
$TDINDWG
 40
0.0577165162
  9
$TDUSRTIMER
 40
0.0577165162
  9
$USRTIMER
 70
     1
  9
$ANGBASE
 50
0.0
  9
$ANGDIR
 70
     0
  9
$PDMODE
 70
     0
  9
$PDSIZE
 40
0.0
  9
$PLINEWID
 40
0.0
  9
$COORDS
 70
     1
  9
$SPLFRAME
 70
     0
  9
$SPLINETYPE
 70
     6
  9
$SPLINESEGS
 70
     8
  9
$ATTDIA
 70
     0
  9
$ATTREQ
 70
     1
  9
$HANDLING
 70
     1
  9
$HANDSEED
  5
F61
  9
$SURFTAB1
 70
     6
  9
$SURFTAB2
 70
     6
  9
$SURFTYPE
 70
     6
  9
$SURFU
 70
     6
  9
$SURFV
 70
     6
  9
$UCSNAME
  2

  9
$UCSORG
 10
0.0
 20
0.0
 30
0.0
  9
$UCSXDIR
 10
1.0
 20
0.0
 30
0.0
  9
$UCSYDIR
 10
0.0
 20
1.0
 30
0.0
  9
$PUCSNAME
  2

  9
$PUCSORG
 10
0.0
 20
0.0
 30
0.0
  9
$PUCSXDIR
 10
1.0
 20
0.0
 30
0.0
  9
$PUCSYDIR
 10
0.0
 20
1.0
 30
0.0
  9
$USERI1
 70
     0
  9
$USERI2
 70
     1
  9
$USERI3
 70
     1
  9
$USERI4
 70
     0
  9
$USERI5
 70
     0
  9
$USERR1
 40
0.0
  9
$USERR2
 40
0.0
  9
$USERR3
 40
0.0
  9
$USERR4
 40
0.0
  9
$USERR5
 40
0.0
  9
$WORLDVIEW
 70
     1
  9
$SHADEDGE
 70
     3
  9
$SHADEDIF
 70
    70
  9
$TILEMODE
 70
     1
  9
$MAXACTVP
 70
    16
  9
$PLIMCHECK
 70
     0
  9
$PEXTMIN
 10
1.0000000000000000E+020
 20
1.0000000000000000E+020
 30
1.0000000000000000E+020
  9
$PEXTMAX
 10
-1.0000000000000000E+020
 20
-1.0000000000000000E+020
 30
-1.0000000000000000E+020
  9
$PLIMMIN
 10
0.0
 20
0.0
  9
$PLIMMAX
 10
12.0
 20
9.0
  9
$UNITMODE
 70
     0
  9
$VISRETAIN
 70
     0
  9
$PLINEGEN
 70
     0
  9
$PSLTSCALE
 70
     0
  0
ENDSEC
  0
SECTION
  2
TABLES
  0
TABLE
  2
VPORT
 70
     1
  0
VPORT
  2
*ACTIVE
 70
     0
 10
0.0
 20
0.0
 11
1.0
 21
1.0
 12
139.97259201135469
 22
87.026320699930025
 13
0.0
 23
0.0
 14
10.0
 24
10.0
 15
10.0
 25
10.0
 16
0.0
 26
0.0
 36
1.0
 17
0.0
 27
0.0
 37
0.0
 40
181.59270684572419
 41
1.831871345029239
 42
50.0
 43
0.0
 44
0.0
 50
0.0
 51
0.0
 71
     0
 72
   500
 73
     1
 74
     0
 75
     0
 76
     0
 77
     0
 78
     2
  0
ENDTAB
  0
TABLE
  2
LTYPE
 70
     4
  0
LTYPE
  2
CONTINUOUS
 70
     0
  3
Solid Line
 72
    65
 73
     0
 40
0.0
  0
LTYPE
  2
CENTER
 70
     0
  3
____ _ ____ _ ____ _ ____ _ ____ _ ____ _ ____
 72
    65
 73
     4
 40
2.0
 49
1.25
 49
-0.25
 49
0.25
 49
-0.25
  0
LTYPE
  2
HIDDEN
 70
     0
  3
__ __ __ __ __ __ __ __ __ __ __ __ __ __ __ __
 72
    65
 73
     2
 40
0.375
 49
0.25
 49
-0.125
  0
LTYPE
  2
PHANTOM2
 70
     0
  3
___ _ _ ___ _ _ ___ _ _ ___ _ _
 72
    65
 73
     6
 40
1.25
 49
0.625
 49
-0.125
 49
0.125
 49
-0.125
 49
0.125
 49
-0.125
  0
ENDTAB
  0
TABLE
  2
LAYER
 70
     5
  0
LAYER
  2
0
 70
     0
 62
     7
  6
CONTINUOUS
  0
LAYER
  2
1
 70
     0
 62
     1
  6
CENTER
  0
LAYER
  2
ITTEN
 70
     0
 62
     1
  6
CENTER
  0
LAYER
  2
2
 70
     0
 62
     2
  6
HIDDEN
  0
LAYER
  2
3
 70
     0
 62
     3
  6
CONTINUOUS
  0
ENDTAB
  0
TABLE
  2
STYLE
 70
     2
  0
STYLE
  2
STANDARD
 70
     0
 40
0.0
 41
1.0
 50
0.0
 71
     0
 42
0.2
  3
TXT
  4
BIGFONT
  0
STYLE
  2
STANDARD1
 70
     0
 40
0.0
 41
1.0
 50
0.0
 71
     0
 42
3.0
  3
txt
  4

  0
ENDTAB
  0
TABLE
  2
VIEW
 70
     1
  0
VIEW
  2
ALL
 70
     0
 40
179.5384664489153
 10
135.0
 20
89.769233224457665
 41
0.0
 11
0.0
 21
0.0
 31
1.0
 12
0.0
 22
0.0
 32
0.0
 42
0.0
 43
0.0
 44
0.0
 50
0.0
 71
     0
  0
ENDTAB
  0
TABLE
  2
UCS
 70
     0
  0
ENDTAB
  0
TABLE
  2
APPID
 70
    17
  0
APPID
  2
ACAD
 70
     0
  0
APPID
  2
GENIUS_GENODEF_13
 70
     0
  0
APPID
  2
GENIUS_GENOBJ-N-FIL_13
 70
     0
  0
APPID
  2
GENIUS_GENOREF_13
 70
     0
  0
APPID
  2
GENIUS_GENOBJ-N-CEN_13
 70
     0
  0
APPID
  2
GENIUS_GENCFG_13
 70
     0
  0
APPID
  2
GENIUS_GENCFG0_13
 70
     0
  0
APPID
  2
GENIUS_GENCFG1_13
 70
     0
  0
APPID
  2
GENIUS_GENCFG2_13
 70
     0
  0
APPID
  2
GENIUS_GENCFG3_13
 70
     0
  0
APPID
  2
GENIUS_GENCFG4_13
 70
     0
  0
APPID
  2
GENIUS_GEVCFG0_13
 70
     0
  0
APPID
  2
GENIUS_GENOENT_13
 70
     0
  0
APPID
  2
GENIUS_GENOBJ-N-CRS_13
 70
     0
  0
APPID
  2
GENIUS_GENOLIS_13
 70
     0
  0
APPID
  2
ACAD_MLEADERVER
 70
     0
  0
APPID
  2
ACAD_NAV_VCDISPLAY
 70
     0
  0
ENDTAB
  0
TABLE
  2
DIMSTYLE
 70
     1
  0
DIMSTYLE
  2
STANDARD
 70
     0
  3

  4

  5

  6

  7

 40
1.0
 41
0.18
 42
0.0625
 43
0.38
 44
0.18
 45
0.0
 46
0.0
 47
0.0
 48
0.0
140
0.18
141
0.09
142
0.0
143
25.399999999999999
144
1.0
145
0.0
146
1.0
147
0.09
 71
     0
 72
     0
 73
     1
 74
     1
 75
     0
 76
     0
 77
     0
 78
     0
170
     0
171
     2
172
     0
173
     0
174
     0
175
     0
176
     0
177
     0
178
     0
  0
ENDTAB
  0
ENDSEC
  0
SECTION
  2
BLOCKS
  0
BLOCK
  8
0
  2
$MODEL_SPACE
 70
     0
 10
0.0
 20
0.0
 30
0.0
  3
$MODEL_SPACE
  1

  0
ENDBLK
  5
D7B
  8
0
  0
BLOCK
 67
     1
  8
0
  2
$PAPER_SPACE
 70
     0
 10
0.0
 20
0.0
 30
0.0
  3
$PAPER_SPACE
  1

  0
ENDBLK
  5
D79
 67
     1
  8
0
  0
BLOCK
  8
0
  2
BATU
 70
     0
 10
0.0
 20
0.0
 30
0.0
  3
BATU
  1

  0
LINE
  5
92D
  8
ITTEN
 10
0.5
 20
0.0
 30
0.0
 11
-0.5
 21
0.0
 31
0.0
  0
LINE
  5
92E
  8
ITTEN
 10
0.0
 20
0.5
 30
0.0
 11
0.0
 21
-0.5
 31
0.0
  0
ENDBLK
  5
932
  8
0
  0
ENDSEC
  0
SECTION
  2
ENTITIES
  0
POINT
  5
5AB
  8
0
 10
17.451829364787699
 20
2.8898092584588531
 30
0.0
1001
GENIUS_GENODEF_13
1002
{
1000
HIER
1070
    10
1002
}
1002
{
1000
MANEDIT
1070
     0
1002
}
1002
{
1000
NOSEL
1070
     0
1002
}
1002
{
1000
BEHIND
1070
     0
1002
}
1002
{
1000
REACTOR
1002
}
1001
GENIUS_GENOBJ-N-CRS_13
1002
{
1000
OWNER
1000
GEN
1002
}
1001
GENIUS_GENOENT_13
1002
{
1000
MYREF
1005
5AB
1002
}
1002
{
1000
GRP
1005
0
1002
}
1001
GENIUS_GENOLIS_13
1002
{
1000
ENT
1005
0
1005
0
1005
0
1005
5AA
1002
}
  0
LINE
  5
C7F
  8
1
 10
104.5519191005947
 20
142.5101930911631
 30
0.0
 11
173.55191910059469
 21
142.5101930911631
 31
0.0
  0
ARC
  5
C80
  8
0
 10
112.5519191005947
 20
142.5101930911631
 30
0.0
 40
5.0
 50
90.121875000000017
 51
269.87812000000008
  0
ARC
  5
C81
  8
0
 10
139.05191910059469
 20
-2.8339398185283642
 30
0.0
 40
80.0
 50
90.0
 51
111.46711999999999
  0
LINE
  5
C82
  8
0
 10
111.0519241005947
 20
62.166060181471643
 30
0.0
 11
167.0519131005947
 21
62.166060181471643
 31
0.0
  0
LINE
  5
C83
  8
0
 10
107.55192210059469
 20
68.357700181471643
 30
0.0
 11
107.55192210059469
 21
65.666060181471323
 31
0.0
  0
POLYLINE
  5
C84
  8
0
 66
     1
 10
0.0
 20
0.0
 30
0.0
 70
     2
  0
VERTEX
  5
C85
  8
0
 10
107.55192210059469
 20
65.666060181471636
 30
0.0
  0
VERTEX
  5
C86
  8
0
 10
107.55796210059469
 20
65.45695018147164
 30
0.0
 42
0.016283
 70
     1
  0
VERTEX
  5
C87
  8
0
 10
107.5773651005947
 20
65.244800181471632
 30
0.0
 42
0.015331
  0
VERTEX
  5
C88
  8
0
 10
107.6105861005947
 20
65.029280181471634
 30
0.0
 42
0.015037
 70
     1
  0
VERTEX
  5
C89
  8
0
 10
107.6577531005947
 20
64.811880181471636
 30
0.0
 42
0.015814
  0
VERTEX
  5
C8A
  8
0
 10
107.7202221005947
 20
64.594210181471638
 30
0.0
 42
0.016169
 70
     1
  0
VERTEX
  5
C8B
  8
0
 10
107.79766110059469
 20
64.377730181471634
 30
0.0
 42
0.016375
  0
VERTEX
  5
C8C
  8
0
 10
107.8908231005947
 20
64.16397018147164
 30
0.0
 42
0.016511
 70
     1
  0
VERTEX
  5
C8D
  8
0
 10
107.99900810059469
 20
63.95441018147163
 30
0.0
 42
0.016804
  0
VERTEX
  5
C8E
  8
0
 10
108.1226201005947
 20
63.750900181471629
 30
0.0
 42
0.016901
 70
     1
  0
VERTEX
  5
C8F
  8
0
 10
108.26043510059471
 20
63.554750181471633
 30
0.0
 42
0.016967
  0
VERTEX
  5
C90
  8
0
 10
108.4123191005947
 20
63.367850181471638
 30
0.0
 42
0.017131
 70
     1
  0
VERTEX
  5
C91
  8
0
 10
108.5770451005947
 20
63.191180181471637
 30
0.0
 42
0.017449
  0
VERTEX
  5
C92
  8
0
 10
108.75412410059469
 20
63.026540181471631
 30
0.0
 42
0.017076
 70
     1
  0
VERTEX
  5
C93
  8
0
 10
108.94061110059469
 20
62.87457018147164
 30
0.0
 42
0.016147
  0
VERTEX
  5
C94
  8
0
 10
109.1350901005947
 20
62.736840181471642
 30
0.0
 42
0.017354
 70
     1
  0
VERTEX
  5
C95
  8
0
 10
109.3402731005947
 20
62.613150181471639
 30
0.0
 42
0.019902
  0
VERTEX
  5
C96
  8
0
 10
109.5564301005947
 20
62.504550181471643
 30
0.0
 42
0.015787
 70
     1
  0
VERTEX
  5
C97
  8
0
 10
109.7635881005947
 20
62.411800181471627
 30
0.0
 42
0.007154
  0
VERTEX
  5
C98
  8
0
 10
109.95403010059469
 20
62.336020181471639
 30
0.0
 42
0.02043
 70
     1
  0
VERTEX
  5
C99
  8
0
 10
110.19773810059471
 20
62.271890181471633
 30
0.0
 42
0.034037
  0
VERTEX
  5
C9A
  8
0
 10
110.56862310059471
 20
62.215120181471633
 30
0.0
 42
0.017611
 70
     1
  0
VERTEX
  5
C9B
  8
0
 10
111.0519241005947
 20
62.166060181471643
 30
0.0
 42
0.009708
  0
SEQEND
  5
C9C
  8
0
  0
POLYLINE
  5
C9D
  8
0
 66
     1
 10
0.0
 20
0.0
 30
0.0
 70
     2
  0
VERTEX
  5
C9E
  8
0
 10
109.77078510059469
 20
71.614800181471637
 30
0.0
  0
VERTEX
  5
C9F
  8
0
 10
109.4650481005947
 20
71.477350181471635
 30
0.0
 42
0.02586
 70
     1
  0
VERTEX
  5
CA0
  8
0
 10
109.17080410059469
 20
71.309240181471637
 30
0.0
 42
0.023097
  0
VERTEX
  5
CA1
  8
0
 10
108.8878331005947
 20
71.110010181471637
 30
0.0
 42
0.024306
 70
     1
  0
VERTEX
  5
CA2
  8
0
 10
108.62043910059469
 20
70.875290181471627
 30
0.0
 42
0.029841
  0
VERTEX
  5
CA3
  8
0
 10
108.3756151005947
 20
70.603580181471642
 30
0.0
 42
0.024041
 70
     1
  0
VERTEX
  5
CA4
  8
0
 10
108.1592691005947
 20
70.328240181471642
 30
0.0
 42
0.010736
  0
VERTEX
  5
CA5
  8
0
 10
107.9769681005947
 20
70.062380181471639
 30
0.0
 42
0.03175
 70
     1
  0
VERTEX
  5
CA6
  8
0
 10
107.8189991005947
 20
69.698840181471638
 30
0.0
 42
0.054227
  0
VERTEX
  5
CA7
  8
0
 10
107.6771131005947
 20
69.122800181471632
 30
0.0
 42
0.027982
 70
     1
  0
VERTEX
  5
CA8
  8
0
 10
107.55192210059469
 20
68.357700181471643
 30
0.0
 42
0.014864
  0
SEQEND
  5
CA9
  8
0
  0
LINE
  5
CAA
  8
1
 10
139.05191910059469
 20
177.0101930911631
 30
0.0
 11
139.05191910059469
 21
108.0101930911631
 31
0.0
  0
ARC
  5
CAB
  8
0
 10
139.05191910059469
 20
-2.8339398185283642
 30
0.0
 40
80.0
 50
68.530831000000006
 51
90.0
  0
ARC
  5
CAC
  8
0
 10
158.16789110059469
 20
57.166060181471643
 30
0.0
 40
5.0
 50
90.0
 51
175.426086
  0
LINE
  5
CAD
  8
2
 10
139.05191910059469
 20
68.052811527419678
 30
0.0
 11
134.0519191005948
 21
65.166060181471593
 31
0.0
  0
LINE
  5
CAE
  8
2
 10
139.05191910059469
 20
68.052811527419678
 30
0.0
 11
144.0519191005946
 21
65.166060181471593
 31
0.0
  0
LINE
  5
CAF
  8
1
 10
139.05191910059469
 20
32.166060181471643
 30
0.0
 11
139.05191910059469
 21
79.58066118147164
 31
0.0
  0
LINE
  5
CB1
  8
0
 10
126.5519191005947
 20
37.166060181471643
 30
0.0
 11
151.55191910059469
 21
37.166060181471643
 31
0.0
  0
LINE
  5
CB2
  8
0
 10
124.9200241005947
 20
57.564785181471628
 30
0.0
 11
126.5519191005947
 21
37.166060181471643
 31
0.0
  0
ARC
  5
CB3
  8
0
 10
119.9359481005947
 20
57.166060181471643
 30
0.0
 40
5.0
 50
4.5739119999999991
 51
90.0
  0
LINE
  5
CB4
  8
2
 10
145.0519191005946
 20
37.166060181471643
 30
0.0
 11
145.0519191005946
 21
59.166060181471629
 31
0.0
  0
LINE
  5
CB5
  8
2
 10
133.05191910059469
 20
37.166060181471643
 30
0.0
 11
133.05191910059469
 21
59.166060181471629
 31
0.0
  0
LINE
  5
CB6
  8
2
 10
134.0519191005948
 20
59.166060181471629
 30
0.0
 11
134.0519191005948
 21
65.166060181471607
 31
0.0
  0
LINE
  5
CB7
  8
2
 10
144.0519191005946
 20
59.166060181471629
 30
0.0
 11
144.0519191005946
 21
65.166060181471565
 31
0.0
  0
LINE
  5
CB8
  8
0
 10
151.55191910059469
 20
37.166060181471643
 30
0.0
 11
153.1838151005947
 21
57.564786181471632
 31
0.0
  0
LINE
  5
CBB
  8
2
 10
145.0519191005946
 20
59.166060181471629
 30
0.0
 11
133.05191910059469
 21
59.166060181471629
 31
0.0
  0
LINE
  5
CBC
  8
2
 10
144.0519191005946
 20
65.166060181471565
 30
0.0
 11
134.0519191005948
 21
65.166060181471593
 31
0.0
  0
LINE
  5
CBF
  8
0
 10
170.5519151005947
 20
65.666060181471892
 30
0.0
 11
170.5519151005947
 21
68.357700181471643
 31
0.0
  0
POLYLINE
  5
CC0
  8
0
 66
     1
 10
0.0
 20
0.0
 30
0.0
 70
     2
  0
VERTEX
  5
CC1
  8
0
 10
167.0519131005947
 20
62.166060181471643
 30
0.0
  0
VERTEX
  5
CC2
  8
0
 10
167.26102410059471
 20
62.172100181471627
 30
0.0
 42
0.016283
 70
     1
  0
VERTEX
  5
CC3
  8
0
 10
167.47317710059471
 20
62.191510181471628
 30
0.0
 42
0.015331
  0
VERTEX
  5
CC4
  8
0
 10
167.68869410059469
 20
62.224730181471628
 30
0.0
 42
0.015037
 70
     1
  0
VERTEX
  5
CC5
  8
0
 10
167.9060991005947
 20
62.271890181471633
 30
0.0
 42
0.015814
  0
VERTEX
  5
CC6
  8
0
 10
168.1237671005947
 20
62.334360181471631
 30
0.0
 42
0.016169
 70
     1
  0
VERTEX
  5
CC7
  8
0
 10
168.34024910059469
 20
62.411800181471627
 30
0.0
 42
0.016375
  0
VERTEX
  5
CC8
  8
0
 10
168.55400610059471
 20
62.504960181471631
 30
0.0
 42
0.016511
 70
     1
  0
VERTEX
  5
CC9
  8
0
 10
168.76356410059469
 20
62.613150181471639
 30
0.0
 42
0.016804
  0
VERTEX
  5
CCA
  8
0
 10
168.96707610059471
 20
62.736760181471631
 30
0.0
 42
0.016901
 70
     1
  0
VERTEX
  5
CCB
  8
0
 10
169.1632261005947
 20
62.87457018147164
 30
0.0
 42
0.016967
  0
VERTEX
  5
CCC
  8
0
 10
169.3501301005947
 20
63.026460181471627
 30
0.0
 42
0.017131
 70
     1
  0
VERTEX
  5
CCD
  8
0
 10
169.52679210059469
 20
63.191180181471637
 30
0.0
 42
0.017449
  0
VERTEX
  5
CCE
  8
0
 10
169.6914381005947
 20
63.368260181471641
 30
0.0
 42
0.017076
 70
     1
  0
VERTEX
  5
CCF
  8
0
 10
169.84340210059469
 20
63.554750181471633
 30
0.0
 42
0.016147
  0
VERTEX
  5
CD0
  8
0
 10
169.98113710059471
 20
63.749230181471631
 30
0.0
 42
0.017354
 70
     1
  0
VERTEX
  5
CD1
  8
0
 10
170.10483010059471
 20
63.95441018147163
 30
0.0
 42
0.019902
  0
VERTEX
  5
CD2
  8
0
 10
170.21342710059471
 20
64.170570181471632
 30
0.0
 42
0.015787
 70
     1
  0
VERTEX
  5
CD3
  8
0
 10
170.30617710059471
 20
64.377730181471634
 30
0.0
 42
0.007154
  0
VERTEX
  5
CD4
  8
0
 10
170.38195910059471
 20
64.568170181471615
 30
0.0
 42
0.02043
 70
     1
  0
VERTEX
  5
CD5
  8
0
 10
170.4460841005947
 20
64.811880181471636
 30
0.0
 42
0.034036
  0
VERTEX
  5
CD6
  8
0
 10
170.5028541005947
 20
65.182760181471636
 30
0.0
 42
0.017611
 70
     1
  0
VERTEX
  5
CD7
  8
0
 10
170.5519151005947
 20
65.666060181471636
 30
0.0
 42
0.009708
  0
SEQEND
  5
CD8
  8
0
  0
POLYLINE
  5
CD9
  8
0
 66
     1
 10
0.0
 20
0.0
 30
0.0
 70
     2
  0
VERTEX
  5
CDA
  8
0
 10
170.5521851005947
 20
68.357670181471633
 30
0.0
  0
VERTEX
  5
CDB
  8
0
 10
170.5361641005947
 20
68.692480181471637
 30
0.0
 42
0.025861
 70
     1
  0
VERTEX
  5
CDC
  8
0
 10
170.48739710059471
 20
69.027830181471643
 30
0.0
 42
0.023097
  0
VERTEX
  5
CDD
  8
0
 10
170.4055471005947
 20
69.364080181471635
 30
0.0
 42
0.024306
 70
     1
  0
VERTEX
  5
CDE
  8
0
 10
170.28496810059471
 20
69.698830181471635
 30
0.0
 42
0.029839
  0
VERTEX
  5
CDF
  8
0
 10
170.12170210059469
 20
70.02612018147164
 30
0.0
 42
0.024039
 70
     1
  0
VERTEX
  5
CE0
  8
0
 10
169.94464210059471
 20
70.328230181471639
 30
0.0
 42
0.010735
  0
VERTEX
  5
CE1
  8
0
 10
169.76393910059471
 20
70.595200181471625
 30
0.0
 42
0.031747
 70
     1
  0
VERTEX
  5
CE2
  8
0
 10
169.48343110059469
 20
70.875280181471638
 30
0.0
 42
0.054219
  0
VERTEX
  5
CE3
  8
0
 10
168.99927010059471
 20
71.218200181471644
 30
0.0
 42
0.027977
 70
     1
  0
VERTEX
  5
CE4
  8
0
 10
168.3330521005947
 20
71.614800181471637
 30
0.0
 42
0.014861
  0
SEQEND
  5
CE5
  8
0
  0
ARC
  5
CE6
  8
0
 10
165.6084131005947
 20
115.9536930911631
 30
0.0
 40
21.556553999999998
 50
92.871227000000005
 51
135.0
  0
ARC
  5
CE7
  8
0
 10
165.6084131005947
 20
169.0666830911631
 30
0.0
 40
21.556553999999998
 50
225.0
 51
267.12326999999999
  0
ARC
  5
CE8
  8
0
 10
112.4954241005947
 20
169.0666830911631
 30
0.0
 40
21.556553999999998
 50
272.87123000000003
 51
315.0
  0
ARC
  5
CE9
  8
0
 10
112.4954241005947
 20
115.9536930911631
 30
0.0
 40
21.556553999999998
 50
2.8712270000000002
 51
45.0
  0
ARC
  5
CEA
  8
0
 10
112.4954241005947
 20
115.9536930911631
 30
0.0
 40
21.556553999999998
 50
45.0
 51
87.123272
  0
ARC
  5
CEB
  8
0
 10
112.4954241005947
 20
115.9536930911631
 30
0.0
 40
21.556553999999998
 50
87.123272
 51
89.878111000000004
  0
ARC
  5
CEC
  8
0
 10
112.4954241005947
 20
169.0666830911631
 30
0.0
 40
21.556553999999998
 50
270.12189000000001
 51
272.87123000000003
  0
ARC
  5
CED
  8
0
 10
165.6084131005947
 20
115.9536930911631
 30
0.0
 40
21.556553999999998
 50
135.0
 51
177.12326999999999
  0
ARC
  5
CEE
  8
0
 10
139.05191910059469
 20
116.0101930911631
 30
0.0
 40
5.0
 50
180.12188
 51
359.87812000000008
  0
ARC
  5
CEF
  8
0
 10
112.4954241005947
 20
115.9536930911631
 30
0.0
 40
21.556553999999998
 50
0.121889
 51
2.8712270000000002
  0
ARC
  5
CF0
  8
0
 10
165.6084131005947
 20
115.9536930911631
 30
0.0
 40
21.556553999999998
 50
177.12326999999999
 51
179.87810999999999
  0
INSERT
  5
CF1
  8
3
  2
BATU
 10
139.05191910059469
 20
142.5101930911631
 30
0.0
 41
0.001
 42
0.001
 43
0.001
  0
ARC
  5
CF2
  8
0
 10
112.4954241005947
 20
169.0666830911631
 30
0.0
 40
21.556553999999998
 50
315.0
 51
357.12326999999999
  0
ARC
  5
CF3
  8
0
 10
139.05191910059469
 20
169.0101930911631
 30
0.0
 40
5.0
 50
0.121904
 51
179.87812
  0
ARC
  5
CF4
  8
0
 10
165.6084131005947
 20
169.0666830911631
 30
0.0
 40
21.556553999999998
 50
182.87122999999991
 51
225.0
  0
ARC
  5
CF5
  8
0
 10
112.4954241005947
 20
169.0666830911631
 30
0.0
 40
21.556553999999998
 50
357.12326999999999
 51
359.87810999999999
  0
ARC
  5
CF6
  8
0
 10
165.6084131005947
 20
169.0666830911631
 30
0.0
 40
21.556553999999998
 50
180.12188
 51
182.87122999999991
  0
ARC
  5
CF7
  8
0
 10
165.6084131005947
 20
115.9536930911631
 30
0.0
 40
21.556553999999998
 50
90.121888999999996
 51
92.871227000000005
  0
ARC
  5
CF8
  8
0
 10
165.6084131005947
 20
169.0666830911631
 30
0.0
 40
21.556553999999998
 50
267.12326999999999
 51
269.87812000000008
  0
ARC
  5
CF9
  8
0
 10
165.55191910059469
 20
142.5101930911631
 30
0.0
 40
5.0
 50
270.12187999999998
 51
89.878100000000003
  0
TEXT
  5
ED2
  8
0
 62
     3
 10
0.0
 20
0.0
 30
0.0
 40
10.0
  1
ALCK63R
  7
STANDARD1
  0
ENDSEC
  0
EOF
