  0
SECTION
  2
HEADER
  9
$ACADVER
  1
AC1009
  9
$INSBASE
 10
0.0
 20
0.0
 30
0.0
  9
$EXTMIN
 10
-0.0204638472032742
 20
-2.960436562073669
 30
0.0
  9
$EXTMAX
 10
109.9172209436931
 20
115.8615214313207
 30
0.0
  9
$LIMMIN
 10
0.0
 20
0.0
  9
$LIMMAX
 10
270.0
 20
175.0
  9
$ORTHOMODE
 70
     0
  9
$REGENMODE
 70
     1
  9
$FILLMODE
 70
     1
  9
$QTEXTMODE
 70
     0
  9
$MIRRTEXT
 70
     0
  9
$DRAGMODE
 70
     2
  9
$LTSCALE
 40
10.0
  9
$OSMODE
 70
  3071
  9
$ATTMODE
 70
     1
  9
$TEXTSIZE
 40
0.2
  9
$TRACEWID
 40
0.05
  9
$TEXTSTYLE
  7
STANDARD
  9
$CLAYER
  8
0
  9
$CELTYPE
  6
BYLAYER
  9
$CECOLOR
 62
   256
  9
$DIMSCALE
 40
1.0
  9
$DIMASZ
 40
3.0
  9
$DIMEXO
 40
2.0
  9
$DIMDLI
 40
0.38
  9
$DIMRND
 40
0.0
  9
$DIMDLE
 40
0.0
  9
$DIMEXE
 40
2.0
  9
$DIMTP
 40
0.0
  9
$DIMTM
 40
0.0
  9
$DIMTXT
 40
3.2000000000000002
  9
$DIMCEN
 40
0.0
  9
$DIMTSZ
 40
0.0
  9
$DIMTOL
 70
     0
  9
$DIMLIM
 70
     0
  9
$DIMTIH
 70
     0
  9
$DIMTOH
 70
     0
  9
$DIMSE1
 70
     0
  9
$DIMSE2
 70
     0
  9
$DIMTAD
 70
     1
  9
$DIMZIN
 70
     0
  9
$DIMBLK
  1

  9
$DIMASO
 70
     1
  9
$DIMSHO
 70
     0
  9
$DIMPOST
  1

  9
$DIMAPOST
  1

  9
$DIMALT
 70
     0
  9
$DIMALTD
 70
     2
  9
$DIMALTF
 40
25.399999999999999
  9
$DIMLFAC
 40
1.0
  9
$DIMTOFL
 70
     1
  9
$DIMTVP
 40
1.6000000000000001
  9
$DIMTIX
 70
     1
  9
$DIMSOXD
 70
     0
  9
$DIMSAH
 70
     0
  9
$DIMBLK1
  1

  9
$DIMBLK2
  1

  9
$DIMSTYLE
  2
STANDARD
  9
$DIMCLRD
 70
     0
  9
$DIMCLRE
 70
     0
  9
$DIMCLRT
 70
     0
  9
$DIMTFAC
 40
1.0
  9
$DIMGAP
 40
0.09
  9
$LUNITS
 70
     2
  9
$LUPREC
 70
     4
  9
$SKETCHINC
 40
0.1
  9
$FILLETRAD
 40
0.0
  9
$AUNITS
 70
     1
  9
$AUPREC
 70
     4
  9
$MENU
  1
E:\r13\win\SUPPORT\ACAD
  9
$ELEVATION
 40
0.0
  9
$PELEVATION
 40
0.0
  9
$THICKNESS
 40
0.0
  9
$LIMCHECK
 70
     0
  9
$BLIPMODE
 70
     0
  9
$CHAMFERA
 40
0.0
  9
$CHAMFERB
 40
0.0
  9
$SKPOLY
 70
     0
  9
$TDCREATE
 40
2449839.7803587969
  9
$TDUPDATE
 40
2456597.5495104049
  9
$TDINDWG
 40
0.0405389468
  9
$TDUSRTIMER
 40
0.0405389468
  9
$USRTIMER
 70
     1
  9
$ANGBASE
 50
0.0
  9
$ANGDIR
 70
     0
  9
$PDMODE
 70
     0
  9
$PDSIZE
 40
0.0
  9
$PLINEWID
 40
0.0
  9
$COORDS
 70
     1
  9
$SPLFRAME
 70
     0
  9
$SPLINETYPE
 70
     6
  9
$SPLINESEGS
 70
     8
  9
$ATTDIA
 70
     0
  9
$ATTREQ
 70
     1
  9
$HANDLING
 70
     1
  9
$HANDSEED
  5
CF5
  9
$SURFTAB1
 70
     6
  9
$SURFTAB2
 70
     6
  9
$SURFTYPE
 70
     6
  9
$SURFU
 70
     6
  9
$SURFV
 70
     6
  9
$UCSNAME
  2

  9
$UCSORG
 10
0.0
 20
0.0
 30
0.0
  9
$UCSXDIR
 10
1.0
 20
0.0
 30
0.0
  9
$UCSYDIR
 10
0.0
 20
1.0
 30
0.0
  9
$PUCSNAME
  2

  9
$PUCSORG
 10
0.0
 20
0.0
 30
0.0
  9
$PUCSXDIR
 10
1.0
 20
0.0
 30
0.0
  9
$PUCSYDIR
 10
0.0
 20
1.0
 30
0.0
  9
$USERI1
 70
     0
  9
$USERI2
 70
     1
  9
$USERI3
 70
     1
  9
$USERI4
 70
     0
  9
$USERI5
 70
     0
  9
$USERR1
 40
0.0
  9
$USERR2
 40
0.0
  9
$USERR3
 40
0.0
  9
$USERR4
 40
0.0
  9
$USERR5
 40
0.0
  9
$WORLDVIEW
 70
     1
  9
$SHADEDGE
 70
     3
  9
$SHADEDIF
 70
    70
  9
$TILEMODE
 70
     1
  9
$MAXACTVP
 70
    16
  9
$PLIMCHECK
 70
     0
  9
$PEXTMIN
 10
1.0000000000000000E+020
 20
1.0000000000000000E+020
 30
1.0000000000000000E+020
  9
$PEXTMAX
 10
-1.0000000000000000E+020
 20
-1.0000000000000000E+020
 30
-1.0000000000000000E+020
  9
$PLIMMIN
 10
0.0
 20
0.0
  9
$PLIMMAX
 10
12.0
 20
9.0
  9
$UNITMODE
 70
     0
  9
$VISRETAIN
 70
     0
  9
$PLINEGEN
 70
     0
  9
$PSLTSCALE
 70
     0
  0
ENDSEC
  0
SECTION
  2
TABLES
  0
TABLE
  2
VPORT
 70
     1
  0
VPORT
  2
*ACTIVE
 70
     0
 10
0.0
 20
0.0
 11
1.0
 21
1.0
 12
139.91691953985361
 22
86.015320026217182
 13
0.0
 23
0.0
 14
10.0
 24
10.0
 15
10.0
 25
10.0
 16
0.0
 26
0.0
 36
1.0
 17
0.0
 27
0.0
 37
0.0
 40
179.56549770494291
 41
1.831871345029239
 42
50.0
 43
0.0
 44
0.0
 50
0.0
 51
0.0
 71
     0
 72
   500
 73
     1
 74
     0
 75
     0
 76
     0
 77
     0
 78
     2
  0
ENDTAB
  0
TABLE
  2
LTYPE
 70
     4
  0
LTYPE
  2
CONTINUOUS
 70
     0
  3
Solid Line
 72
    65
 73
     0
 40
0.0
  0
LTYPE
  2
CENTER
 70
     0
  3
____ _ ____ _ ____ _ ____ _ ____ _ ____ _ ____
 72
    65
 73
     4
 40
2.0
 49
1.25
 49
-0.25
 49
0.25
 49
-0.25
  0
LTYPE
  2
HIDDEN
 70
     0
  3
__ __ __ __ __ __ __ __ __ __ __ __ __ __ __ __
 72
    65
 73
     2
 40
0.375
 49
0.25
 49
-0.125
  0
LTYPE
  2
PHANTOM2
 70
     0
  3
___ _ _ ___ _ _ ___ _ _ ___ _ _
 72
    65
 73
     6
 40
1.25
 49
0.625
 49
-0.125
 49
0.125
 49
-0.125
 49
0.125
 49
-0.125
  0
ENDTAB
  0
TABLE
  2
LAYER
 70
     4
  0
LAYER
  2
0
 70
     0
 62
     7
  6
CONTINUOUS
  0
LAYER
  2
1
 70
     0
 62
     1
  6
CENTER
  0
LAYER
  2
ITTEN
 70
     0
 62
     1
  6
CENTER
  0
LAYER
  2
2
 70
     0
 62
     2
  6
HIDDEN
  0
ENDTAB
  0
TABLE
  2
STYLE
 70
     2
  0
STYLE
  2
STANDARD
 70
     0
 40
0.0
 41
1.0
 50
0.0
 71
     0
 42
0.2
  3
TXT
  4
BIGFONT
  0
STYLE
  2
STANDARD1
 70
     0
 40
0.0
 41
1.0
 50
0.0
 71
     0
 42
3.0
  3
txt
  4

  0
ENDTAB
  0
TABLE
  2
VIEW
 70
     1
  0
VIEW
  2
ALL
 70
     0
 40
179.5384664489153
 10
135.0
 20
89.769233224457665
 41
0.0
 11
0.0
 21
0.0
 31
1.0
 12
0.0
 22
0.0
 32
0.0
 42
0.0
 43
0.0
 44
0.0
 50
0.0
 71
     0
  0
ENDTAB
  0
TABLE
  2
UCS
 70
     0
  0
ENDTAB
  0
TABLE
  2
APPID
 70
    17
  0
APPID
  2
ACAD
 70
     0
  0
APPID
  2
GENIUS_GENODEF_13
 70
     0
  0
APPID
  2
GENIUS_GENOBJ-N-FIL_13
 70
     0
  0
APPID
  2
GENIUS_GENOREF_13
 70
     0
  0
APPID
  2
GENIUS_GENOBJ-N-CEN_13
 70
     0
  0
APPID
  2
GENIUS_GENCFG_13
 70
     0
  0
APPID
  2
GENIUS_GENCFG0_13
 70
     0
  0
APPID
  2
GENIUS_GENCFG1_13
 70
     0
  0
APPID
  2
GENIUS_GENCFG2_13
 70
     0
  0
APPID
  2
GENIUS_GENCFG3_13
 70
     0
  0
APPID
  2
GENIUS_GENCFG4_13
 70
     0
  0
APPID
  2
GENIUS_GEVCFG0_13
 70
     0
  0
APPID
  2
GENIUS_GENOENT_13
 70
     0
  0
APPID
  2
GENIUS_GENOBJ-N-CRS_13
 70
     0
  0
APPID
  2
GENIUS_GENOLIS_13
 70
     0
  0
APPID
  2
ACAD_MLEADERVER
 70
     0
  0
APPID
  2
ACAD_NAV_VCDISPLAY
 70
     0
  0
ENDTAB
  0
TABLE
  2
DIMSTYLE
 70
     1
  0
DIMSTYLE
  2
STANDARD
 70
     0
  3

  4

  5

  6

  7

 40
1.0
 41
0.18
 42
0.0625
 43
0.38
 44
0.18
 45
0.0
 46
0.0
 47
0.0
 48
0.0
140
0.18
141
0.09
142
0.0
143
25.399999999999999
144
1.0
145
0.0
146
1.0
147
0.09
 71
     0
 72
     0
 73
     1
 74
     1
 75
     0
 76
     0
 77
     0
 78
     0
170
     0
171
     2
172
     0
173
     0
174
     0
175
     0
176
     0
177
     0
178
     0
  0
ENDTAB
  0
ENDSEC
  0
SECTION
  2
BLOCKS
  0
BLOCK
  8
0
  2
$MODEL_SPACE
 70
     0
 10
0.0
 20
0.0
 30
0.0
  3
$MODEL_SPACE
  1

  0
ENDBLK
  5
B3B
  8
0
  0
BLOCK
 67
     1
  8
0
  2
$PAPER_SPACE
 70
     0
 10
0.0
 20
0.0
 30
0.0
  3
$PAPER_SPACE
  1

  0
ENDBLK
  5
B39
 67
     1
  8
0
  0
BLOCK
  8
0
  2
BATU
 70
     0
 10
0.0
 20
0.0
 30
0.0
  3
BATU
  1

  0
LINE
  5
92D
  8
ITTEN
 10
0.5
 20
0.0
 30
0.0
 11
-0.5
 21
0.0
 31
0.0
  0
LINE
  5
92E
  8
ITTEN
 10
0.0
 20
0.5
 30
0.0
 11
0.0
 21
-0.5
 31
0.0
  0
ENDBLK
  5
932
  8
0
  0
ENDSEC
  0
SECTION
  2
ENTITIES
  0
POINT
  5
5AB
  8
0
 10
17.451829364787699
 20
2.8898092584588531
 30
0.0
1001
GENIUS_GENODEF_13
1002
{
1000
HIER
1070
    10
1002
}
1002
{
1000
MANEDIT
1070
     0
1002
}
1002
{
1000
NOSEL
1070
     0
1002
}
1002
{
1000
BEHIND
1070
     0
1002
}
1002
{
1000
REACTOR
1002
}
1001
GENIUS_GENOBJ-N-CRS_13
1002
{
1000
OWNER
1000
GEN
1002
}
1001
GENIUS_GENOENT_13
1002
{
1000
MYREF
1005
5AB
1002
}
1002
{
1000
GRP
1005
0
1002
}
1001
GENIUS_GENOLIS_13
1002
{
1000
ENT
1005
0
1005
0
1005
0
1005
5AA
1002
}
  0
LINE
  5
A8B
  8
2
 10
83.542222842243476
 20
44.124844034772693
 30
0.0
 11
82.917222842243504
 21
43.042312280042147
 31
0.0
  0
LINE
  5
A8C
  8
2
 10
82.917222842243504
 20
43.042312280042147
 30
0.0
 11
90.917222842243717
 21
43.042312280042147
 31
0.0
  0
LINE
  5
A8D
  8
2
 10
83.542222842243476
 20
29.24231228004313
 30
0.0
 11
82.342222842244027
 21
28.042312280042161
 31
0.0
  0
ARC
  5
A8E
  8
0
 10
86.917231685993627
 20
-6.9576877199578462
 30
0.0
 40
60.0
 50
90.0
 51
107.35226
  0
LINE
  5
A8F
  8
0
 10
69.917219685993615
 20
42.042312280042147
 30
0.0
 11
103.91722268599359
 21
42.042312280042147
 31
0.0
  0
LINE
  5
A90
  8
0
 10
79.917221685993624
 20
28.042312280042161
 30
0.0
 11
93.917222685993622
 21
28.042312280042161
 31
0.0
  0
LINE
  5
A91
  8
2
 10
82.917222842243504
 20
28.617312280042359
 30
0.0
 11
82.917222842243504
 21
43.042312280042147
 31
0.0
  0
LINE
  5
A92
  8
0
 10
78.78737168599362
 20
39.340823280042152
 30
0.0
 11
79.917221685993624
 21
28.042312280042161
 31
0.0
  0
POLYLINE
  5
A93
  8
0
 66
     1
 10
0.0
 20
0.0
 30
0.0
 70
     2
  0
VERTEX
  5
A94
  8
0
 10
66.917221685993624
 20
45.042312280042147
 30
0.0
  0
VERTEX
  5
A95
  8
0
 10
66.938481685993622
 20
44.677992280042147
 30
0.0
 42
0.034716
 70
     1
  0
VERTEX
  5
A96
  8
0
 10
67.007824685993626
 20
44.31155228004215
 30
0.0
 42
0.030351
  0
VERTEX
  5
A97
  8
0
 10
67.125890685993625
 20
43.941422280042147
 30
0.0
 42
0.03104
 70
     1
  0
VERTEX
  5
A98
  8
0
 10
67.299968685993619
 20
43.577832280042152
 30
0.0
 42
0.038884
  0
VERTEX
  5
A99
  8
0
 10
67.53560968599362
 20
43.234422280042153
 30
0.0
 42
0.032479
 70
     1
  0
VERTEX
  5
A9A
  8
0
 10
67.794940685993623
 20
42.924272280042153
 30
0.0
 42
0.016644
  0
VERTEX
  5
A9B
  8
0
 10
68.062318685993617
 20
42.659202280042138
 30
0.0
 42
0.04128
 70
     1
  0
VERTEX
  5
A9C
  8
0
 10
68.448847685993627
 20
42.428502280042153
 30
0.0
 42
0.069579
  0
VERTEX
  5
A9D
  8
0
 10
69.075570685993625
 20
42.222712280042153
 30
0.0
 42
0.037333
 70
     1
  0
VERTEX
  5
A9E
  8
0
 10
69.917219685993615
 20
42.042312280042147
 30
0.0
 42
0.019861
  0
SEQEND
  5
A9F
  8
0
  0
LINE
  5
AA0
  8
0
 10
66.917221685993624
 20
47.44819228004215
 30
0.0
 11
66.917221685993624
 21
45.04231228004226
 31
0.0
  0
POLYLINE
  5
AA1
  8
0
 66
     1
 10
0.0
 20
0.0
 30
0.0
 70
     2
  0
VERTEX
  5
AA2
  8
0
 10
69.022489685993619
 20
50.311662280042157
 30
0.0
  0
VERTEX
  5
AA3
  8
0
 10
68.796513685993617
 20
50.231992280042149
 30
0.0
 42
0.020328
 70
     1
  0
VERTEX
  5
AA4
  8
0
 10
68.579607685993622
 20
50.135062280042149
 30
0.0
 42
0.020898
  0
VERTEX
  5
AA5
  8
0
 10
68.372019685993621
 20
50.020022280042149
 30
0.0
 42
0.020783
 70
     1
  0
VERTEX
  5
AA6
  8
0
 10
68.174272685993628
 20
49.888482280042147
 30
0.0
 42
0.020333
  0
VERTEX
  5
AA7
  8
0
 10
67.987906685993622
 20
49.741162280042147
 30
0.0
 42
0.019398
 70
     1
  0
VERTEX
  5
AA8
  8
0
 10
67.813386685993621
 20
49.581092280042149
 30
0.0
 42
0.017897
  0
VERTEX
  5
AA9
  8
0
 10
67.652047685993622
 20
49.409232280042161
 30
0.0
 42
0.019405
 70
     1
  0
VERTEX
  5
AAA
  8
0
 10
67.503849685993615
 20
49.222072280042148
 30
0.0
 42
0.023055
  0
VERTEX
  5
AAB
  8
0
 10
67.370118685993617
 20
49.018542280042148
 30
0.0
 42
0.017587
 70
     1
  0
VERTEX
  5
AAC
  8
0
 10
67.252564685993605
 20
48.820612280042148
 30
0.0
 42
0.005711
  0
VERTEX
  5
AAD
  8
0
 10
67.153192685993616
 20
48.636122280042159
 30
0.0
 42
0.025046
 70
     1
  0
VERTEX
  5
AAE
  8
0
 10
67.066432685993604
 20
48.385892280042157
 30
0.0
 42
0.0458
  0
VERTEX
  5
AAF
  8
0
 10
66.987652685993623
 20
47.985992280042147
 30
0.0
 42
0.022587
 70
     1
  0
VERTEX
  5
AB0
  8
0
 10
66.917231685993613
 20
47.45336228004215
 30
0.0
 42
0.011651
  0
SEQEND
  5
AB1
  8
0
  0
ARC
  5
AB2
  8
0
 10
75.802259685993619
 20
39.042312280042161
 30
0.0
 40
3.0
 50
5.7105909999999991
 51
90.0
  0
LINE
  5
AB3
  8
2
 10
90.917222842243717
 20
28.617312280042359
 30
0.0
 11
90.917222842243717
 21
43.042312280042147
 31
0.0
  0
LINE
  5
AB4
  8
2
 10
83.542222842243476
 20
29.24231228004313
 30
0.0
 11
83.542222842243476
 21
47.042312280042168
 31
0.0
  0
LINE
  5
AB5
  8
2
 10
90.292222842243746
 20
29.24231228004313
 30
0.0
 11
90.29222284224376
 21
47.042312280042168
 31
0.0
  0
LINE
  5
AB6
  8
1
 10
86.917223685993619
 20
24.042312280042161
 30
0.0
 11
86.917214685993628
 21
56.042312280042147
 31
0.0
  0
LINE
  5
AB7
  8
0
 10
93.917222685993622
 20
28.042312280042161
 30
0.0
 11
95.047073685993624
 21
39.340823280042152
 31
0.0
  0
LINE
  5
AB8
  8
2
 10
90.292222842243746
 20
29.242312280043141
 30
0.0
 11
83.542222842243476
 21
29.242312280043109
 31
0.0
  0
LINE
  5
AB9
  8
2
 10
90.292222842243746
 20
29.24231228004313
 30
0.0
 11
91.492222842243194
 21
28.042312280042161
 31
0.0
  0
ARC
  5
ABA
  8
0
 10
86.917231685993627
 20
-6.9576877199578462
 30
0.0
 40
60.000000999999997
 50
72.647739999999999
 51
90.0
  0
ARC
  5
ABB
  8
0
 10
98.032185685993625
 20
39.042312280042161
 30
0.0
 40
3.0
 50
90.0
 51
174.28940700000001
  0
LINE
  5
ABC
  8
2
 10
86.917222842243589
 20
48.990869438557219
 30
0.0
 11
90.292222842243746
 21
47.042312280042147
 31
0.0
  0
LINE
  5
ABD
  8
2
 10
83.542222842243476
 20
47.042312280042168
 30
0.0
 11
90.292222842243703
 21
47.042312280042168
 31
0.0
  0
LINE
  5
ABE
  8
2
 10
86.917222842243604
 20
48.990869438557219
 30
0.0
 11
83.542222842243476
 21
47.042312280042147
 31
0.0
  0
LINE
  5
ABF
  8
2
 10
90.292222842243746
 20
44.124844034772693
 30
0.0
 11
90.917222842243717
 21
43.042312280042147
 31
0.0
  0
POLYLINE
  5
AC0
  8
0
 66
     1
 10
0.0
 20
0.0
 30
0.0
 70
     2
  0
VERTEX
  5
AC1
  8
0
 10
103.91722268599359
 20
42.042312280042147
 30
0.0
  0
VERTEX
  5
AC2
  8
0
 10
104.0901926859936
 20
42.04758228004215
 30
0.0
 42
0.013598
 70
     1
  0
VERTEX
  5
AC3
  8
0
 10
104.2599226859936
 20
42.062112280042157
 30
0.0
 42
0.014295
  0
VERTEX
  5
AC4
  8
0
 10
104.42610468599359
 20
42.086342280042153
 30
0.0
 42
0.014396
 70
     1
  0
VERTEX
  5
AC5
  8
0
 10
104.59006668599361
 20
42.119512280042152
 30
0.0
 42
0.013395
  0
VERTEX
  5
AC6
  8
0
 10
104.7528366859936
 20
42.161622280042153
 30
0.0
 42
0.012978
 70
     1
  0
VERTEX
  5
AC7
  8
0
 10
104.9136506859936
 20
42.212312280042148
 30
0.0
 42
0.013544
  0
VERTEX
  5
AC8
  8
0
 10
105.0712586859936
 20
42.271992280042163
 30
0.0
 42
0.014008
 70
     1
  0
VERTEX
  5
AC9
  8
0
 10
105.22510668599359
 20
42.340302280042152
 30
0.0
 42
0.014373
  0
VERTEX
  5
ACA
  8
0
 10
105.3744486859936
 20
42.417542280042149
 30
0.0
 42
0.014564
 70
     1
  0
VERTEX
  5
ACB
  8
0
 10
105.5189626859936
 20
42.503152280042151
 30
0.0
 42
0.014616
  0
VERTEX
  5
ACC
  8
0
 10
105.65798068599361
 20
42.597172280042152
 30
0.0
 42
0.014507
 70
     1
  0
VERTEX
  5
ACD
  8
0
 10
105.79143968599359
 20
42.698872280042153
 30
0.0
 42
0.014181
  0
VERTEX
  5
ACE
  8
0
 10
105.9188416859936
 20
42.808112280042153
 30
0.0
 42
0.013918
 70
     1
  0
VERTEX
  5
ACF
  8
0
 10
106.0401366859936
 20
42.924112280042152
 30
0.0
 42
0.013671
  0
VERTEX
  5
AD0
  8
0
 10
106.1547596859936
 20
43.046712280042158
 30
0.0
 42
0.013655
 70
     1
  0
VERTEX
  5
AD1
  8
0
 10
106.2626986859936
 20
43.17547228004215
 30
0.0
 42
0.013816
  0
VERTEX
  5
AD2
  8
0
 10
106.3633826859936
 20
43.310292280042148
 30
0.0
 42
0.013385
 70
     1
  0
VERTEX
  5
AD3
  8
0
 10
106.45676868599359
 20
43.449572280042148
 30
0.0
 42
0.012479
  0
VERTEX
  5
AD4
  8
0
 10
106.5422366859936
 20
43.592792280042147
 30
0.0
 42
0.013809
 70
     1
  0
VERTEX
  5
AD5
  8
0
 10
106.61998768599361
 20
43.743012280042151
 30
0.0
 42
0.016675
  0
VERTEX
  5
AD6
  8
0
 10
106.6894526859936
 20
43.901262280042147
 30
0.0
 42
0.012696
 70
     1
  0
VERTEX
  5
AD7
  8
0
 10
106.7499996859936
 20
44.052392280042149
 30
0.0
 42
0.004052
  0
VERTEX
  5
AD8
  8
0
 10
106.8007426859936
 20
44.191122280042151
 30
0.0
 42
0.018353
 70
     1
  0
VERTEX
  5
AD9
  8
0
 10
106.8444466859936
 20
44.374332280042147
 30
0.0
 42
0.032993
  0
VERTEX
  5
ADA
  8
0
 10
106.8833206859936
 20
44.662082280042149
 30
0.0
 42
0.016191
 70
     1
  0
VERTEX
  5
ADB
  8
0
 10
106.9172196859936
 20
45.042312280042147
 30
0.0
 42
0.008428
  0
SEQEND
  5
ADC
  8
0
  0
LINE
  5
ADD
  8
0
 10
106.9172196859936
 20
45.042312280042196
 30
0.0
 11
106.9172196859936
 21
47.45336228004215
 31
0.0
  0
POLYLINE
  5
ADE
  8
0
 66
     1
 10
0.0
 20
0.0
 30
0.0
 70
     2
  0
VERTEX
  5
ADF
  8
0
 10
106.9172196859936
 20
47.45336228004215
 30
0.0
  0
VERTEX
  5
AE0
  8
0
 10
106.8990976859936
 20
47.77448228004215
 30
0.0
 42
0.027709
 70
     1
  0
VERTEX
  5
AE1
  8
0
 10
106.8470436859936
 20
48.092262280042149
 30
0.0
 42
0.025948
  0
VERTEX
  5
AE2
  8
0
 10
106.7603556859936
 20
48.407142280042152
 30
0.0
 42
0.026982
 70
     1
  0
VERTEX
  5
AE3
  8
0
 10
106.6355996859936
 20
48.715422280042162
 30
0.0
 42
0.031804
  0
VERTEX
  5
AE4
  8
0
 10
106.4708536859936
 20
49.010092280042159
 30
0.0
 42
0.026193
 70
     1
  0
VERTEX
  5
AE5
  8
0
 10
106.2933406859936
 20
49.277452280042162
 30
0.0
 42
0.013143
  0
VERTEX
  5
AE6
  8
0
 10
106.11371668599359
 20
49.509222280042152
 30
0.0
 42
0.032704
 70
     1
  0
VERTEX
  5
AE7
  8
0
 10
105.8488476859936
 20
49.741602280042152
 30
0.0
 42
0.054114
  0
VERTEX
  5
AE8
  8
0
 10
105.4087036859936
 20
50.011232280042151
 30
0.0
 42
0.028875
 70
     1
  0
VERTEX
  5
AE9
  8
0
 10
104.81196168599359
 20
50.311662280042157
 30
0.0
 42
0.015875
  0
SEQEND
  5
AEA
  8
0
  0
LINE
  5
AEB
  8
1
 10
63.91722094369311
 20
92.86152143132071
 30
0.0
 11
109.9172209436931
 21
92.86152143132071
 31
0.0
  0
ARC
  5
AEC
  8
0
 10
68.714851943693105
 20
74.659151431320709
 30
0.0
 40
15.242038000000001
 50
3.7792240000000001
 51
45.0
  0
ARC
  5
AED
  8
0
 10
68.714851943693105
 20
111.0638914313207
 30
0.0
 40
15.242038000000001
 50
315.0
 51
356.22077999999999
  0
ARC
  5
AEE
  8
0
 10
69.91722094369311
 20
92.86152143132071
 30
0.0
 40
3.0
 50
93.779246000000001
 51
266.22079000000002
  0
ARC
  5
AEF
  8
0
 10
68.714851943693105
 20
74.659151431320709
 30
0.0
 40
15.242038000000001
 50
45.0
 51
86.220776000000015
  0
ARC
  5
AF0
  8
0
 10
68.714851943693105
 20
111.0638914313207
 30
0.0
 40
15.242038000000001
 50
273.77922000000012
 51
315.0
  0
LINE
  5
AF1
  8
1
 10
86.917220943693096
 20
115.8615214313207
 30
0.0
 11
86.917220943693096
 21
69.86152143132071
 31
0.0
  0
ARC
  5
AF2
  8
0
 10
103.9172209436931
 20
92.86152143132071
 30
0.0
 40
3.0
 50
273.77920999999998
 51
86.220789999999994
  0
ARC
  5
AF3
  8
0
 10
105.1195909436931
 20
74.659151431320709
 30
0.0
 40
15.242038000000001
 50
93.779223999999999
 51
135.0
  0
ARC
  5
AF4
  8
0
 10
105.1195909436931
 20
74.659151431320709
 30
0.0
 40
15.242038000000001
 50
135.0
 51
176.22077999999999
  0
ARC
  5
AF5
  8
0
 10
86.917220943693096
 20
75.86152143132071
 30
0.0
 40
3.0
 50
183.77921000000001
 51
356.22079000000002
  0
INSERT
  5
AF6
  8
0
  2
BATU
 10
86.917220943693096
 20
92.86152143132071
 30
0.0
 41
0.001
 42
0.001
 43
0.001
  0
ARC
  5
AF7
  8
0
 10
105.1195909436931
 20
111.0638914313207
 30
0.0
 40
15.242038000000001
 50
225.0
 51
266.22077999999999
  0
ARC
  5
AF8
  8
0
 10
105.1195909436931
 20
111.0638914313207
 30
0.0
 40
15.242038000000001
 50
183.7792199999999
 51
225.0
  0
ARC
  5
AF9
  8
0
 10
86.917220943693096
 20
109.8615214313207
 30
0.0
 40
3.0
 50
3.779205999999999
 51
176.22075000000001
  0
TEXT
  5
C66
  8
0
 62
     3
 10
0.0
 20
0.0
 30
0.0
 40
10.0
  1
ALCK40T
  7
STANDARD1
  0
ENDSEC
  0
EOF
