  0
SECTION
  2
HEADER
  9
$ACADVER
  1
AC1009
  9
$INSBASE
 10
0.0
 20
0.0
 30
0.0
  9
$EXTMIN
 10
-0.0204638472032742
 20
-2.960436562073669
 30
0.0
  9
$EXTMAX
 10
306.7677524526668
 20
219.39389280485989
 30
0.0
  9
$LIMMIN
 10
0.0
 20
0.0
  9
$LIMMAX
 10
270.0
 20
175.0
  9
$ORTHOMODE
 70
     0
  9
$REGENMODE
 70
     1
  9
$FILLMODE
 70
     1
  9
$QTEXTMODE
 70
     0
  9
$MIRRTEXT
 70
     0
  9
$DRAGMODE
 70
     2
  9
$LTSCALE
 40
10.0
  9
$OSMODE
 70
  3071
  9
$ATTMODE
 70
     1
  9
$TEXTSIZE
 40
0.2
  9
$TRACEWID
 40
0.05
  9
$TEXTSTYLE
  7
STANDARD
  9
$CLAYER
  8
0
  9
$CELTYPE
  6
BYLAYER
  9
$CECOLOR
 62
   256
  9
$DIMSCALE
 40
1.0
  9
$DIMASZ
 40
3.0
  9
$DIMEXO
 40
2.0
  9
$DIMDLI
 40
0.38
  9
$DIMRND
 40
0.0
  9
$DIMDLE
 40
0.0
  9
$DIMEXE
 40
2.0
  9
$DIMTP
 40
0.0
  9
$DIMTM
 40
0.0
  9
$DIMTXT
 40
3.2000000000000002
  9
$DIMCEN
 40
0.0
  9
$DIMTSZ
 40
0.0
  9
$DIMTOL
 70
     0
  9
$DIMLIM
 70
     0
  9
$DIMTIH
 70
     0
  9
$DIMTOH
 70
     0
  9
$DIMSE1
 70
     0
  9
$DIMSE2
 70
     0
  9
$DIMTAD
 70
     1
  9
$DIMZIN
 70
     0
  9
$DIMBLK
  1

  9
$DIMASO
 70
     1
  9
$DIMSHO
 70
     0
  9
$DIMPOST
  1

  9
$DIMAPOST
  1

  9
$DIMALT
 70
     0
  9
$DIMALTD
 70
     2
  9
$DIMALTF
 40
25.399999999999999
  9
$DIMLFAC
 40
1.0
  9
$DIMTOFL
 70
     1
  9
$DIMTVP
 40
1.6000000000000001
  9
$DIMTIX
 70
     1
  9
$DIMSOXD
 70
     0
  9
$DIMSAH
 70
     0
  9
$DIMBLK1
  1

  9
$DIMBLK2
  1

  9
$DIMSTYLE
  2
STANDARD
  9
$DIMCLRD
 70
     0
  9
$DIMCLRE
 70
     0
  9
$DIMCLRT
 70
     0
  9
$DIMTFAC
 40
1.0
  9
$DIMGAP
 40
0.09
  9
$LUNITS
 70
     2
  9
$LUPREC
 70
     4
  9
$SKETCHINC
 40
0.1
  9
$FILLETRAD
 40
0.0
  9
$AUNITS
 70
     1
  9
$AUPREC
 70
     4
  9
$MENU
  1
E:\r13\win\SUPPORT\ACAD
  9
$ELEVATION
 40
0.0
  9
$PELEVATION
 40
0.0
  9
$THICKNESS
 40
0.0
  9
$LIMCHECK
 70
     0
  9
$BLIPMODE
 70
     0
  9
$CHAMFERA
 40
0.0
  9
$CHAMFERB
 40
0.0
  9
$SKPOLY
 70
     0
  9
$TDCREATE
 40
2449839.7803587969
  9
$TDUPDATE
 40
2456597.5490528359
  9
$TDINDWG
 40
0.0257634722
  9
$TDUSRTIMER
 40
0.0257634722
  9
$USRTIMER
 70
     1
  9
$ANGBASE
 50
0.0
  9
$ANGDIR
 70
     0
  9
$PDMODE
 70
     0
  9
$PDSIZE
 40
0.0
  9
$PLINEWID
 40
0.0
  9
$COORDS
 70
     1
  9
$SPLFRAME
 70
     0
  9
$SPLINETYPE
 70
     6
  9
$SPLINESEGS
 70
     8
  9
$ATTDIA
 70
     0
  9
$ATTREQ
 70
     1
  9
$HANDLING
 70
     1
  9
$HANDSEED
  5
9D1
  9
$SURFTAB1
 70
     6
  9
$SURFTAB2
 70
     6
  9
$SURFTYPE
 70
     6
  9
$SURFU
 70
     6
  9
$SURFV
 70
     6
  9
$UCSNAME
  2

  9
$UCSORG
 10
0.0
 20
0.0
 30
0.0
  9
$UCSXDIR
 10
1.0
 20
0.0
 30
0.0
  9
$UCSYDIR
 10
0.0
 20
1.0
 30
0.0
  9
$PUCSNAME
  2

  9
$PUCSORG
 10
0.0
 20
0.0
 30
0.0
  9
$PUCSXDIR
 10
1.0
 20
0.0
 30
0.0
  9
$PUCSYDIR
 10
0.0
 20
1.0
 30
0.0
  9
$USERI1
 70
     0
  9
$USERI2
 70
     1
  9
$USERI3
 70
     1
  9
$USERI4
 70
     0
  9
$USERI5
 70
     0
  9
$USERR1
 40
0.0
  9
$USERR2
 40
0.0
  9
$USERR3
 40
0.0
  9
$USERR4
 40
0.0
  9
$USERR5
 40
0.0
  9
$WORLDVIEW
 70
     1
  9
$SHADEDGE
 70
     3
  9
$SHADEDIF
 70
    70
  9
$TILEMODE
 70
     1
  9
$MAXACTVP
 70
    16
  9
$PLIMCHECK
 70
     0
  9
$PEXTMIN
 10
1.0000000000000000E+020
 20
1.0000000000000000E+020
 30
1.0000000000000000E+020
  9
$PEXTMAX
 10
-1.0000000000000000E+020
 20
-1.0000000000000000E+020
 30
-1.0000000000000000E+020
  9
$PLIMMIN
 10
0.0
 20
0.0
  9
$PLIMMAX
 10
12.0
 20
9.0
  9
$UNITMODE
 70
     0
  9
$VISRETAIN
 70
     0
  9
$PLINEGEN
 70
     0
  9
$PSLTSCALE
 70
     0
  0
ENDSEC
  0
SECTION
  2
TABLES
  0
TABLE
  2
VPORT
 70
     1
  0
VPORT
  2
*ACTIVE
 70
     0
 10
0.0
 20
0.0
 11
1.0
 21
1.0
 12
159.53380683119499
 22
108.21559624065139
 13
0.0
 23
0.0
 14
10.0
 24
10.0
 15
10.0
 25
10.0
 16
0.0
 26
0.0
 36
1.0
 17
0.0
 27
0.0
 37
0.0
 40
224.36433453086701
 41
1.831871345029239
 42
50.0
 43
0.0
 44
0.0
 50
0.0
 51
0.0
 71
     0
 72
   500
 73
     1
 74
     0
 75
     0
 76
     0
 77
     0
 78
     2
  0
ENDTAB
  0
TABLE
  2
LTYPE
 70
     3
  0
LTYPE
  2
CONTINUOUS
 70
     0
  3
Solid Line
 72
    65
 73
     0
 40
0.0
  0
LTYPE
  2
CENTER
 70
     0
  3
____ _ ____ _ ____ _ ____ _ ____ _ ____ _ ____
 72
    65
 73
     4
 40
2.0
 49
1.25
 49
-0.25
 49
0.25
 49
-0.25
  0
LTYPE
  2
PHANTOM2
 70
     0
  3
___ _ _ ___ _ _ ___ _ _ ___ _ _
 72
    65
 73
     6
 40
1.25
 49
0.625
 49
-0.125
 49
0.125
 49
-0.125
 49
0.125
 49
-0.125
  0
ENDTAB
  0
TABLE
  2
LAYER
 70
     2
  0
LAYER
  2
0
 70
     0
 62
     7
  6
CONTINUOUS
  0
LAYER
  2
1
 70
     0
 62
     1
  6
CENTER
  0
ENDTAB
  0
TABLE
  2
STYLE
 70
     2
  0
STYLE
  2
STANDARD
 70
     0
 40
0.0
 41
1.0
 50
0.0
 71
     0
 42
0.2
  3
TXT
  4
BIGFONT
  0
STYLE
  2
STANDARD1
 70
     0
 40
0.0
 41
1.0
 50
0.0
 71
     0
 42
3.0
  3
txt
  4

  0
ENDTAB
  0
TABLE
  2
VIEW
 70
     1
  0
VIEW
  2
ALL
 70
     0
 40
179.5384664489153
 10
135.0
 20
89.769233224457665
 41
0.0
 11
0.0
 21
0.0
 31
1.0
 12
0.0
 22
0.0
 32
0.0
 42
0.0
 43
0.0
 44
0.0
 50
0.0
 71
     0
  0
ENDTAB
  0
TABLE
  2
UCS
 70
     0
  0
ENDTAB
  0
TABLE
  2
APPID
 70
    19
  0
APPID
  2
ACAD
 70
     0
  0
APPID
  2
GENIUS_GENODEF_13
 70
     0
  0
APPID
  2
GENIUS_GENOBJ-N-FIL_13
 70
     0
  0
APPID
  2
GENIUS_GENOREF_13
 70
     0
  0
APPID
  2
GENIUS_GENOBJ-N-CEN_13
 70
     0
  0
APPID
  2
GENIUS_GENCFG_13
 70
     0
  0
APPID
  2
GENIUS_GENCFG0_13
 70
     0
  0
APPID
  2
GENIUS_GENCFG1_13
 70
     0
  0
APPID
  2
GENIUS_GENCFG2_13
 70
     0
  0
APPID
  2
GENIUS_GENCFG3_13
 70
     0
  0
APPID
  2
GENIUS_GENCFG4_13
 70
     0
  0
APPID
  2
GENIUS_GEVCFG0_13
 70
     0
  0
APPID
  2
GENIUS_GENOENT_13
 70
     0
  0
APPID
  2
GENIUS_GENOBJ-N-CRS_13
 70
     0
  0
APPID
  2
GENIUS_GENOLIS_13
 70
     0
  0
APPID
  2
GENIUS_GENFIL_13
 70
     0
  0
APPID
  2
GENIUS_GENOBJ-N-CHA_13
 70
     0
  0
APPID
  2
ACAD_MLEADERVER
 70
     0
  0
APPID
  2
ACAD_NAV_VCDISPLAY
 70
     0
  0
ENDTAB
  0
TABLE
  2
DIMSTYLE
 70
     1
  0
DIMSTYLE
  2
STANDARD
 70
     0
  3

  4

  5

  6

  7

 40
1.0
 41
0.18
 42
0.0625
 43
0.38
 44
0.18
 45
0.0
 46
0.0
 47
0.0
 48
0.0
140
0.18
141
0.09
142
0.0
143
25.399999999999999
144
1.0
145
0.0
146
1.0
147
0.09
 71
     0
 72
     0
 73
     1
 74
     1
 75
     0
 76
     0
 77
     0
 78
     0
170
     0
171
     2
172
     0
173
     0
174
     0
175
     0
176
     0
177
     0
178
     0
  0
ENDTAB
  0
ENDSEC
  0
SECTION
  2
BLOCKS
  0
BLOCK
  8
0
  2
$MODEL_SPACE
 70
     0
 10
0.0
 20
0.0
 30
0.0
  3
$MODEL_SPACE
  1

  0
ENDBLK
  5
7DA
  8
0
  0
BLOCK
 67
     1
  8
0
  2
$PAPER_SPACE
 70
     0
 10
0.0
 20
0.0
 30
0.0
  3
$PAPER_SPACE
  1

  0
ENDBLK
  5
7D8
 67
     1
  8
0
  0
ENDSEC
  0
SECTION
  2
ENTITIES
  0
LINE
  5
82E
  8
0
 10
279.26775245266668
 20
160.1389989885482
 30
0.0
 11
279.2677524526668
 21
133.64878662117169
 31
0.0
  0
LINE
  5
82F
  8
0
 10
278.76775245266668
 20
161.16415090933791
 30
0.0
 11
279.7677524526668
 21
159.11384706775851
 31
0.0
  0
LINE
  5
830
  8
0
 10
278.76775245266668
 20
132.62363470038181
 30
0.0
 11
279.7677524526668
 21
134.67393854196121
 31
0.0
  0
LINE
  5
831
  8
0
 10
296.26775245266668
 20
162.3938928048598
 30
0.0
 11
296.26775245266668
 21
131.3938928048598
 31
0.0
  0
LINE
  5
832
  8
0
 10
296.7677524526668
 20
131.89389280485989
 30
0.0
 11
296.2677524526668
 21
131.39389280485989
 31
0.0
  0
LINE
  5
833
  8
0
 10
296.76775245266668
 20
161.8938928048598
 30
0.0
 11
296.26775245266668
 21
162.3938928048598
 31
0.0
  0
LINE
  5
834
  8
0
 10
296.7677524526668
 20
131.89389280485989
 30
0.0
 11
296.76775245266668
 21
161.8938928048598
 31
0.0
  0
CIRCLE
  5
835
  8
0
 10
124.74666093315879
 20
146.89389280485989
 30
0.0
 40
14.99999999999997
  0
ARC
  5
836
  8
0
 10
109.73605819263889
 20
109.81719115319871
 30
0.0
 40
4.0
 50
247.95930336660581
 51
7.1356992216190704
  0
ARC
  5
837
  8
0
 10
139.75726367367889
 20
109.81719115319881
 30
0.0
 40
4.0
 50
172.86430077837761
 51
292.04069663339419
  0
ARC
  5
838
  8
0
 10
139.75726367367889
 20
183.97059445652101
 30
0.0
 40
4.0
 50
67.95930336660544
 51
187.13569922161909
  0
ARC
  5
839
  8
0
 10
109.73605819263889
 20
183.9705944565211
 30
0.0
 40
4.0
 50
352.86430077838088
 51
112.04069663339411
  0
CIRCLE
  5
83A
  8
0
 10
124.74666093315879
 20
146.89389280485989
 30
0.0
 40
44.0
  0
LINE
  5
83C
  8
0
 10
278.76775245266668
 20
207.39389280485989
 30
0.0
 11
278.76775245266668
 21
86.393892804859888
 31
0.0
  0
LINE
  5
83D
  8
0
 10
263.76775245266668
 20
87.393892804859888
 30
0.0
 11
263.76775245266668
 21
206.39389280485989
 31
0.0
  0
LINE
  5
83E
  8
0
 10
266.76775245266668
 20
209.39389280485989
 30
0.0
 11
266.76775245266668
 21
84.393892804859874
 31
0.0
  0
ARC
  5
83F
  8
0
 10
230.74199172355409
 20
146.89389280485989
 30
0.0
 40
50.525760729112669
 50
346.00389590945218
 51
13.99610409054776
  0
LINE
  5
840
  8
0
 10
278.76775245266668
 20
187.76813320091131
 30
0.0
 11
295.26775245266668
 21
153.93811981485081
 31
0.0
  0
LINE
  5
841
  8
0
 10
278.76775245266668
 20
106.0196524088084
 30
0.0
 11
295.26775245266668
 21
139.8496657948688
 31
0.0
  0
LINE
  5
842
  8
0
 10
276.76775245266668
 20
84.393892804859874
 30
0.0
 11
266.76775245266668
 21
84.393892804859874
 31
0.0
  0
ARC
  5
843
  8
0
 10
276.76775245266668
 20
86.393892804859888
 30
0.0
 40
2.0
 50
270.0
 51
0.0
1001
GENIUS_GENODEF_13
1002
{
1000
HIER
1070
     0
1002
}
1002
{
1000
MANEDIT
1070
     0
1002
}
1002
{
1000
NOSEL
1070
     0
1002
}
1002
{
1000
BEHIND
1070
     0
1002
}
1002
{
1000
REACTOR
1002
}
1001
GENIUS_GENOBJ-N-FIL_13
1002
{
1000
OWNER
1000
GEN
1002
}
  0
LINE
  5
844
  8
0
 10
263.76775245266668
 20
87.393892804859888
 30
0.0
 11
266.76775245266668
 21
84.393892804859874
 31
0.0
1001
GENIUS_GENFIL_13
1070
     0
1040
3.0
1040
3.0
1040
20.0
1040
0.0
1002
{
1002
}
1001
GENIUS_GENODEF_13
1002
{
1000
HIER
1070
     0
1002
}
1002
{
1000
MANEDIT
1070
     0
1002
}
1002
{
1000
NOSEL
1070
     0
1002
}
1002
{
1000
BEHIND
1070
     0
1002
}
1002
{
1000
REACTOR
1002
}
1001
GENIUS_GENOBJ-N-CHA_13
1002
{
1000
OWNER
1000
GEN
1002
}
  0
LINE
  5
845
  8
1
 10
306.7677524526668
 20
146.89389280485989
 30
0.0
 11
253.76775245266671
 21
146.89389280485989
 31
0.0
1001
GENIUS_GENODEF_13
1002
{
1000
HIER
1070
     0
1002
}
1002
{
1000
MANEDIT
1070
     0
1002
}
1002
{
1000
NOSEL
1070
     0
1002
}
1002
{
1000
BEHIND
1070
     0
1002
}
1002
{
1000
REACTOR
1002
}
1001
GENIUS_GENOBJ-N-CEN_13
1002
{
1000
OWNER
1000
GEN
1002
}
  0
LINE
  5
846
  8
0
 10
296.2677524526668
 20
131.39389280485989
 30
0.0
 11
291.14359640392462
 21
131.39389280485989
 31
0.0
  0
LINE
  5
847
  8
0
 10
296.26775245266668
 20
162.3938928048598
 30
0.0
 11
291.14359640392451
 21
162.39389280485989
 31
0.0
  0
LINE
  5
848
  8
0
 10
266.76775245266668
 20
209.39389280485989
 30
0.0
 11
276.76775245266668
 21
209.39389280485989
 31
0.0
  0
ARC
  5
849
  8
0
 10
276.76775245266668
 20
207.39389280485989
 30
0.0
 40
2.0
 50
0.0
 51
90.0
1001
GENIUS_GENODEF_13
1002
{
1000
HIER
1070
     0
1002
}
1002
{
1000
MANEDIT
1070
     0
1002
}
1002
{
1000
NOSEL
1070
     0
1002
}
1002
{
1000
BEHIND
1070
     0
1002
}
1002
{
1000
REACTOR
1002
}
1001
GENIUS_GENOBJ-N-FIL_13
1002
{
1000
OWNER
1000
GEN
1002
}
  0
LINE
  5
84A
  8
0
 10
266.76775245266668
 20
209.39389280485989
 30
0.0
 11
263.76775245266668
 21
206.39389280485989
 31
0.0
1001
GENIUS_GENFIL_13
1070
     0
1040
3.0
1040
3.0
1040
20.0
1040
0.0
1002
{
1002
}
1001
GENIUS_GENODEF_13
1002
{
1000
HIER
1070
     0
1002
}
1002
{
1000
MANEDIT
1070
     0
1002
}
1002
{
1000
NOSEL
1070
     0
1002
}
1002
{
1000
BEHIND
1070
     0
1002
}
1002
{
1000
REACTOR
1002
}
1001
GENIUS_GENOBJ-N-CHA_13
1002
{
1000
OWNER
1000
GEN
1002
}
  0
LINE
  5
84E
  8
0
 10
140.12660929509551
 20
144.9684867738716
 30
0.0
 11
135.7882447415663
 21
110.3140701289377
 31
0.0
  0
LINE
  5
84F
  8
0
 10
109.36671257122229
 20
144.9684867738716
 30
0.0
 11
113.7050771247516
 21
110.3140701289375
 31
0.0
  0
LINE
  5
850
  8
1
 10
52.246660933158857
 20
146.89389280485989
 30
0.0
 11
197.24666093315881
 21
146.89389280485989
 31
0.0
1001
GENIUS_GENOREF_13
1005
0
  0
LINE
  5
851
  8
0
 10
140.12660929509551
 20
148.81929883584809
 30
0.0
 11
135.78824474156619
 21
183.47371548078209
 31
0.0
  0
LINE
  5
852
  8
0
 10
109.36671257122229
 20
148.81929883584809
 30
0.0
 11
113.7050771247516
 21
183.4737154807822
 31
0.0
  0
CIRCLE
  5
853
  8
0
 10
124.74666093315879
 20
146.89389280485989
 30
0.0
 40
62.5
  0
CIRCLE
  5
854
  8
0
 10
124.74666093315879
 20
146.89389280485989
 30
0.0
 40
59.5
  0
CIRCLE
  5
855
  8
0
 10
124.74666093315879
 20
146.89389280485989
 30
0.0
 40
15.5
  0
CIRCLE
  5
856
  8
0
 10
124.74666093315879
 20
146.89389280485989
 30
0.0
 40
6.0
  0
CIRCLE
  5
857
  8
0
 10
124.74666093315879
 20
146.89389280485989
 30
0.0
 40
46.0
  0
LINE
  5
858
  8
1
 10
124.74666093315879
 20
74.393892804859888
 30
0.0
 11
124.74666093315879
 21
219.39389280485989
 31
0.0
1001
GENIUS_GENOREF_13
1005
0
  0
TEXT
  5
942
  8
0
 62
     3
 10
0.0
 20
0.0
 30
0.0
 40
10.0
  1
AL2SP125N
  7
STANDARD1
  0
ENDSEC
  0
EOF
