  0
SECTION
  2
HEADER
  9
$ACADVER
  1
AC1009
  9
$INSBASE
 10
0.0
 20
0.0
 30
0.0
  9
$EXTMIN
 10
-0.0204638472032742
 20
-2.960436562073669
 30
0.0
  9
$EXTMAX
 10
286.55260243564072
 20
281.873086923529
 30
0.0
  9
$LIMMIN
 10
0.0
 20
0.0
  9
$LIMMAX
 10
375.0
 20
270.0
  9
$ORTHOMODE
 70
     0
  9
$REGENMODE
 70
     1
  9
$FILLMODE
 70
     1
  9
$QTEXTMODE
 70
     0
  9
$MIRRTEXT
 70
     0
  9
$DRAGMODE
 70
     2
  9
$LTSCALE
 40
5.0
  9
$OSMODE
 70
  3071
  9
$ATTMODE
 70
     1
  9
$TEXTSIZE
 40
2.0
  9
$TRACEWID
 40
0.05
  9
$TEXTSTYLE
  7
STANDARD
  9
$CLAYER
  8
0
  9
$CELTYPE
  6
BYLAYER
  9
$CECOLOR
 62
   256
  9
$DIMSCALE
 40
1.0
  9
$DIMASZ
 40
2.5
  9
$DIMEXO
 40
2.0
  9
$DIMDLI
 40
0.38
  9
$DIMRND
 40
0.0
  9
$DIMDLE
 40
0.0
  9
$DIMEXE
 40
2.0
  9
$DIMTP
 40
0.0
  9
$DIMTM
 40
0.0
  9
$DIMTXT
 40
3.0
  9
$DIMCEN
 40
0.09
  9
$DIMTSZ
 40
0.0
  9
$DIMTOL
 70
     0
  9
$DIMLIM
 70
     0
  9
$DIMTIH
 70
     0
  9
$DIMTOH
 70
     0
  9
$DIMSE1
 70
     0
  9
$DIMSE2
 70
     0
  9
$DIMTAD
 70
     1
  9
$DIMZIN
 70
     0
  9
$DIMBLK
  1

  9
$DIMASO
 70
     1
  9
$DIMSHO
 70
     0
  9
$DIMPOST
  1

  9
$DIMAPOST
  1

  9
$DIMALT
 70
     0
  9
$DIMALTD
 70
     2
  9
$DIMALTF
 40
25.399999999999999
  9
$DIMLFAC
 40
1.0
  9
$DIMTOFL
 70
     0
  9
$DIMTVP
 40
1.6000000000000001
  9
$DIMTIX
 70
     1
  9
$DIMSOXD
 70
     0
  9
$DIMSAH
 70
     0
  9
$DIMBLK1
  1

  9
$DIMBLK2
  1

  9
$DIMSTYLE
  2
STANDARD
  9
$DIMCLRD
 70
     0
  9
$DIMCLRE
 70
     0
  9
$DIMCLRT
 70
     0
  9
$DIMTFAC
 40
1.0
  9
$DIMGAP
 40
0.09
  9
$LUNITS
 70
     2
  9
$LUPREC
 70
     4
  9
$SKETCHINC
 40
0.1
  9
$FILLETRAD
 40
2.5
  9
$AUNITS
 70
     0
  9
$AUPREC
 70
     0
  9
$MENU
  1
E:\r13\win\SUPPORT\ACAD
  9
$ELEVATION
 40
0.0
  9
$PELEVATION
 40
0.0
  9
$THICKNESS
 40
0.0
  9
$LIMCHECK
 70
     0
  9
$BLIPMODE
 70
     0
  9
$CHAMFERA
 40
0.0
  9
$CHAMFERB
 40
0.0
  9
$SKPOLY
 70
     0
  9
$TDCREATE
 40
2448650.5678784722
  9
$TDUPDATE
 40
2456597.5485871532
  9
$TDINDWG
 40
0.0199041204
  9
$TDUSRTIMER
 40
0.0199041204
  9
$USRTIMER
 70
     1
  9
$ANGBASE
 50
0.0
  9
$ANGDIR
 70
     0
  9
$PDMODE
 70
     0
  9
$PDSIZE
 40
0.0
  9
$PLINEWID
 40
0.0
  9
$COORDS
 70
     1
  9
$SPLFRAME
 70
     0
  9
$SPLINETYPE
 70
     6
  9
$SPLINESEGS
 70
     8
  9
$ATTDIA
 70
     0
  9
$ATTREQ
 70
     1
  9
$HANDLING
 70
     1
  9
$HANDSEED
  5
B9A
  9
$SURFTAB1
 70
     6
  9
$SURFTAB2
 70
     6
  9
$SURFTYPE
 70
     6
  9
$SURFU
 70
     6
  9
$SURFV
 70
     6
  9
$UCSNAME
  2

  9
$UCSORG
 10
0.0
 20
0.0
 30
0.0
  9
$UCSXDIR
 10
1.0
 20
0.0
 30
0.0
  9
$UCSYDIR
 10
0.0
 20
1.0
 30
0.0
  9
$PUCSNAME
  2

  9
$PUCSORG
 10
0.0
 20
0.0
 30
0.0
  9
$PUCSXDIR
 10
1.0
 20
0.0
 30
0.0
  9
$PUCSYDIR
 10
0.0
 20
1.0
 30
0.0
  9
$USERI1
 70
     0
  9
$USERI2
 70
     1
  9
$USERI3
 70
     1
  9
$USERI4
 70
     0
  9
$USERI5
 70
     0
  9
$USERR1
 40
0.0
  9
$USERR2
 40
0.0
  9
$USERR3
 40
0.0
  9
$USERR4
 40
0.0
  9
$USERR5
 40
0.0
  9
$WORLDVIEW
 70
     1
  9
$SHADEDGE
 70
     3
  9
$SHADEDIF
 70
    70
  9
$TILEMODE
 70
     1
  9
$MAXACTVP
 70
    16
  9
$PLIMCHECK
 70
     0
  9
$PEXTMIN
 10
1.0000000000000000E+020
 20
1.0000000000000000E+020
 30
1.0000000000000000E+020
  9
$PEXTMAX
 10
-1.0000000000000000E+020
 20
-1.0000000000000000E+020
 30
-1.0000000000000000E+020
  9
$PLIMMIN
 10
0.0
 20
0.0
  9
$PLIMMAX
 10
12.0
 20
9.0
  9
$UNITMODE
 70
     0
  9
$VISRETAIN
 70
     0
  9
$PLINEGEN
 70
     1
  9
$PSLTSCALE
 70
     0
  0
ENDSEC
  0
SECTION
  2
TABLES
  0
TABLE
  2
VPORT
 70
     1
  0
VPORT
  2
*ACTIVE
 70
     0
 10
0.0
 20
0.0
 11
1.0
 21
1.0
 12
195.37308112632499
 22
139.45268463468611
 13
0.0
 23
0.0
 14
10.0
 24
10.0
 15
10.0
 25
10.0
 16
0.0
 26
0.0
 36
1.0
 17
0.0
 27
0.0
 37
0.0
 40
287.41279041744878
 41
1.831871345029239
 42
50.0
 43
0.0
 44
0.0
 50
0.0
 51
0.0
 71
     0
 72
   500
 73
     1
 74
     0
 75
     0
 76
     0
 77
     0
 78
     2
  0
ENDTAB
  0
TABLE
  2
LTYPE
 70
     4
  0
LTYPE
  2
CONTINUOUS
 70
     0
  3
Solid Line
 72
    65
 73
     0
 40
0.0
  0
LTYPE
  2
CENTER
 70
     0
  3
____ _ ____ _ ____ _ ____ _ ____ _ ____ _ ____
 72
    65
 73
     4
 40
2.0
 49
1.25
 49
-0.25
 49
0.25
 49
-0.25
  0
LTYPE
  2
HIDDEN
 70
     0
  3
_ _ _ _ _ _ _ _ _ _ _ _ _ _ _ _ _ _ _ _ _ _ _
 72
    65
 73
     2
 40
0.375
 49
0.25
 49
-0.125
  0
LTYPE
  2
PHANTOM2
 70
     0
  3
___ _ _ ___ _ _ ___ _ _ ___ _ _
 72
    65
 73
     6
 40
1.25
 49
0.625
 49
-0.125
 49
0.125
 49
-0.125
 49
0.125
 49
-0.125
  0
ENDTAB
  0
TABLE
  2
LAYER
 70
     4
  0
LAYER
  2
0
 70
     0
 62
     7
  6
CONTINUOUS
  0
LAYER
  2
1
 70
     0
 62
     1
  6
CENTER
  0
LAYER
  2
3
 70
     0
 62
     3
  6
CONTINUOUS
  0
LAYER
  2
2
 70
     0
 62
     2
  6
HIDDEN
  0
ENDTAB
  0
TABLE
  2
STYLE
 70
     2
  0
STYLE
  2
STANDARD
 70
     0
 40
0.0
 41
1.0
 50
0.0
 71
     0
 42
2.0
  3
TXT
  4
BIGFONT
  0
STYLE
  2
STANDARD1
 70
     0
 40
0.0
 41
1.0
 50
0.0
 71
     0
 42
3.0
  3
txt
  4

  0
ENDTAB
  0
TABLE
  2
VIEW
 70
     1
  0
VIEW
  2
ALL
 70
     0
 40
270.0
 10
220.99159663865549
 20
135.0
 41
0.0
 11
0.0
 21
0.0
 31
1.0
 12
0.0
 22
0.0
 32
0.0
 42
0.0
 43
0.0
 44
0.0
 50
0.0
 71
     0
  0
ENDTAB
  0
TABLE
  2
UCS
 70
     0
  0
ENDTAB
  0
TABLE
  2
APPID
 70
     3
  0
APPID
  2
ACAD
 70
     0
  0
APPID
  2
ACAD_MLEADERVER
 70
     0
  0
APPID
  2
ACAD_NAV_VCDISPLAY
 70
     0
  0
ENDTAB
  0
TABLE
  2
DIMSTYLE
 70
     1
  0
DIMSTYLE
  2
STANDARD
 70
     0
  3

  4

  5

  6

  7

 40
1.0
 41
0.18
 42
0.0625
 43
0.38
 44
0.18
 45
0.0
 46
0.0
 47
0.0
 48
0.0
140
0.18
141
0.09
142
0.0
143
25.399999999999999
144
1.0
145
0.0
146
1.0
147
0.09
 71
     0
 72
     0
 73
     1
 74
     1
 75
     0
 76
     0
 77
     0
 78
     0
170
     0
171
     2
172
     0
173
     0
174
     0
175
     0
176
     0
177
     0
178
     0
  0
ENDTAB
  0
ENDSEC
  0
SECTION
  2
BLOCKS
  0
BLOCK
  8
0
  2
$MODEL_SPACE
 70
     0
 10
0.0
 20
0.0
 30
0.0
  3
$MODEL_SPACE
  1

  0
ENDBLK
  5
217
  8
0
  0
BLOCK
 67
     1
  8
0
  2
$PAPER_SPACE
 70
     0
 10
0.0
 20
0.0
 30
0.0
  3
$PAPER_SPACE
  1

  0
ENDBLK
  5
215
 67
     1
  8
0
  0
BLOCK
  8
0
  2
*X0
 70
     1
 10
0.0
 20
0.0
 30
0.0
  3
*X0
  1

  0
LINE
  5
788
  8
0
 62
     0
 10
223.0
 20
140.0
 30
0.0
 11
234.0
 21
140.0
 31
0.0
  0
LINE
  5
789
  8
0
 62
     0
 10
223.0
 20
141.0
 30
0.0
 11
234.0
 21
141.0
 31
0.0
  0
LINE
  5
78A
  8
0
 62
     0
 10
223.0
 20
142.0
 30
0.0
 11
234.0
 21
142.0
 31
0.0
  0
LINE
  5
78B
  8
0
 62
     0
 10
223.0
 20
143.0
 30
0.0
 11
234.0
 21
143.0
 31
0.0
  0
LINE
  5
78C
  8
0
 62
     0
 10
223.0
 20
144.0
 30
0.0
 11
234.0
 21
144.0
 31
0.0
  0
LINE
  5
78D
  8
0
 62
     0
 10
223.0
 20
145.0
 30
0.0
 11
234.0
 21
145.0
 31
0.0
  0
LINE
  5
78E
  8
0
 62
     0
 10
223.0
 20
146.0
 30
0.0
 11
234.0
 21
146.0
 31
0.0
  0
LINE
  5
78F
  8
0
 62
     0
 10
223.0
 20
147.0
 30
0.0
 11
234.0
 21
147.0
 31
0.0
  0
LINE
  5
790
  8
0
 62
     0
 10
223.0
 20
148.0
 30
0.0
 11
234.0
 21
148.0
 31
0.0
  0
LINE
  5
791
  8
0
 62
     0
 10
223.0
 20
149.0
 30
0.0
 11
234.0
 21
149.0
 31
0.0
  0
LINE
  5
792
  8
0
 62
     0
 10
223.0
 20
150.0
 30
0.0
 11
234.0
 21
150.0
 31
0.0
  0
LINE
  5
793
  8
0
 62
     0
 10
223.0
 20
151.0
 30
0.0
 11
234.0
 21
151.0
 31
0.0
  0
LINE
  5
794
  8
0
 62
     0
 10
223.0
 20
152.0
 30
0.0
 11
234.0
 21
152.0
 31
0.0
  0
LINE
  5
795
  8
0
 62
     0
 10
223.0
 20
153.0
 30
0.0
 11
234.0
 21
153.0
 31
0.0
  0
LINE
  5
796
  8
0
 62
     0
 10
223.0
 20
154.0
 30
0.0
 11
234.0
 21
154.0
 31
0.0
  0
LINE
  5
797
  8
0
 62
     0
 10
223.0
 20
155.0
 30
0.0
 11
234.0
 21
155.0
 31
0.0
  0
LINE
  5
798
  8
0
 62
     0
 10
223.0
 20
156.0
 30
0.0
 11
234.0
 21
156.0
 31
0.0
  0
LINE
  5
799
  8
0
 62
     0
 10
223.0
 20
157.0
 30
0.0
 11
234.0
 21
157.0
 31
0.0
  0
LINE
  5
79A
  8
0
 62
     0
 10
223.0
 20
158.0
 30
0.0
 11
234.0
 21
158.0
 31
0.0
  0
LINE
  5
79B
  8
0
 62
     0
 10
223.0
 20
159.0
 30
0.0
 11
234.0
 21
159.0
 31
0.0
  0
LINE
  5
79C
  8
0
 62
     0
 10
223.0
 20
160.0
 30
0.0
 11
234.0
 21
160.0
 31
0.0
  0
LINE
  5
79D
  8
0
 62
     0
 10
223.0
 20
161.0
 30
0.0
 11
234.0
 21
161.0
 31
0.0
  0
LINE
  5
79E
  8
0
 62
     0
 10
223.0
 20
162.0
 30
0.0
 11
234.0
 21
162.0
 31
0.0
  0
LINE
  5
79F
  8
0
 62
     0
 10
223.0
 20
163.0
 30
0.0
 11
234.0
 21
163.0
 31
0.0
  0
LINE
  5
7A0
  8
0
 62
     0
 10
223.0
 20
164.0
 30
0.0
 11
234.0
 21
164.0
 31
0.0
  0
LINE
  5
7A1
  8
0
 62
     0
 10
223.0
 20
139.0
 30
0.0
 11
234.0
 21
139.0
 31
0.0
  0
LINE
  5
7A2
  8
0
 62
     0
 10
223.0
 20
138.0
 30
0.0
 11
234.0
 21
138.0
 31
0.0
  0
LINE
  5
7A3
  8
0
 62
     0
 10
223.0
 20
137.0
 30
0.0
 11
234.0
 21
137.0
 31
0.0
  0
LINE
  5
7A4
  8
0
 62
     0
 10
223.0
 20
136.0
 30
0.0
 11
234.0
 21
136.0
 31
0.0
  0
LINE
  5
7A5
  8
0
 62
     0
 10
223.0
 20
135.0
 30
0.0
 11
234.0
 21
135.0
 31
0.0
  0
LINE
  5
7A6
  8
0
 62
     0
 10
223.0
 20
134.0
 30
0.0
 11
234.0
 21
134.0
 31
0.0
  0
LINE
  5
7A7
  8
0
 62
     0
 10
223.0
 20
133.0
 30
0.0
 11
234.0
 21
133.0
 31
0.0
  0
LINE
  5
7A8
  8
0
 62
     0
 10
223.0
 20
132.0
 30
0.0
 11
234.0
 21
132.0
 31
0.0
  0
LINE
  5
7A9
  8
0
 62
     0
 10
223.0
 20
131.0
 30
0.0
 11
234.0
 21
131.0
 31
0.0
  0
LINE
  5
7AA
  8
0
 62
     0
 10
223.0
 20
130.0
 30
0.0
 11
234.0
 21
130.0
 31
0.0
  0
LINE
  5
7AB
  8
0
 62
     0
 10
223.0
 20
129.0
 30
0.0
 11
234.0
 21
129.0
 31
0.0
  0
LINE
  5
7AC
  8
0
 62
     0
 10
223.0
 20
128.0
 30
0.0
 11
234.0
 21
128.0
 31
0.0
  0
LINE
  5
7AD
  8
0
 62
     0
 10
223.0
 20
127.0
 30
0.0
 11
234.0
 21
127.0
 31
0.0
  0
LINE
  5
7AE
  8
0
 62
     0
 10
223.0
 20
126.0
 30
0.0
 11
234.0
 21
126.0
 31
0.0
  0
LINE
  5
7AF
  8
0
 62
     0
 10
223.0
 20
125.0
 30
0.0
 11
234.0
 21
125.0
 31
0.0
  0
LINE
  5
7B0
  8
0
 62
     0
 10
223.0
 20
124.0
 30
0.0
 11
234.0
 21
124.0
 31
0.0
  0
LINE
  5
7B1
  8
0
 62
     0
 10
223.0
 20
123.0
 30
0.0
 11
234.0
 21
123.0
 31
0.0
  0
LINE
  5
7B2
  8
0
 62
     0
 10
223.0
 20
122.0
 30
0.0
 11
234.0
 21
122.0
 31
0.0
  0
LINE
  5
7B3
  8
0
 62
     0
 10
223.0
 20
121.0
 30
0.0
 11
234.0
 21
121.0
 31
0.0
  0
LINE
  5
7B4
  8
0
 62
     0
 10
223.0
 20
120.0
 30
0.0
 11
234.0
 21
120.0
 31
0.0
  0
LINE
  5
7B5
  8
0
 62
     0
 10
223.0
 20
119.0
 30
0.0
 11
234.0
 21
119.0
 31
0.0
  0
LINE
  5
7B6
  8
0
 62
     0
 10
223.0
 20
118.0
 30
0.0
 11
234.0
 21
118.0
 31
0.0
  0
LINE
  5
7B7
  8
0
 62
     0
 10
223.0
 20
117.0
 30
0.0
 11
234.0
 21
117.0
 31
0.0
  0
LINE
  5
7B8
  8
0
 62
     0
 10
223.0
 20
116.0
 30
0.0
 11
234.0
 21
116.0
 31
0.0
  0
ENDBLK
  5
7B9
  8
0
  0
ENDSEC
  0
SECTION
  2
ENTITIES
  0
ARC
  5
8ED
  8
0
 10
169.55260243564109
 20
62.873086923528938
 30
0.0
 40
3.0
 50
90.0
 51
180.0
  0
LINE
  5
8EE
  8
2
 10
166.55260243564109
 20
74.373086923529087
 30
0.0
 11
181.05260243564109
 21
74.373086923529087
 31
0.0
  0
LINE
  5
8EF
  8
2
 10
166.55260243564109
 20
79.373086923528831
 30
0.0
 11
181.05260243564109
 21
79.373086923528831
 31
0.0
  0
LINE
  5
8F0
  8
1
 10
131.05260245534069
 20
76.873086923528945
 30
0.0
 11
186.55260243564061
 21
76.873086923528945
 31
0.0
  0
ARC
  5
8F1
  8
0
 10
169.55260243564109
 20
90.873086923528945
 30
0.0
 40
3.0
 50
180.0
 51
270.0
  0
LINE
  5
8F2
  8
0
  6
CONTINUOUS
 62
     7
 10
153.3526024356411
 20
71.377935966974803
 30
0.0
 11
153.3526024356411
 21
76.873086923528945
 31
0.0
  0
INSERT
  5
8F3
  8
3
  2
*X0
 10
-68.44739756435888
 20
216.873086923529
 30
0.0
 41
-1.0
 50
180.0
  0
LINE
  5
8F4
  8
0
 10
154.55260243564109
 20
51.873086923528938
 30
0.0
 11
154.55260243564109
 21
101.8730869235289
 31
0.0
  0
LINE
  5
8F5
  8
0
 10
165.55260243564109
 20
51.873086923528938
 30
0.0
 11
165.55260243564109
 21
101.8730869235289
 31
0.0
  0
LINE
  5
8F6
  8
0
 10
166.55260243564109
 20
52.873086923528938
 30
0.0
 11
166.55260243564109
 21
100.8730869235289
 31
0.0
  0
LINE
  5
8F7
  8
0
 10
153.55260243564109
 20
52.873086923528938
 30
0.0
 11
153.55260243564109
 21
100.8730869235289
 31
0.0
  0
ARC
  5
8F8
  8
0
 10
165.55260243564109
 20
52.873086923528938
 30
0.0
 40
1.0
 50
270.0
 51
0.0
  0
ARC
  5
8F9
  8
0
 10
154.55260243564109
 20
52.873086923528938
 30
0.0
 40
1.0
 50
180.0
 51
270.0
  0
LINE
  5
8FA
  8
0
 10
154.55260243564109
 20
51.873086923528938
 30
0.0
 11
165.55260243564109
 21
51.873086923528938
 31
0.0
  0
LINE
  5
8FB
  8
0
  6
CONTINUOUS
 62
     7
 10
153.3526024356411
 20
71.377935966974803
 30
0.0
 11
150.65260243834109
 21
70.123086923528945
 31
0.0
  0
LINE
  5
8FC
  8
0
  6
CONTINUOUS
 62
     7
 10
153.3526024356411
 20
82.368237880082972
 30
0.0
 11
150.65260243834109
 21
83.623086923528945
 31
0.0
  0
LINE
  5
8FD
  8
2
 10
166.55260243564109
 20
74.373086923529087
 30
0.0
 11
165.10922676266699
 21
76.873086923528973
 31
0.0
  0
LINE
  5
8FE
  8
0
  6
CONTINUOUS
 62
     7
 10
153.55260243564109
 20
76.873086923528945
 30
0.0
 11
153.55260243564109
 21
72.873086923528945
 31
0.0
  0
LINE
  5
8FF
  8
0
  6
CONTINUOUS
 62
     7
 10
153.55260243564109
 20
72.873086923528945
 30
0.0
 11
153.3526024356411
 21
72.873086923528945
 31
0.0
  0
LINE
  5
900
  8
0
  6
CONTINUOUS
 62
     7
 10
153.55260243564109
 20
80.873086923528945
 30
0.0
 11
153.3526024356411
 21
80.873086923528945
 31
0.0
  0
LINE
  5
901
  8
2
 10
166.55260243564129
 20
79.373086923528604
 30
0.0
 11
166.55260243564109
 21
74.373086923528845
 31
0.0
  0
LINE
  5
902
  8
2
 10
166.55260243564109
 20
79.373086923528831
 30
0.0
 11
165.10922676266699
 21
76.873086923528945
 31
0.0
  0
LINE
  5
903
  8
0
  6
CONTINUOUS
 62
     7
 10
153.3526024356411
 20
82.368237880082972
 30
0.0
 11
153.3526024356411
 21
76.873086923528945
 31
0.0
  0
LINE
  5
904
  8
0
  6
CONTINUOUS
 62
     7
 10
153.55260243564109
 20
76.873086923528945
 30
0.0
 11
153.55260243564109
 21
80.873086923528945
 31
0.0
  0
ARC
  5
905
  8
0
 10
165.55260243564109
 20
100.8730869235289
 30
0.0
 40
1.0
 50
0.0
 51
90.0
  0
ARC
  5
906
  8
0
 10
154.55260243564109
 20
100.8730869235289
 30
0.0
 40
1.0
 50
90.0
 51
180.0
  0
LINE
  5
907
  8
0
 10
154.55260243564109
 20
101.8730869235289
 30
0.0
 11
165.55260243564109
 21
101.8730869235289
 31
0.0
  0
LINE
  5
908
  8
0
 10
181.55260243564109
 20
67.873086923528945
 30
0.0
 11
181.55260243564109
 21
85.873086923528945
 31
0.0
  0
ARC
  5
909
  8
0
 10
179.55260243564109
 20
67.873086923528945
 30
0.0
 40
2.0
 50
270.0
 51
0.0
  0
LINE
  5
90A
  8
0
 10
169.55260243564109
 20
65.873086923528945
 30
0.0
 11
179.55260243564109
 21
65.873086923528945
 31
0.0
  0
LINE
  5
90B
  8
2
 10
181.05260243564109
 20
74.373086923529087
 30
0.0
 11
181.55260243564109
 21
73.873086923529087
 31
0.0
  0
LINE
  5
90C
  8
2
 10
181.05260243564109
 20
79.373086923528831
 30
0.0
 11
181.55260243564109
 21
79.873086923528831
 31
0.0
  0
ARC
  5
90D
  8
0
 10
179.55260243564109
 20
85.873086923528945
 30
0.0
 40
2.0
 50
0.0
 51
90.0
  0
LINE
  5
90E
  8
2
 10
181.05260243564109
 20
79.373086923528831
 30
0.0
 11
181.05260243564089
 21
74.373086923529087
 31
0.0
  0
LINE
  5
90F
  8
0
 10
169.55260243564109
 20
87.873086923528945
 30
0.0
 11
179.55260243564109
 21
87.873086923528945
 31
0.0
  0
ARC
  5
910
  8
0
 10
169.55260243564109
 20
270.873086923529
 30
0.0
 40
3.0
 50
180.0
 51
270.0
  0
ARC
  5
911
  8
0
 10
169.55260243564109
 20
242.87308692352889
 30
0.0
 40
3.0
 50
90.0
 51
180.0
  0
LINE
  5
912
  8
1
 10
131.05260245534069
 20
256.87308692352889
 30
0.0
 11
186.55260243564061
 21
256.87308692352889
 31
0.0
  0
LINE
  5
913
  8
2
 10
166.55260243564109
 20
254.373086923529
 30
0.0
 11
181.05260243564109
 21
254.373086923529
 31
0.0
  0
LINE
  5
914
  8
2
 10
166.55260243564109
 20
259.37308692352877
 30
0.0
 11
181.05260243564109
 21
259.37308692352877
 31
0.0
  0
LINE
  5
915
  8
2
 10
166.55260243564109
 20
169.3730869235288
 30
0.0
 11
181.05260243564109
 21
169.3730869235288
 31
0.0
  0
LINE
  5
916
  8
0
  6
CENTER
 62
     1
 10
169.05260243564121
 20
149.87308692352889
 30
0.0
 11
131.05260245534069
 21
149.87308692352889
 31
0.0
  0
LINE
  5
917
  8
2
 10
166.55260243564109
 20
164.373086923529
 30
0.0
 11
181.05260243564109
 21
164.373086923529
 31
0.0
  0
LINE
  5
918
  8
1
 10
148.55260243564129
 20
166.87308692352889
 30
0.0
 11
186.55260243564061
 21
166.87308692352889
 31
0.0
  0
ARC
  5
919
  8
0
 10
169.55260243564109
 20
152.87308692352889
 30
0.0
 40
3.0
 50
90.0
 51
180.0
  0
ARC
  5
91A
  8
0
 10
169.55260243564109
 20
180.87308692352889
 30
0.0
 40
3.0
 50
180.0
 51
270.0
  0
LINE
  5
91B
  8
0
 10
165.55260243564109
 20
281.873086923529
 30
0.0
 11
165.55260243564109
 21
231.87308692352889
 31
0.0
  0
LINE
  5
91C
  8
0
 10
154.55260243564109
 20
281.873086923529
 30
0.0
 11
154.55260243564109
 21
231.87308692352889
 31
0.0
  0
INSERT
  5
91D
  8
3
  2
*X0
 10
-68.44739756435888
 20
26.873086923528948
 30
0.0
  0
LINE
  5
91E
  8
0
 10
153.55260243564109
 20
190.87308692352889
 30
0.0
 11
153.55260243564109
 21
142.87308692352889
 31
0.0
  0
LINE
  5
91F
  8
0
 10
166.55260243564109
 20
190.87308692352889
 30
0.0
 11
166.55260243564109
 21
142.87308692352889
 31
0.0
  0
LINE
  5
920
  8
0
 10
154.55260243564109
 20
191.87308692352889
 30
0.0
 11
154.55260243564109
 21
141.87308692352889
 31
0.0
  0
LINE
  5
921
  8
0
 10
165.55260243564109
 20
191.87308692352889
 30
0.0
 11
165.55260243564109
 21
141.87308692352889
 31
0.0
  0
LINE
  5
922
  8
0
  6
CONTINUOUS
 62
     7
 10
153.3526024356411
 20
155.36823788008309
 30
0.0
 11
150.65260243834109
 21
156.62308692352889
 31
0.0
  0
LINE
  5
923
  8
0
  6
CONTINUOUS
 62
     7
 10
153.3526024356411
 20
144.37793596697489
 30
0.0
 11
150.65260243834109
 21
143.12308692352889
 31
0.0
  0
LINE
  5
924
  8
0
  6
CONTINUOUS
 62
     7
 10
153.55260243564109
 20
153.87308692352889
 30
0.0
 11
153.3526024356411
 21
153.87308692352889
 31
0.0
  0
LINE
  5
925
  8
0
  6
CONTINUOUS
 62
     7
 10
153.55260243564109
 20
145.87308692352889
 30
0.0
 11
153.3526024356411
 21
145.87308692352889
 31
0.0
  0
LINE
  5
926
  8
0
  6
CONTINUOUS
 62
     7
 10
153.55260243564109
 20
149.87308692352889
 30
0.0
 11
153.55260243564109
 21
145.87308692352889
 31
0.0
  0
LINE
  5
927
  8
0
  6
CONTINUOUS
 62
     7
 10
153.3526024356411
 20
144.37793596697489
 30
0.0
 11
153.3526024356411
 21
149.87308692352889
 31
0.0
  0
LINE
  5
928
  8
0
  6
CONTINUOUS
 62
     7
 10
153.3526024356411
 20
155.36823788008309
 30
0.0
 11
153.3526024356411
 21
149.87308692352889
 31
0.0
  0
LINE
  5
929
  8
0
  6
CONTINUOUS
 62
     7
 10
153.55260243564109
 20
149.87308692352889
 30
0.0
 11
153.55260243564109
 21
153.87308692352889
 31
0.0
  0
LINE
  5
92A
  8
0
 10
154.55260243564109
 20
141.87308692352889
 30
0.0
 11
165.55260243564109
 21
141.87308692352889
 31
0.0
  0
ARC
  5
92B
  8
0
 10
154.55260243564109
 20
142.87308692352889
 30
0.0
 40
1.0
 50
180.0
 51
270.0
  0
ARC
  5
92C
  8
0
 10
165.55260243564109
 20
142.87308692352889
 30
0.0
 40
1.0
 50
270.0
 51
0.0
  0
LINE
  5
92D
  8
2
 10
166.55260243564129
 20
164.37308692352931
 30
0.0
 11
166.55260243564109
 21
169.373086923529
 31
0.0
  0
LINE
  5
92E
  8
2
 10
166.55260243564109
 20
169.3730869235288
 30
0.0
 11
165.10922676266699
 21
166.87308692352889
 31
0.0
  0
LINE
  5
92F
  8
2
 10
166.55260243564109
 20
164.373086923529
 30
0.0
 11
165.10922676266699
 21
166.87308692352889
 31
0.0
  0
LINE
  5
930
  8
0
 10
154.55260243564109
 20
191.87308692352889
 30
0.0
 11
165.55260243564109
 21
191.87308692352889
 31
0.0
  0
ARC
  5
931
  8
0
 10
165.55260243564109
 20
190.87308692352889
 30
0.0
 40
1.0
 50
0.0
 51
90.0
  0
ARC
  5
932
  8
0
 10
154.55260243564109
 20
190.87308692352889
 30
0.0
 40
1.0
 50
90.0
 51
180.0
  0
LINE
  5
933
  8
0
 10
153.55260243564109
 20
280.873086923529
 30
0.0
 11
153.55260243564109
 21
232.873086923529
 31
0.0
  0
LINE
  5
934
  8
0
 10
166.55260243564109
 20
280.873086923529
 30
0.0
 11
166.55260243564109
 21
232.873086923529
 31
0.0
  0
INSERT
  5
935
  8
3
  2
*X0
 10
-68.44739756435888
 20
116.8730869235289
 30
0.0
  0
ARC
  5
936
  8
0
 10
165.55260243564109
 20
232.873086923529
 30
0.0
 40
1.0
 50
270.0
 51
0.0
  0
ARC
  5
937
  8
0
 10
154.55260243564109
 20
232.873086923529
 30
0.0
 40
1.0
 50
180.0
 51
270.0
  0
LINE
  5
938
  8
0
 10
154.55260243564109
 20
231.87308692352889
 30
0.0
 11
165.55260243564109
 21
231.87308692352889
 31
0.0
  0
LINE
  5
939
  8
0
  6
CONTINUOUS
 62
     7
 10
153.3526024356411
 20
262.36823788008309
 30
0.0
 11
150.65260243834109
 21
263.62308692352889
 31
0.0
  0
LINE
  5
93A
  8
0
  6
CONTINUOUS
 62
     7
 10
153.3526024356411
 20
251.37793596697489
 30
0.0
 11
150.65260243834109
 21
250.123086923529
 31
0.0
  0
LINE
  5
93B
  8
2
 10
166.55260243564109
 20
259.37308692352877
 30
0.0
 11
165.10922676266699
 21
256.87308692352889
 31
0.0
  0
LINE
  5
93C
  8
2
 10
166.55260243564109
 20
254.373086923529
 30
0.0
 11
165.10922676266699
 21
256.87308692352889
 31
0.0
  0
LINE
  5
93D
  8
2
 10
166.55260243564129
 20
254.37308692352931
 30
0.0
 11
166.55260243564109
 21
259.37308692352912
 31
0.0
  0
LINE
  5
93E
  8
0
  6
CONTINUOUS
 62
     7
 10
153.55260243564109
 20
260.87308692352889
 30
0.0
 11
153.3526024356411
 21
260.87308692352889
 31
0.0
  0
LINE
  5
93F
  8
0
  6
CONTINUOUS
 62
     7
 10
153.55260243564109
 20
256.87308692352889
 30
0.0
 11
153.55260243564109
 21
252.87308692352889
 31
0.0
  0
LINE
  5
940
  8
0
  6
CONTINUOUS
 62
     7
 10
153.55260243564109
 20
252.87308692352889
 30
0.0
 11
153.3526024356411
 21
252.87308692352889
 31
0.0
  0
LINE
  5
941
  8
0
  6
CONTINUOUS
 62
     7
 10
153.3526024356411
 20
251.37793596697489
 30
0.0
 11
153.3526024356411
 21
256.87308692352889
 31
0.0
  0
LINE
  5
942
  8
0
  6
CONTINUOUS
 62
     7
 10
153.55260243564109
 20
256.87308692352889
 30
0.0
 11
153.55260243564109
 21
260.87308692352889
 31
0.0
  0
LINE
  5
943
  8
0
  6
CONTINUOUS
 62
     7
 10
153.3526024356411
 20
262.36823788008309
 30
0.0
 11
153.3526024356411
 21
256.87308692352889
 31
0.0
  0
LINE
  5
944
  8
1
 10
256.55260243564072
 20
136.87308692352889
 30
0.0
 11
256.55260243564072
 21
196.87308692352889
 31
0.0
  0
CIRCLE
  5
945
  8
0
 10
256.55260243564072
 20
166.87308692352889
 30
0.0
 40
25.0
  0
LINE
  5
946
  8
1
 10
226.55260243564069
 20
166.87308692352889
 30
0.0
 11
286.55260243564072
 21
166.87308692352889
 31
0.0
  0
ARC
  5
947
  8
0
 10
179.55260243564109
 20
157.87308692352889
 30
0.0
 40
2.0
 50
270.0
 51
0.0
  0
LINE
  5
948
  8
0
 10
169.55260243564109
 20
155.87308692352889
 30
0.0
 11
179.55260243564109
 21
155.87308692352889
 31
0.0
  0
ARC
  5
949
  8
0
 10
179.55260243564109
 20
175.87308692352889
 30
0.0
 40
2.0
 50
0.0
 51
90.0
  0
LINE
  5
94A
  8
2
 10
181.05260243564109
 20
169.3730869235288
 30
0.0
 11
181.55260243564109
 21
169.8730869235288
 31
0.0
  0
LINE
  5
94B
  8
2
 10
181.05260243564109
 20
164.373086923529
 30
0.0
 11
181.05260243564089
 21
169.3730869235288
 31
0.0
  0
LINE
  5
94C
  8
2
 10
181.05260243564109
 20
164.373086923529
 30
0.0
 11
181.55260243564109
 21
163.873086923529
 31
0.0
  0
LINE
  5
94D
  8
0
 10
181.55260243564109
 20
175.87308692352889
 30
0.0
 11
181.55260243564109
 21
157.87308692352889
 31
0.0
  0
LINE
  5
94E
  8
0
 10
169.55260243564109
 20
177.87308692352889
 30
0.0
 11
179.55260243564109
 21
177.87308692352889
 31
0.0
  0
CIRCLE
  5
94F
  8
0
 10
256.55260243564072
 20
166.87308692352889
 30
0.0
 40
11.0
  0
CIRCLE
  5
950
  8
0
 10
256.55260243564072
 20
166.87308692352889
 30
0.0
 40
2.499999999999857
  0
LINE
  5
951
  8
0
 10
181.55260243564109
 20
265.87308692352889
 30
0.0
 11
181.55260243564109
 21
247.873086923529
 31
0.0
  0
LINE
  5
952
  8
2
 10
181.05260243564109
 20
259.37308692352877
 30
0.0
 11
181.55260243564109
 21
259.87308692352877
 31
0.0
  0
LINE
  5
953
  8
2
 10
181.05260243564109
 20
254.373086923529
 30
0.0
 11
181.55260243564109
 21
253.87308692352909
 31
0.0
  0
LINE
  5
954
  8
2
 10
181.05260243564109
 20
254.373086923529
 30
0.0
 11
181.05260243564089
 21
259.37308692352877
 31
0.0
  0
ARC
  5
955
  8
0
 10
179.55260243564109
 20
247.873086923529
 30
0.0
 40
2.0
 50
270.0
 51
0.0
  0
LINE
  5
956
  8
0
 10
169.55260243564109
 20
245.873086923529
 30
0.0
 11
179.55260243564109
 21
245.873086923529
 31
0.0
  0
ARC
  5
957
  8
0
 10
179.55260243564109
 20
265.87308692352889
 30
0.0
 40
2.0
 50
0.0
 51
90.0
  0
LINE
  5
958
  8
0
 10
169.55260243564109
 20
267.87308692352889
 30
0.0
 11
179.55260243564109
 21
267.87308692352889
 31
0.0
  0
LINE
  5
959
  8
0
  6
CONTINUOUS
 62
     7
 10
150.65260243834109
 20
70.123086923528945
 30
0.0
 11
150.65260243834109
 21
76.873086923528945
 31
0.0
  0
ARC
  5
95A
  8
0
  6
CONTINUOUS
 62
     7
 10
157.91835457951601
 20
76.87310029964965
 30
0.0
 40
24.365752124178591
 50
180.0000314537931
 51
193.273003642742
  0
LINE
  5
95B
  8
0
  6
CONTINUOUS
 62
     7
 10
135.6903920154873
 20
76.873086923528945
 30
0.0
 11
135.6903920154873
 21
70.123086923529058
 31
0.0
  0
LINE
  5
95C
  8
0
  6
CONTINUOUS
 62
     7
 10
135.66346790871171
 20
70.123086923528945
 30
0.0
 11
150.65260243834109
 21
70.123086923528945
 31
0.0
  0
ARC
  5
95D
  8
0
  6
CONTINUOUS
 62
     7
 10
135.66346790871171
 20
71.623086923528945
 30
0.0
 40
1.5
 50
193.2636435220457
 51
270.0
  0
LINE
  5
95E
  8
0
  6
CONTINUOUS
 62
     7
 10
135.66346790871171
 20
83.623086923528945
 30
0.0
 11
150.65260243834109
 21
83.623086923528945
 31
0.0
  0
ARC
  5
95F
  8
0
  6
CONTINUOUS
 62
     7
 10
135.66346790871171
 20
82.123086923528945
 30
0.0
 40
1.5
 50
90.0
 51
166.7363564779543
  0
ARC
  5
960
  8
0
  6
CONTINUOUS
 62
     7
 10
157.91835457951689
 20
76.873073547408126
 30
0.0
 40
24.365752124179561
 50
166.726996357258
 51
179.9999685462069
  0
LINE
  5
961
  8
0
  6
CONTINUOUS
 62
     7
 10
135.6903920154873
 20
76.873086923528945
 30
0.0
 11
135.6903920154873
 21
83.623086923528831
 31
0.0
  0
LINE
  5
962
  8
0
  6
CONTINUOUS
 62
     7
 10
150.65260243834109
 20
83.623086923528945
 30
0.0
 11
150.65260243834109
 21
76.873086923528945
 31
0.0
  0
ARC
  5
963
  8
0
 10
165.55260243564109
 20
280.873086923529
 30
0.0
 40
1.0
 50
0.0
 51
90.0
  0
ARC
  5
964
  8
0
 10
154.55260243564109
 20
280.873086923529
 30
0.0
 40
1.0
 50
90.0
 51
180.0
  0
LINE
  5
965
  8
1
 10
68.552602435641347
 20
136.87308692352889
 30
0.0
 11
68.552602435641347
 21
196.87308692352889
 31
0.0
  0
LINE
  5
966
  8
1
 10
98.552602435641347
 20
166.87308692352889
 30
0.0
 11
38.552602435641347
 21
166.87308692352889
 31
0.0
  0
CIRCLE
  5
967
  8
0
 10
68.552602435641347
 20
166.87308692352889
 30
0.0
 40
25.0
  0
CIRCLE
  5
968
  8
0
 10
68.552602435641347
 20
149.87308692352889
 30
0.0
 40
6.75
  0
LINE
  5
969
  8
0
  6
CENTER
 62
     1
 10
80.302602435641333
 20
149.87308692352889
 30
0.0
 11
56.80260243564134
 21
149.87308692352889
 31
0.0
  0
LINE
  5
96A
  8
0
  6
CONTINUOUS
 62
     7
 10
135.66346790871171
 20
156.62308692352889
 30
0.0
 11
150.65260243834109
 21
156.62308692352889
 31
0.0
  0
LINE
  5
96B
  8
0
  6
CONTINUOUS
 62
     7
 10
135.66346790871171
 20
143.12308692352889
 30
0.0
 11
150.65260243834109
 21
143.12308692352889
 31
0.0
  0
ARC
  5
96C
  8
0
  6
CONTINUOUS
 62
     7
 10
135.66346790871171
 20
155.12308692352889
 30
0.0
 40
1.5
 50
90.0
 51
166.7363564779543
  0
ARC
  5
96D
  8
0
  6
CONTINUOUS
 62
     7
 10
135.66346790871171
 20
144.62308692352889
 30
0.0
 40
1.5
 50
193.2636435220457
 51
270.0
  0
ARC
  5
96E
  8
0
  6
CONTINUOUS
 62
     7
 10
157.91835457951689
 20
149.87310029964971
 30
0.0
 40
24.365752124179561
 50
180.0000314537931
 51
193.273003642742
  0
LINE
  5
96F
  8
0
  6
CONTINUOUS
 62
     7
 10
135.6903920154873
 20
149.87308692352889
 30
0.0
 11
135.6903920154873
 21
143.123086923529
 31
0.0
  0
LINE
  5
970
  8
0
  6
CONTINUOUS
 62
     7
 10
135.6903920154873
 20
149.87308692352889
 30
0.0
 11
135.6903920154873
 21
156.6230869235288
 31
0.0
  0
ARC
  5
971
  8
0
  6
CONTINUOUS
 62
     7
 10
157.91835457951601
 20
149.87307354740821
 30
0.0
 40
24.365752124178591
 50
166.726996357258
 51
179.9999685462069
  0
LINE
  5
972
  8
0
  6
CONTINUOUS
 62
     7
 10
150.65260243834109
 20
143.12308692352889
 30
0.0
 11
150.65260243834109
 21
149.87308692352889
 31
0.0
  0
LINE
  5
973
  8
0
  6
CONTINUOUS
 62
     7
 10
150.65260243834109
 20
156.62308692352889
 30
0.0
 11
150.65260243834109
 21
149.87308692352889
 31
0.0
  0
LINE
  5
974
  8
0
  6
CONTINUOUS
 62
     7
 10
135.66346790871171
 20
263.62308692352889
 30
0.0
 11
150.65260243834109
 21
263.62308692352889
 31
0.0
  0
LINE
  5
975
  8
0
  6
CONTINUOUS
 62
     7
 10
135.66346790871171
 20
250.123086923529
 30
0.0
 11
150.65260243834109
 21
250.123086923529
 31
0.0
  0
ARC
  5
976
  8
0
  6
CONTINUOUS
 62
     7
 10
135.66346790871171
 20
262.123086923529
 30
0.0
 40
1.5
 50
90.0
 51
166.7363564779543
  0
LINE
  5
977
  8
0
  6
CONTINUOUS
 62
     7
 10
135.6903920154873
 20
256.87308692352889
 30
0.0
 11
135.6903920154873
 21
263.62308692352877
 31
0.0
  0
ARC
  5
978
  8
0
  6
CONTINUOUS
 62
     7
 10
135.66346790871171
 20
251.623086923529
 30
0.0
 40
1.5
 50
193.2636435220457
 51
270.0
  0
ARC
  5
979
  8
0
  6
CONTINUOUS
 62
     7
 10
157.91835457951689
 20
256.87310029964982
 30
0.0
 40
24.365752124179561
 50
180.0000314537931
 51
193.273003642742
  0
LINE
  5
97A
  8
0
  6
CONTINUOUS
 62
     7
 10
135.6903920154873
 20
256.87308692352889
 30
0.0
 11
135.6903920154873
 21
250.123086923529
 31
0.0
  0
ARC
  5
97B
  8
0
  6
CONTINUOUS
 62
     7
 10
157.91835457951601
 20
256.87307354740818
 30
0.0
 40
24.365752124178591
 50
166.726996357258
 51
179.9999685462069
  0
LINE
  5
97C
  8
0
  6
CONTINUOUS
 62
     7
 10
150.65260243834109
 20
263.62308692352889
 30
0.0
 11
150.65260243834109
 21
256.87308692352889
 31
0.0
  0
LINE
  5
97D
  8
0
  6
CONTINUOUS
 62
     7
 10
150.65260243834109
 20
250.123086923529
 30
0.0
 11
150.65260243834109
 21
256.87308692352889
 31
0.0
  0
LINE
  5
97E
  8
0
 10
154.55260243564109
 20
281.873086923529
 30
0.0
 11
165.55260243564109
 21
281.873086923529
 31
0.0
  0
TEXT
  5
B0B
  8
0
 62
     3
 10
0.0
 20
0.0
 30
0.0
 40
10.0
  1
AHRS50C
  7
STANDARD1
  0
ENDSEC
  0
EOF
