  0
SECTION
  2
HEADER
  9
$ACADVER
  1
AC1009
  9
$INSBASE
 10
0.0
 20
0.0
 30
0.0
  9
$EXTMIN
 10
-0.0204638472032742
 20
-2.960436562073669
 30
0.0
  9
$EXTMAX
 10
323.13119615178061
 20
239.99999999999989
 30
0.0
  9
$LIMMIN
 10
0.0
 20
0.0
  9
$LIMMAX
 10
375.0
 20
270.0
  9
$ORTHOMODE
 70
     1
  9
$REGENMODE
 70
     1
  9
$FILLMODE
 70
     1
  9
$QTEXTMODE
 70
     0
  9
$MIRRTEXT
 70
     0
  9
$DRAGMODE
 70
     2
  9
$LTSCALE
 40
10.0
  9
$OSMODE
 70
  3071
  9
$ATTMODE
 70
     1
  9
$TEXTSIZE
 40
0.2
  9
$TRACEWID
 40
0.05
  9
$TEXTSTYLE
  7
STANDARD
  9
$CLAYER
  8
0
  9
$CELTYPE
  6
BYLAYER
  9
$CECOLOR
 62
   256
  9
$DIMSCALE
 40
1.0
  9
$DIMASZ
 40
3.0
  9
$DIMEXO
 40
2.0
  9
$DIMDLI
 40
0.38
  9
$DIMRND
 40
0.0
  9
$DIMDLE
 40
0.0
  9
$DIMEXE
 40
2.0
  9
$DIMTP
 40
0.0
  9
$DIMTM
 40
0.0
  9
$DIMTXT
 40
3.2000000000000002
  9
$DIMCEN
 40
0.0
  9
$DIMTSZ
 40
0.0
  9
$DIMTOL
 70
     0
  9
$DIMLIM
 70
     0
  9
$DIMTIH
 70
     0
  9
$DIMTOH
 70
     0
  9
$DIMSE1
 70
     0
  9
$DIMSE2
 70
     0
  9
$DIMTAD
 70
     1
  9
$DIMZIN
 70
     0
  9
$DIMBLK
  1

  9
$DIMASO
 70
     1
  9
$DIMSHO
 70
     0
  9
$DIMPOST
  1

  9
$DIMAPOST
  1

  9
$DIMALT
 70
     0
  9
$DIMALTD
 70
     2
  9
$DIMALTF
 40
25.399999999999999
  9
$DIMLFAC
 40
1.0
  9
$DIMTOFL
 70
     0
  9
$DIMTVP
 40
1.6000000000000001
  9
$DIMTIX
 70
     1
  9
$DIMSOXD
 70
     0
  9
$DIMSAH
 70
     0
  9
$DIMBLK1
  1

  9
$DIMBLK2
  1

  9
$DIMSTYLE
  2
STANDARD
  9
$DIMCLRD
 70
     0
  9
$DIMCLRE
 70
     0
  9
$DIMCLRT
 70
     0
  9
$DIMTFAC
 40
1.0
  9
$DIMGAP
 40
0.09
  9
$LUNITS
 70
     2
  9
$LUPREC
 70
     1
  9
$SKETCHINC
 40
0.1
  9
$FILLETRAD
 40
0.0
  9
$AUNITS
 70
     0
  9
$AUPREC
 70
     0
  9
$MENU
  1
E:\r13\win\SUPPORT\ACAD
  9
$ELEVATION
 40
0.0
  9
$PELEVATION
 40
0.0
  9
$THICKNESS
 40
0.0
  9
$LIMCHECK
 70
     0
  9
$BLIPMODE
 70
     0
  9
$CHAMFERA
 40
0.0
  9
$CHAMFERB
 40
0.0
  9
$SKPOLY
 70
     0
  9
$TDCREATE
 40
2449840.6036805562
  9
$TDUPDATE
 40
2456597.5471375231
  9
$TDINDWG
 40
0.0002024884
  9
$TDUSRTIMER
 40
0.0002024884
  9
$USRTIMER
 70
     1
  9
$ANGBASE
 50
0.0
  9
$ANGDIR
 70
     0
  9
$PDMODE
 70
     0
  9
$PDSIZE
 40
0.0
  9
$PLINEWID
 40
0.0
  9
$COORDS
 70
     1
  9
$SPLFRAME
 70
     0
  9
$SPLINETYPE
 70
     6
  9
$SPLINESEGS
 70
     8
  9
$ATTDIA
 70
     0
  9
$ATTREQ
 70
     1
  9
$HANDLING
 70
     1
  9
$HANDSEED
  5
2D0
  9
$SURFTAB1
 70
     6
  9
$SURFTAB2
 70
     6
  9
$SURFTYPE
 70
     6
  9
$SURFU
 70
     6
  9
$SURFV
 70
     6
  9
$UCSNAME
  2

  9
$UCSORG
 10
0.0
 20
0.0
 30
0.0
  9
$UCSXDIR
 10
1.0
 20
0.0
 30
0.0
  9
$UCSYDIR
 10
0.0
 20
1.0
 30
0.0
  9
$PUCSNAME
  2

  9
$PUCSORG
 10
0.0
 20
0.0
 30
0.0
  9
$PUCSXDIR
 10
1.0
 20
0.0
 30
0.0
  9
$PUCSYDIR
 10
0.0
 20
1.0
 30
0.0
  9
$USERI1
 70
     0
  9
$USERI2
 70
     1
  9
$USERI3
 70
     1
  9
$USERI4
 70
     0
  9
$USERI5
 70
     0
  9
$USERR1
 40
0.0
  9
$USERR2
 40
0.0
  9
$USERR3
 40
0.0
  9
$USERR4
 40
0.0
  9
$USERR5
 40
0.0
  9
$WORLDVIEW
 70
     1
  9
$SHADEDGE
 70
     3
  9
$SHADEDIF
 70
    70
  9
$TILEMODE
 70
     1
  9
$MAXACTVP
 70
    16
  9
$PLIMCHECK
 70
     0
  9
$PEXTMIN
 10
1.0000000000000000E+020
 20
1.0000000000000000E+020
 30
1.0000000000000000E+020
  9
$PEXTMAX
 10
-1.0000000000000000E+020
 20
-1.0000000000000000E+020
 30
-1.0000000000000000E+020
  9
$PLIMMIN
 10
0.0
 20
0.0
  9
$PLIMMAX
 10
12.0
 20
9.0
  9
$UNITMODE
 70
     0
  9
$VISRETAIN
 70
     0
  9
$PLINEGEN
 70
     0
  9
$PSLTSCALE
 70
     0
  0
ENDSEC
  0
SECTION
  2
TABLES
  0
TABLE
  2
VPORT
 70
     1
  0
VPORT
  2
*ACTIVE
 70
     0
 10
0.0
 20
0.0
 11
1.0
 21
1.0
 12
195.04380321732449
 22
133.5127261426681
 13
0.0
 23
0.0
 14
10.0
 24
10.0
 15
10.0
 25
10.0
 16
0.0
 26
0.0
 36
1.0
 17
0.0
 27
0.0
 37
0.0
 40
275.42274993631997
 41
1.831871345029239
 42
50.0
 43
0.0
 44
0.0
 50
0.0
 51
0.0
 71
     0
 72
   500
 73
     1
 74
     0
 75
     0
 76
     0
 77
     0
 78
     2
  0
ENDTAB
  0
TABLE
  2
LTYPE
 70
     4
  0
LTYPE
  2
CONTINUOUS
 70
     0
  3
Solid Line
 72
    65
 73
     0
 40
0.0
  0
LTYPE
  2
CENTER
 70
     0
  3
____ _ ____ _ ____ _ ____ _ ____ _ ____ _ ____
 72
    65
 73
     4
 40
2.0
 49
1.25
 49
-0.25
 49
0.25
 49
-0.25
  0
LTYPE
  2
HIDDEN
 70
     0
  3
_ _ _ _ _ _ _ _ _ _ _ _ _ _ _ _ _ _ _ _ _ _ _
 72
    65
 73
     2
 40
0.375
 49
0.25
 49
-0.125
  0
LTYPE
  2
PHANTOM2
 70
     0
  3
___ _ _ ___ _ _ ___ _ _ ___ _ _
 72
    65
 73
     6
 40
1.25
 49
0.625
 49
-0.125
 49
0.125
 49
-0.125
 49
0.125
 49
-0.125
  0
ENDTAB
  0
TABLE
  2
LAYER
 70
     4
  0
LAYER
  2
0
 70
     0
 62
     7
  6
CONTINUOUS
  0
LAYER
  2
1
 70
     0
 62
     1
  6
CENTER
  0
LAYER
  2
3
 70
     0
 62
     3
  6
CONTINUOUS
  0
LAYER
  2
2
 70
     0
 62
     2
  6
HIDDEN
  0
ENDTAB
  0
TABLE
  2
STYLE
 70
     2
  0
STYLE
  2
STANDARD
 70
     0
 40
0.0
 41
1.0
 50
0.0
 71
     0
 42
0.2
  3
TXT
  4
BIGFONT
  0
STYLE
  2
STANDARD1
 70
     0
 40
0.0
 41
1.0
 50
0.0
 71
     0
 42
3.0
  3
txt
  4

  0
ENDTAB
  0
TABLE
  2
VIEW
 70
     1
  0
VIEW
  2
ALL
 70
     0
 40
270.0
 10
220.99159663865549
 20
135.0
 41
0.0
 11
0.0
 21
0.0
 31
1.0
 12
0.0
 22
0.0
 32
0.0
 42
0.0
 43
0.0
 44
0.0
 50
0.0
 71
     0
  0
ENDTAB
  0
TABLE
  2
UCS
 70
     0
  0
ENDTAB
  0
TABLE
  2
APPID
 70
     3
  0
APPID
  2
ACAD
 70
     0
  0
APPID
  2
ACAD_MLEADERVER
 70
     0
  0
APPID
  2
ACAD_NAV_VCDISPLAY
 70
     0
  0
ENDTAB
  0
TABLE
  2
DIMSTYLE
 70
     1
  0
DIMSTYLE
  2
STANDARD
 70
     0
  3

  4

  5

  6

  7

 40
1.0
 41
0.18
 42
0.0625
 43
0.38
 44
0.18
 45
0.0
 46
0.0
 47
0.0
 48
0.0
140
0.18
141
0.09
142
0.0
143
25.399999999999999
144
1.0
145
0.0
146
1.0
147
0.09
 71
     0
 72
     0
 73
     1
 74
     1
 75
     0
 76
     0
 77
     0
 78
     0
170
     0
171
     2
172
     0
173
     0
174
     0
175
     0
176
     0
177
     0
178
     0
  0
ENDTAB
  0
ENDSEC
  0
SECTION
  2
BLOCKS
  0
BLOCK
  8
0
  2
$MODEL_SPACE
 70
     0
 10
0.0
 20
0.0
 30
0.0
  3
$MODEL_SPACE
  1

  0
ENDBLK
  5
116
  8
0
  0
BLOCK
 67
     1
  8
0
  2
$PAPER_SPACE
 70
     0
 10
0.0
 20
0.0
 30
0.0
  3
$PAPER_SPACE
  1

  0
ENDBLK
  5
114
 67
     1
  8
0
  0
BLOCK
  8
0
  2
*X0
 70
     1
 10
0.0
 20
0.0
 30
0.0
  3
*X0
  1

  0
LINE
  5
2D
  8
0
 62
     0
 10
131.0
 20
134.0
 30
0.0
 11
141.99999999999989
 21
134.0
 31
0.0
  0
LINE
  5
2E
  8
0
 62
     0
 10
131.0
 20
135.0
 30
0.0
 11
141.99999999999989
 21
135.0
 31
0.0
  0
LINE
  5
2F
  8
0
 62
     0
 10
131.0
 20
136.0
 30
0.0
 11
141.99999999999989
 21
136.0
 31
0.0
  0
LINE
  5
30
  8
0
 62
     0
 10
131.0
 20
137.0
 30
0.0
 11
141.99999999999989
 21
137.0
 31
0.0
  0
LINE
  5
31
  8
0
 62
     0
 10
131.0
 20
138.0
 30
0.0
 11
141.99999999999989
 21
138.0
 31
0.0
  0
LINE
  5
32
  8
0
 62
     0
 10
131.0
 20
139.0
 30
0.0
 11
141.99999999999989
 21
139.0
 31
0.0
  0
LINE
  5
33
  8
0
 62
     0
 10
131.0
 20
140.0
 30
0.0
 11
141.99999999999989
 21
140.0
 31
0.0
  0
LINE
  5
34
  8
0
 62
     0
 10
131.0
 20
141.0
 30
0.0
 11
141.99999999999989
 21
141.0
 31
0.0
  0
LINE
  5
35
  8
0
 62
     0
 10
131.0
 20
142.0
 30
0.0
 11
141.99999999999989
 21
142.0
 31
0.0
  0
LINE
  5
36
  8
0
 62
     0
 10
131.0
 20
143.0
 30
0.0
 11
141.99999999999989
 21
143.0
 31
0.0
  0
LINE
  5
37
  8
0
 62
     0
 10
131.0
 20
144.0
 30
0.0
 11
141.99999999999989
 21
144.0
 31
0.0
  0
LINE
  5
38
  8
0
 62
     0
 10
131.0
 20
145.0
 30
0.0
 11
141.99999999999989
 21
145.0
 31
0.0
  0
LINE
  5
39
  8
0
 62
     0
 10
131.0
 20
146.0
 30
0.0
 11
141.99999999999989
 21
146.0
 31
0.0
  0
LINE
  5
3A
  8
0
 62
     0
 10
131.0
 20
147.0
 30
0.0
 11
141.99999999999989
 21
147.0
 31
0.0
  0
LINE
  5
3B
  8
0
 62
     0
 10
131.0
 20
148.0
 30
0.0
 11
141.99999999999989
 21
148.0
 31
0.0
  0
LINE
  5
3C
  8
0
 62
     0
 10
131.0
 20
149.0
 30
0.0
 11
141.99999999999989
 21
149.0
 31
0.0
  0
LINE
  5
3D
  8
0
 62
     0
 10
131.0
 20
150.0
 30
0.0
 11
141.99999999999989
 21
150.0
 31
0.0
  0
LINE
  5
3E
  8
0
 62
     0
 10
131.0
 20
151.0
 30
0.0
 11
141.99999999999989
 21
151.0
 31
0.0
  0
LINE
  5
3F
  8
0
 62
     0
 10
131.0
 20
152.0
 30
0.0
 11
141.99999999999989
 21
152.0
 31
0.0
  0
LINE
  5
40
  8
0
 62
     0
 10
131.0
 20
153.0
 30
0.0
 11
141.99999999999989
 21
153.0
 31
0.0
  0
LINE
  5
41
  8
0
 62
     0
 10
131.0
 20
154.0
 30
0.0
 11
141.99999999999989
 21
154.0
 31
0.0
  0
LINE
  5
42
  8
0
 62
     0
 10
131.0
 20
155.0
 30
0.0
 11
142.0
 21
155.0
 31
0.0
  0
LINE
  5
43
  8
0
 62
     0
 10
131.0
 20
156.0
 30
0.0
 11
142.0
 21
156.0
 31
0.0
  0
LINE
  5
44
  8
0
 62
     0
 10
131.0
 20
157.0
 30
0.0
 11
142.0
 21
157.0
 31
0.0
  0
LINE
  5
45
  8
0
 62
     0
 10
131.0
 20
158.0
 30
0.0
 11
142.0
 21
158.0
 31
0.0
  0
LINE
  5
46
  8
0
 62
     0
 10
131.0
 20
159.0
 30
0.0
 11
142.0
 21
159.0
 31
0.0
  0
LINE
  5
47
  8
0
 62
     0
 10
131.0
 20
133.0
 30
0.0
 11
141.99999999999989
 21
133.0
 31
0.0
  0
LINE
  5
48
  8
0
 62
     0
 10
131.0
 20
132.0
 30
0.0
 11
141.99999999999989
 21
132.0
 31
0.0
  0
LINE
  5
49
  8
0
 62
     0
 10
131.0
 20
131.0
 30
0.0
 11
141.99999999999989
 21
131.0
 31
0.0
  0
LINE
  5
4A
  8
0
 62
     0
 10
131.0
 20
130.0
 30
0.0
 11
141.99999999999989
 21
130.0
 31
0.0
  0
LINE
  5
4B
  8
0
 62
     0
 10
131.0
 20
129.0
 30
0.0
 11
141.99999999999989
 21
129.0
 31
0.0
  0
LINE
  5
4C
  8
0
 62
     0
 10
131.0
 20
128.0
 30
0.0
 11
141.99999999999989
 21
128.0
 31
0.0
  0
LINE
  5
4D
  8
0
 62
     0
 10
131.0
 20
127.0
 30
0.0
 11
141.99999999999989
 21
127.0
 31
0.0
  0
LINE
  5
4E
  8
0
 62
     0
 10
131.0
 20
126.0
 30
0.0
 11
141.99999999999989
 21
126.0
 31
0.0
  0
LINE
  5
4F
  8
0
 62
     0
 10
131.0
 20
125.0
 30
0.0
 11
141.99999999999989
 21
125.0
 31
0.0
  0
LINE
  5
50
  8
0
 62
     0
 10
131.0
 20
124.0
 30
0.0
 11
141.99999999999989
 21
124.0
 31
0.0
  0
LINE
  5
51
  8
0
 62
     0
 10
131.0
 20
123.0
 30
0.0
 11
141.99999999999989
 21
123.0
 31
0.0
  0
LINE
  5
52
  8
0
 62
     0
 10
131.0
 20
122.0
 30
0.0
 11
141.99999999999989
 21
122.0
 31
0.0
  0
LINE
  5
53
  8
0
 62
     0
 10
131.0
 20
121.0
 30
0.0
 11
141.99999999999989
 21
121.0
 31
0.0
  0
LINE
  5
54
  8
0
 62
     0
 10
131.0
 20
120.0
 30
0.0
 11
141.99999999999989
 21
120.0
 31
0.0
  0
LINE
  5
55
  8
0
 62
     0
 10
131.0
 20
119.0
 30
0.0
 11
141.99999999999989
 21
119.0
 31
0.0
  0
LINE
  5
56
  8
0
 62
     0
 10
131.0
 20
118.0
 30
0.0
 11
141.99999999999989
 21
118.0
 31
0.0
  0
LINE
  5
57
  8
0
 62
     0
 10
131.0
 20
117.0
 30
0.0
 11
141.99999999999989
 21
117.0
 31
0.0
  0
LINE
  5
58
  8
0
 62
     0
 10
131.0
 20
116.0
 30
0.0
 11
141.99999999999989
 21
116.0
 31
0.0
  0
LINE
  5
59
  8
0
 62
     0
 10
131.0
 20
115.0
 30
0.0
 11
141.99999999999989
 21
115.0
 31
0.0
  0
LINE
  5
5A
  8
0
 62
     0
 10
131.0
 20
114.0
 30
0.0
 11
141.99999999999989
 21
114.0
 31
0.0
  0
LINE
  5
5B
  8
0
 62
     0
 10
131.0
 20
113.0
 30
0.0
 11
141.99999999999989
 21
113.0
 31
0.0
  0
LINE
  5
5C
  8
0
 62
     0
 10
131.0
 20
112.0
 30
0.0
 11
141.99999999999989
 21
112.0
 31
0.0
  0
LINE
  5
5D
  8
0
 62
     0
 10
131.0
 20
111.0
 30
0.0
 11
141.99999999999989
 21
111.0
 31
0.0
  0
LINE
  5
5E
  8
0
 62
     0
 10
131.0
 20
110.0
 30
0.0
 11
141.99999999999989
 21
110.0
 31
0.0
  0
ENDBLK
  5
5F
  8
0
  0
ENDSEC
  0
SECTION
  2
ENTITIES
  0
LINE
  5
6B
  8
2
 10
176.99999999999989
 20
130.5
 30
0.0
 11
176.99999999999989
 21
134.99999999999989
 31
0.0
  0
LINE
  5
6C
  8
2
 10
176.99999999999989
 20
130.5
 30
0.0
 11
179.99999999999989
 21
130.5
 31
0.0
  0
LINE
  5
6D
  8
1
 10
165.0000000000002
 20
135.0
 30
0.0
 11
202.9999999999996
 21
134.99999999999989
 31
0.0
  0
LINE
  5
6E
  8
0
 10
170.0
 20
158.99999999999989
 30
0.0
 11
170.0
 21
111.0
 31
0.0
  0
LINE
  5
6F
  8
0
 10
171.0
 20
110.0
 30
0.0
 11
182.0
 21
109.9999999999999
 31
0.0
  0
LINE
  5
70
  8
0
 10
171.0
 20
159.99999999999989
 30
0.0
 11
182.0
 21
159.99999999999989
 31
0.0
  0
LINE
  5
71
  8
0
 10
183.0
 20
158.99999999999989
 30
0.0
 11
183.0
 21
120.9999999999999
 31
0.0
  0
LINE
  5
72
  8
0
 10
198.0
 20
143.99999999999989
 30
0.0
 11
198.0
 21
126.0
 31
0.0
  0
LINE
  5
73
  8
0
 10
185.99999999999989
 20
123.9999999999999
 30
0.0
 11
196.0
 21
124.0
 31
0.0
  0
LINE
  5
74
  8
0
 10
185.99999999999989
 20
145.99999999999989
 30
0.0
 11
195.99999999999989
 21
145.99999999999989
 31
0.0
  0
LINE
  5
75
  8
0
 10
171.0
 20
159.99999999999989
 30
0.0
 11
170.99999999999989
 21
110.0
 31
0.0
  0
LINE
  5
76
  8
0
 10
182.0
 20
159.99999999999989
 30
0.0
 11
181.99999999999989
 21
109.9999999999999
 31
0.0
  0
LINE
  5
77
  8
0
 10
183.0
 20
120.9999999999999
 30
0.0
 11
183.0
 21
110.9999999999999
 31
0.0
  0
ARC
  5
78
  8
0
 10
171.0
 20
111.0
 30
0.0
 40
1.0
 50
180.0
 51
269.99999999999977
  0
ARC
  5
79
  8
0
 10
182.0
 20
110.9999999999999
 30
0.0
 40
1.0
 50
269.99999999999977
 51
0.0
  0
ARC
  5
7A
  8
0
 10
182.0
 20
158.99999999999989
 30
0.0
 40
1.0
 50
359.99999999999989
 51
90.000000000000185
  0
ARC
  5
7B
  8
0
 10
171.0
 20
158.99999999999989
 30
0.0
 40
1.0
 50
90.0
 51
179.99999999999989
  0
ARC
  5
7C
  8
0
 10
185.99999999999989
 20
120.9999999999999
 30
0.0
 40
3.0
 50
90.000000000000114
 51
179.99999999999989
  0
ARC
  5
7D
  8
0
 10
185.99999999999989
 20
148.99999999999989
 30
0.0
 40
3.0
 50
179.99999999999989
 51
269.99999999999989
  0
ARC
  5
7E
  8
0
 10
195.99999999999989
 20
143.99999999999989
 30
0.0
 40
2.0
 50
0.0000000000001018
 51
90.0
  0
ARC
  5
7F
  8
0
 10
196.0
 20
126.0
 30
0.0
 40
2.0
 50
270.00000000000011
 51
0.0000000000000763
  0
LINE
  5
80
  8
2
 10
196.99999999999989
 20
134.99999999999989
 30
0.0
 11
196.99999999999989
 21
130.0
 31
0.0
  0
LINE
  5
81
  8
2
 10
179.99999999999989
 20
130.0
 30
0.0
 11
196.99999999999989
 21
130.0
 31
0.0
  0
LINE
  5
82
  8
2
 10
179.99999999999989
 20
134.99999999999989
 30
0.0
 11
179.99999999999989
 21
130.0
 31
0.0
  0
LINE
  5
83
  8
2
 10
196.99999999999989
 20
130.0
 30
0.0
 11
198.0
 21
129.00000000000011
 31
0.0
  0
LINE
  5
84
  8
2
 10
176.99999999999989
 20
130.5
 30
0.0
 11
174.40192378864651
 21
135.0
 31
0.0
  0
LINE
  5
85
  8
2
 10
176.99999999999989
 20
139.49999999999989
 30
0.0
 11
174.40192378864651
 21
134.99999999999989
 31
0.0
  0
LINE
  5
86
  8
2
 10
196.99999999999989
 20
139.9999999999998
 30
0.0
 11
198.0
 21
140.99999999999969
 31
0.0
  0
LINE
  5
87
  8
2
 10
179.99999999999989
 20
134.99999999999989
 30
0.0
 11
179.99999999999989
 21
139.99999999999989
 31
0.0
  0
LINE
  5
88
  8
2
 10
179.99999999999989
 20
139.99999999999989
 30
0.0
 11
196.99999999999989
 21
139.9999999999998
 31
0.0
  0
LINE
  5
89
  8
2
 10
196.99999999999989
 20
134.99999999999989
 30
0.0
 11
196.99999999999989
 21
139.99999999999989
 31
0.0
  0
LINE
  5
8A
  8
2
 10
176.99999999999989
 20
139.49999999999989
 30
0.0
 11
179.99999999999989
 21
139.49999999999989
 31
0.0
  0
LINE
  5
8B
  8
2
 10
176.99999999999989
 20
139.49999999999989
 30
0.0
 11
176.99999999999989
 21
134.99999999999989
 31
0.0
  0
INSERT
  5
8C
  8
3
  2
*X0
 10
40.0
 20
0.0
 30
0.0
  0
INSERT
  5
8D
  8
3
  2
*X0
 10
40.0
 20
80.0
 30
0.0
  0
LINE
  5
8E
  8
2
 10
176.99999999999989
 20
219.49999999999989
 30
0.0
 11
176.99999999999989
 21
214.99999999999989
 31
0.0
  0
LINE
  5
8F
  8
2
 10
176.99999999999989
 20
219.49999999999989
 30
0.0
 11
179.99999999999989
 21
219.49999999999989
 31
0.0
  0
LINE
  5
90
  8
2
 10
196.99999999999989
 20
214.99999999999989
 30
0.0
 11
196.99999999999989
 21
219.99999999999989
 31
0.0
  0
LINE
  5
91
  8
2
 10
179.99999999999989
 20
219.99999999999989
 30
0.0
 11
196.99999999999989
 21
219.9999999999998
 31
0.0
  0
LINE
  5
92
  8
2
 10
179.99999999999989
 20
214.99999999999989
 30
0.0
 11
179.99999999999989
 21
219.99999999999989
 31
0.0
  0
LINE
  5
93
  8
2
 10
196.99999999999989
 20
219.9999999999998
 30
0.0
 11
198.0
 21
220.9999999999998
 31
0.0
  0
LINE
  5
94
  8
2
 10
176.99999999999989
 20
219.49999999999989
 30
0.0
 11
174.40192378864651
 21
214.99999999999989
 31
0.0
  0
LINE
  5
95
  8
2
 10
176.99999999999989
 20
210.5
 30
0.0
 11
174.40192378864651
 21
215.0
 31
0.0
  0
LINE
  5
96
  8
2
 10
196.99999999999989
 20
210.0
 30
0.0
 11
198.0
 21
209.00000000000011
 31
0.0
  0
LINE
  5
97
  8
2
 10
179.99999999999989
 20
214.99999999999989
 30
0.0
 11
179.99999999999989
 21
210.0
 31
0.0
  0
LINE
  5
98
  8
2
 10
179.99999999999989
 20
210.0
 30
0.0
 11
196.99999999999989
 21
210.0
 31
0.0
  0
LINE
  5
99
  8
2
 10
196.99999999999989
 20
214.99999999999989
 30
0.0
 11
196.99999999999989
 21
210.0
 31
0.0
  0
ARC
  5
9A
  8
0
 10
196.0
 20
206.0
 30
0.0
 40
2.0
 50
270.00000000000011
 51
0.0000000000000763
  0
ARC
  5
9B
  8
0
 10
195.99999999999989
 20
223.99999999999989
 30
0.0
 40
2.0
 50
0.0000000000001018
 51
90.0
  0
ARC
  5
9C
  8
0
 10
185.99999999999989
 20
229.0
 30
0.0
 40
3.0
 50
179.99999999999989
 51
269.99999999999989
  0
ARC
  5
9D
  8
0
 10
185.99999999999989
 20
200.99999999999989
 30
0.0
 40
3.0
 50
90.000000000000114
 51
179.99999999999989
  0
ARC
  5
9E
  8
0
 10
171.0
 20
238.99999999999989
 30
0.0
 40
1.0
 50
90.0
 51
179.99999999999989
  0
ARC
  5
9F
  8
0
 10
182.0
 20
238.99999999999989
 30
0.0
 40
1.0
 50
359.99999999999989
 51
90.000000000000185
  0
ARC
  5
A0
  8
0
 10
182.0
 20
190.99999999999989
 30
0.0
 40
1.0
 50
269.99999999999977
 51
0.0
  0
ARC
  5
A1
  8
0
 10
171.0
 20
191.0
 30
0.0
 40
1.0
 50
180.0
 51
269.99999999999977
  0
LINE
  5
A2
  8
0
 10
183.0
 20
200.99999999999989
 30
0.0
 11
183.0
 21
190.99999999999989
 31
0.0
  0
LINE
  5
A3
  8
0
 10
182.0
 20
239.99999999999989
 30
0.0
 11
181.99999999999989
 21
189.99999999999989
 31
0.0
  0
LINE
  5
A4
  8
0
 10
171.0
 20
239.99999999999989
 30
0.0
 11
170.99999999999989
 21
190.0
 31
0.0
  0
LINE
  5
A5
  8
0
 10
185.99999999999989
 20
225.99999999999989
 30
0.0
 11
195.99999999999989
 21
225.99999999999989
 31
0.0
  0
LINE
  5
A6
  8
0
 10
185.99999999999989
 20
204.0
 30
0.0
 11
196.0
 21
204.0
 31
0.0
  0
LINE
  5
A7
  8
0
 10
198.0
 20
223.99999999999989
 30
0.0
 11
198.0
 21
206.0
 31
0.0
  0
LINE
  5
A8
  8
0
 10
183.0
 20
238.99999999999989
 30
0.0
 11
183.0
 21
200.99999999999989
 31
0.0
  0
LINE
  5
A9
  8
0
 10
171.0
 20
239.99999999999989
 30
0.0
 11
182.0
 21
239.99999999999989
 31
0.0
  0
LINE
  5
AA
  8
0
 10
171.0
 20
190.0
 30
0.0
 11
182.0
 21
189.99999999999989
 31
0.0
  0
LINE
  5
AB
  8
0
 10
170.0
 20
238.99999999999989
 30
0.0
 11
170.0
 21
191.0
 31
0.0
  0
LINE
  5
AC
  8
1
 10
165.0000000000002
 20
215.0
 30
0.0
 11
202.9999999999996
 21
214.99999999999989
 31
0.0
  0
LINE
  5
AD
  8
2
 10
176.99999999999989
 20
210.5
 30
0.0
 11
179.99999999999989
 21
210.5
 31
0.0
  0
LINE
  5
AE
  8
2
 10
176.99999999999989
 20
210.5
 30
0.0
 11
176.99999999999989
 21
214.99999999999989
 31
0.0
  0
INSERT
  5
AF
  8
3
  2
*X0
 10
40.0
 20
-80.0
 30
0.0
  0
LINE
  5
B0
  8
2
 10
176.99999999999989
 20
59.499999999999879
 30
0.0
 11
176.99999999999989
 21
54.999999999999943
 31
0.0
  0
LINE
  5
B1
  8
2
 10
176.99999999999989
 20
59.499999999999879
 30
0.0
 11
179.99999999999989
 21
59.499999999999879
 31
0.0
  0
LINE
  5
B2
  8
2
 10
196.99999999999989
 20
54.999999999999943
 30
0.0
 11
196.99999999999989
 21
59.999999999999893
 31
0.0
  0
LINE
  5
B3
  8
2
 10
179.99999999999989
 20
59.999999999999893
 30
0.0
 11
196.99999999999989
 21
59.999999999999829
 31
0.0
  0
LINE
  5
B4
  8
2
 10
179.99999999999989
 20
54.999999999999943
 30
0.0
 11
179.99999999999989
 21
59.999999999999893
 31
0.0
  0
LINE
  5
B5
  8
2
 10
196.99999999999989
 20
59.999999999999829
 30
0.0
 11
198.0
 21
60.999999999999773
 31
0.0
  0
LINE
  5
B6
  8
2
 10
176.99999999999989
 20
59.499999999999879
 30
0.0
 11
174.40192378864651
 21
54.999999999999893
 31
0.0
  0
LINE
  5
B7
  8
2
 10
176.99999999999989
 20
50.5
 30
0.0
 11
174.40192378864651
 21
55.0
 31
0.0
  0
LINE
  5
B8
  8
2
 10
196.99999999999989
 20
50.000000000000057
 30
0.0
 11
198.0
 21
49.000000000000107
 31
0.0
  0
LINE
  5
B9
  8
2
 10
179.99999999999989
 20
54.999999999999943
 30
0.0
 11
179.99999999999989
 21
50.0
 31
0.0
  0
LINE
  5
BA
  8
2
 10
179.99999999999989
 20
50.0
 30
0.0
 11
196.99999999999989
 21
50.000000000000057
 31
0.0
  0
LINE
  5
BB
  8
2
 10
196.99999999999989
 20
54.999999999999943
 30
0.0
 11
196.99999999999989
 21
50.0
 31
0.0
  0
ARC
  5
BC
  8
0
 10
196.0
 20
46.0
 30
0.0
 40
2.0
 50
270.00000000000011
 51
0.0000000000000763
  0
ARC
  5
BD
  8
0
 10
195.99999999999989
 20
63.99999999999995
 30
0.0
 40
2.0
 50
0.0000000000001018
 51
90.0
  0
ARC
  5
BE
  8
0
 10
185.99999999999989
 20
68.999999999999943
 30
0.0
 40
3.0
 50
179.99999999999989
 51
269.99999999999989
  0
ARC
  5
BF
  8
0
 10
185.99999999999989
 20
40.999999999999943
 30
0.0
 40
3.0
 50
90.000000000000114
 51
179.99999999999989
  0
ARC
  5
C0
  8
0
 10
171.0
 20
78.999999999999886
 30
0.0
 40
1.0
 50
90.0
 51
179.99999999999989
  0
ARC
  5
C1
  8
0
 10
182.0
 20
78.999999999999886
 30
0.0
 40
1.0
 50
359.99999999999989
 51
90.000000000000185
  0
ARC
  5
C2
  8
0
 10
182.0
 20
30.99999999999994
 30
0.0
 40
1.0
 50
269.99999999999977
 51
0.0
  0
ARC
  5
C3
  8
0
 10
171.0
 20
31.0
 30
0.0
 40
1.0
 50
180.0
 51
269.99999999999977
  0
LINE
  5
C4
  8
0
 10
183.0
 20
40.999999999999943
 30
0.0
 11
183.0
 21
30.99999999999994
 31
0.0
  0
LINE
  5
C5
  8
0
 10
182.0
 20
79.999999999999943
 30
0.0
 11
181.99999999999989
 21
29.99999999999995
 31
0.0
  0
LINE
  5
C6
  8
0
 10
171.0
 20
79.999999999999943
 30
0.0
 11
170.99999999999989
 21
30.0
 31
0.0
  0
LINE
  5
C7
  8
0
 10
185.99999999999989
 20
65.999999999999943
 30
0.0
 11
195.99999999999989
 21
65.999999999999943
 31
0.0
  0
LINE
  5
C8
  8
0
 10
185.99999999999989
 20
43.999999999999943
 30
0.0
 11
196.0
 21
44.0
 31
0.0
  0
LINE
  5
C9
  8
0
 10
198.0
 20
63.99999999999995
 30
0.0
 11
198.0
 21
46.0
 31
0.0
  0
LINE
  5
CA
  8
0
 10
183.0
 20
78.999999999999886
 30
0.0
 11
183.0
 21
40.999999999999943
 31
0.0
  0
LINE
  5
CB
  8
0
 10
171.0
 20
79.999999999999886
 30
0.0
 11
182.0
 21
79.999999999999886
 31
0.0
  0
LINE
  5
CC
  8
0
 10
171.0
 20
30.0
 30
0.0
 11
182.0
 21
29.99999999999995
 31
0.0
  0
LINE
  5
CD
  8
0
 10
170.0
 20
78.999999999999886
 30
0.0
 11
170.0
 21
31.0
 31
0.0
  0
LINE
  5
CE
  8
1
 10
165.0000000000002
 20
55.0
 30
0.0
 11
202.9999999999996
 21
54.999999999999943
 31
0.0
  0
LINE
  5
CF
  8
2
 10
176.99999999999989
 20
50.5
 30
0.0
 11
179.99999999999989
 21
50.5
 31
0.0
  0
LINE
  5
D0
  8
2
 10
176.99999999999989
 20
50.5
 30
0.0
 11
176.99999999999989
 21
54.999999999999943
 31
0.0
  0
CIRCLE
  5
D1
  8
0
 10
293.13119615178061
 20
134.99999999999989
 30
0.0
 40
25.0
  0
CIRCLE
  5
D2
  8
0
 10
78.492956164337187
 20
135.0
 30
0.0
 40
25.0
  0
LINE
  5
D3
  8
1
 10
108.4929561643372
 20
135.0
 30
0.0
 11
48.49295616433718
 21
135.0
 31
0.0
  0
LINE
  5
D4
  8
1
 10
78.492956164337187
 20
165.0
 30
0.0
 11
78.492956164337187
 21
105.0
 31
0.0
  0
LINE
  5
D5
  8
1
 10
323.13119615178061
 20
134.99999999999989
 30
0.0
 11
263.13119615178061
 21
134.99999999999989
 31
0.0
  0
LINE
  5
D6
  8
1
 10
293.13119615178061
 20
164.99999999999989
 30
0.0
 11
293.13119615178061
 21
104.9999999999999
 31
0.0
  0
CIRCLE
  5
D7
  8
0
 10
293.13119615178061
 20
134.99999999999989
 30
0.0
 40
4.999999999999857
  0
CIRCLE
  5
D8
  8
0
 10
293.13119615178061
 20
134.99999999999989
 30
0.0
 40
10.99999999999997
  0
TEXT
  5
241
  8
0
 62
     3
 10
0.0
 20
0.0
 30
0.0
 40
10.0
  1
AH50R
  7
STANDARD1
  0
ENDSEC
  0
EOF
