  0
SECTION
  2
HEADER
  9
$ACADVER
  1
AC1009
  9
$INSBASE
 10
0.0
 20
0.0
 30
0.0
  9
$EXTMIN
 10
-0.0204638472032742
 20
-2.960436562073669
 30
0.0
  9
$EXTMAX
 10
212.6395708909524
 20
127.1522852241859
 30
0.0
  9
$LIMMIN
 10
0.0
 20
0.0
  9
$LIMMAX
 10
375.0
 20
270.0
  9
$ORTHOMODE
 70
     0
  9
$REGENMODE
 70
     1
  9
$FILLMODE
 70
     1
  9
$QTEXTMODE
 70
     0
  9
$MIRRTEXT
 70
     0
  9
$DRAGMODE
 70
     2
  9
$LTSCALE
 40
10.0
  9
$OSMODE
 70
  3071
  9
$ATTMODE
 70
     1
  9
$TEXTSIZE
 40
2.0
  9
$TRACEWID
 40
0.05
  9
$TEXTSTYLE
  7
STANDARD
  9
$CLAYER
  8
0
  9
$CELTYPE
  6
BYLAYER
  9
$CECOLOR
 62
   256
  9
$DIMSCALE
 40
1.0
  9
$DIMASZ
 40
2.5
  9
$DIMEXO
 40
2.0
  9
$DIMDLI
 40
0.38
  9
$DIMRND
 40
0.0
  9
$DIMDLE
 40
0.0
  9
$DIMEXE
 40
2.0
  9
$DIMTP
 40
0.0
  9
$DIMTM
 40
0.0
  9
$DIMTXT
 40
3.0
  9
$DIMCEN
 40
0.09
  9
$DIMTSZ
 40
0.0
  9
$DIMTOL
 70
     0
  9
$DIMLIM
 70
     0
  9
$DIMTIH
 70
     0
  9
$DIMTOH
 70
     0
  9
$DIMSE1
 70
     0
  9
$DIMSE2
 70
     0
  9
$DIMTAD
 70
     1
  9
$DIMZIN
 70
     0
  9
$DIMBLK
  1

  9
$DIMASO
 70
     1
  9
$DIMSHO
 70
     0
  9
$DIMPOST
  1

  9
$DIMAPOST
  1

  9
$DIMALT
 70
     0
  9
$DIMALTD
 70
     2
  9
$DIMALTF
 40
25.399999999999999
  9
$DIMLFAC
 40
1.0
  9
$DIMTOFL
 70
     0
  9
$DIMTVP
 40
1.6000000000000001
  9
$DIMTIX
 70
     1
  9
$DIMSOXD
 70
     0
  9
$DIMSAH
 70
     0
  9
$DIMBLK1
  1

  9
$DIMBLK2
  1

  9
$DIMSTYLE
  2
STANDARD
  9
$DIMCLRD
 70
     0
  9
$DIMCLRE
 70
     0
  9
$DIMCLRT
 70
     0
  9
$DIMTFAC
 40
1.0
  9
$DIMGAP
 40
0.09
  9
$LUNITS
 70
     2
  9
$LUPREC
 70
     4
  9
$SKETCHINC
 40
0.1
  9
$FILLETRAD
 40
2.5
  9
$AUNITS
 70
     0
  9
$AUPREC
 70
     0
  9
$MENU
  1
E:\r13\win\SUPPORT\ACAD
  9
$ELEVATION
 40
0.0
  9
$PELEVATION
 40
0.0
  9
$THICKNESS
 40
0.0
  9
$LIMCHECK
 70
     0
  9
$BLIPMODE
 70
     0
  9
$CHAMFERA
 40
0.0
  9
$CHAMFERB
 40
0.0
  9
$SKPOLY
 70
     0
  9
$TDCREATE
 40
2448650.5678784722
  9
$TDUPDATE
 40
2456597.5470863539
  9
$TDINDWG
 40
0.0192544329
  9
$TDUSRTIMER
 40
0.0192544329
  9
$USRTIMER
 70
     1
  9
$ANGBASE
 50
0.0
  9
$ANGDIR
 70
     0
  9
$PDMODE
 70
     0
  9
$PDSIZE
 40
0.0
  9
$PLINEWID
 40
0.0
  9
$COORDS
 70
     1
  9
$SPLFRAME
 70
     0
  9
$SPLINETYPE
 70
     6
  9
$SPLINESEGS
 70
     8
  9
$ATTDIA
 70
     0
  9
$ATTREQ
 70
     1
  9
$HANDLING
 70
     1
  9
$HANDSEED
  5
752
  9
$SURFTAB1
 70
     6
  9
$SURFTAB2
 70
     6
  9
$SURFTYPE
 70
     6
  9
$SURFU
 70
     6
  9
$SURFV
 70
     6
  9
$UCSNAME
  2

  9
$UCSORG
 10
0.0
 20
0.0
 30
0.0
  9
$UCSXDIR
 10
1.0
 20
0.0
 30
0.0
  9
$UCSYDIR
 10
0.0
 20
1.0
 30
0.0
  9
$PUCSNAME
  2

  9
$PUCSORG
 10
0.0
 20
0.0
 30
0.0
  9
$PUCSXDIR
 10
1.0
 20
0.0
 30
0.0
  9
$PUCSYDIR
 10
0.0
 20
1.0
 30
0.0
  9
$USERI1
 70
     0
  9
$USERI2
 70
     1
  9
$USERI3
 70
     1
  9
$USERI4
 70
     0
  9
$USERI5
 70
     0
  9
$USERR1
 40
0.0
  9
$USERR2
 40
0.0
  9
$USERR3
 40
0.0
  9
$USERR4
 40
0.0
  9
$USERR5
 40
0.0
  9
$WORLDVIEW
 70
     1
  9
$SHADEDGE
 70
     3
  9
$SHADEDIF
 70
    70
  9
$TILEMODE
 70
     1
  9
$MAXACTVP
 70
    16
  9
$PLIMCHECK
 70
     0
  9
$PEXTMIN
 10
1.0000000000000000E+020
 20
1.0000000000000000E+020
 30
1.0000000000000000E+020
  9
$PEXTMAX
 10
-1.0000000000000000E+020
 20
-1.0000000000000000E+020
 30
-1.0000000000000000E+020
  9
$PLIMMIN
 10
0.0
 20
0.0
  9
$PLIMMAX
 10
12.0
 20
9.0
  9
$UNITMODE
 70
     0
  9
$VISRETAIN
 70
     0
  9
$PLINEGEN
 70
     1
  9
$PSLTSCALE
 70
     0
  0
ENDSEC
  0
SECTION
  2
TABLES
  0
TABLE
  2
VPORT
 70
     1
  0
VPORT
  2
*ACTIVE
 70
     0
 10
0.0
 20
0.0
 11
1.0
 21
1.0
 12
195.04380321732449
 22
133.5127261426681
 13
0.0
 23
0.0
 14
10.0
 24
10.0
 15
10.0
 25
10.0
 16
0.0
 26
0.0
 36
1.0
 17
0.0
 27
0.0
 37
0.0
 40
275.42274993631997
 41
1.831871345029239
 42
50.0
 43
0.0
 44
0.0
 50
0.0
 51
0.0
 71
     0
 72
   500
 73
     1
 74
     0
 75
     0
 76
     0
 77
     0
 78
     2
  0
ENDTAB
  0
TABLE
  2
LTYPE
 70
     4
  0
LTYPE
  2
CONTINUOUS
 70
     0
  3
Solid Line
 72
    65
 73
     0
 40
0.0
  0
LTYPE
  2
CENTER
 70
     0
  3
____ _ ____ _ ____ _ ____ _ ____ _ ____ _ ____
 72
    65
 73
     4
 40
2.0
 49
1.25
 49
-0.25
 49
0.25
 49
-0.25
  0
LTYPE
  2
HIDDEN
 70
     0
  3
_ _ _ _ _ _ _ _ _ _ _ _ _ _ _ _ _ _ _ _ _ _ _
 72
    65
 73
     2
 40
0.375
 49
0.25
 49
-0.125
  0
LTYPE
  2
PHANTOM2
 70
     0
  3
___ _ _ ___ _ _ ___ _ _ ___ _ _
 72
    65
 73
     6
 40
1.25
 49
0.625
 49
-0.125
 49
0.125
 49
-0.125
 49
0.125
 49
-0.125
  0
ENDTAB
  0
TABLE
  2
LAYER
 70
     4
  0
LAYER
  2
0
 70
     0
 62
     7
  6
CONTINUOUS
  0
LAYER
  2
1
 70
     0
 62
     1
  6
CENTER
  0
LAYER
  2
3
 70
     0
 62
     3
  6
CONTINUOUS
  0
LAYER
  2
2
 70
     0
 62
     2
  6
HIDDEN
  0
ENDTAB
  0
TABLE
  2
STYLE
 70
     2
  0
STYLE
  2
STANDARD
 70
     0
 40
0.0
 41
1.0
 50
0.0
 71
     0
 42
2.0
  3
TXT
  4
BIGFONT
  0
STYLE
  2
STANDARD1
 70
     0
 40
0.0
 41
1.0
 50
0.0
 71
     0
 42
3.0
  3
txt
  4

  0
ENDTAB
  0
TABLE
  2
VIEW
 70
     1
  0
VIEW
  2
ALL
 70
     0
 40
270.0
 10
220.99159663865549
 20
135.0
 41
0.0
 11
0.0
 21
0.0
 31
1.0
 12
0.0
 22
0.0
 32
0.0
 42
0.0
 43
0.0
 44
0.0
 50
0.0
 71
     0
  0
ENDTAB
  0
TABLE
  2
UCS
 70
     0
  0
ENDTAB
  0
TABLE
  2
APPID
 70
     3
  0
APPID
  2
ACAD
 70
     0
  0
APPID
  2
ACAD_MLEADERVER
 70
     0
  0
APPID
  2
ACAD_NAV_VCDISPLAY
 70
     0
  0
ENDTAB
  0
TABLE
  2
DIMSTYLE
 70
     1
  0
DIMSTYLE
  2
STANDARD
 70
     0
  3

  4

  5

  6

  7

 40
1.0
 41
0.18
 42
0.0625
 43
0.38
 44
0.18
 45
0.0
 46
0.0
 47
0.0
 48
0.0
140
0.18
141
0.09
142
0.0
143
25.399999999999999
144
1.0
145
0.0
146
1.0
147
0.09
 71
     0
 72
     0
 73
     1
 74
     1
 75
     0
 76
     0
 77
     0
 78
     0
170
     0
171
     2
172
     0
173
     0
174
     0
175
     0
176
     0
177
     0
178
     0
  0
ENDTAB
  0
ENDSEC
  0
SECTION
  2
BLOCKS
  0
BLOCK
  8
0
  2
$MODEL_SPACE
 70
     0
 10
0.0
 20
0.0
 30
0.0
  3
$MODEL_SPACE
  1

  0
ENDBLK
  5
217
  8
0
  0
BLOCK
 67
     1
  8
0
  2
$PAPER_SPACE
 70
     0
 10
0.0
 20
0.0
 30
0.0
  3
$PAPER_SPACE
  1

  0
ENDBLK
  5
215
 67
     1
  8
0
  0
ENDSEC
  0
SECTION
  2
ENTITIES
  0
LINE
  5
595
  8
1
 10
107.6395708909524
 20
102.1522852241859
 30
0.0
 11
142.6395708909524
 21
102.1522852241859
 31
0.0
  0
LINE
  5
596
  8
1
 10
62.639570890952463
 20
77.152285224185903
 30
0.0
 11
62.639570890952463
 21
127.1522852241859
 31
0.0
  0
LINE
  5
597
  8
1
 10
87.639570890952413
 20
102.1522852241859
 30
0.0
 11
37.639570890952463
 21
102.1522852241859
 31
0.0
  0
CIRCLE
  5
598
  8
0
 10
62.639570890952463
 20
102.1522852241859
 30
0.0
 40
20.0
  0
LINE
  5
599
  8
1
 10
187.6395708909524
 20
77.152285224185903
 30
0.0
 11
187.6395708909524
 21
127.1522852241859
 31
0.0
  0
LINE
  5
59A
  8
1
 10
162.6395708909524
 20
102.1522852241859
 30
0.0
 11
212.6395708909524
 21
102.1522852241859
 31
0.0
  0
LINE
  5
59B
  8
2
 10
136.63957089095251
 20
106.152285224186
 30
0.0
 11
122.6395708909524
 21
106.152285224186
 31
0.0
  0
LINE
  5
59C
  8
2
 10
136.63957089095251
 20
98.152285224185775
 30
0.0
 11
122.6395708909524
 21
98.152285224185775
 31
0.0
  0
LINE
  5
59D
  8
0
 10
136.6395708909524
 20
93.152285224185917
 30
0.0
 11
125.6395708909523
 21
93.152285224185917
 31
0.0
  0
LINE
  5
59E
  8
0
 10
136.6395708909524
 20
111.1522852241861
 30
0.0
 11
125.6395708909523
 21
111.1522852241861
 31
0.0
  0
LINE
  5
59F
  8
2
 10
119.6395708909524
 20
98.652285224185903
 30
0.0
 11
117.61884494878871
 21
102.1522852241859
 31
0.0
  0
LINE
  5
5A0
  8
2
 10
119.6395708909524
 20
98.652285224185903
 30
0.0
 11
119.6395708909523
 21
105.6522852241859
 31
0.0
  0
LINE
  5
5A1
  8
2
 10
122.6395708909524
 20
98.152285224185917
 30
0.0
 11
122.6395708909523
 21
106.152285224186
 31
0.0
  0
LINE
  5
5A2
  8
0
 10
113.6395708909524
 20
82.152285224185889
 30
0.0
 11
113.6395708909524
 21
122.1522852241859
 31
0.0
  0
LINE
  5
5A3
  8
0
 10
123.6395708909523
 20
82.152285224185889
 30
0.0
 11
123.6395708909523
 21
122.1522852241859
 31
0.0
  0
LINE
  5
5A4
  8
0
 10
124.6395708909523
 20
83.152285224185917
 30
0.0
 11
124.6395708909523
 21
121.1522852241859
 31
0.0
  0
LINE
  5
5A5
  8
0
 10
112.6395708909524
 20
83.152285224185917
 30
0.0
 11
112.6395708909524
 21
121.1522852241859
 31
0.0
  0
ARC
  5
5A6
  8
0
 10
123.6395708909523
 20
83.152285224185917
 30
0.0
 40
1.0
 50
270.0
 51
0.0
  0
LINE
  5
5A7
  8
3
 10
113.6395708909524
 20
96.346591679096605
 30
0.0
 11
123.6395708909523
 21
96.346591679096605
 31
0.0
  0
LINE
  5
5A8
  8
3
 10
113.6395708909524
 20
98.250478783863286
 30
0.0
 11
123.6395708909523
 21
98.250478783863286
 31
0.0
  0
LINE
  5
5A9
  8
3
 10
113.6395708909524
 20
100.1919424175947
 30
0.0
 11
123.6395708909523
 21
100.1919424175947
 31
0.0
  0
LINE
  5
5AA
  8
3
 10
113.6395708909524
 20
82.248590690741935
 30
0.0
 11
123.6395708909523
 21
82.248590690741935
 31
0.0
  0
LINE
  5
5AB
  8
3
 10
113.6395708909524
 20
82.53657961612123
 30
0.0
 11
123.6395708909523
 21
82.53657961612123
 31
0.0
  0
LINE
  5
5AC
  8
3
 10
113.6395708909524
 20
83.013478509541628
 30
0.0
 11
123.6395708909523
 21
83.013478509541628
 31
0.0
  0
LINE
  5
5AD
  8
3
 10
113.6395708909524
 20
83.67469457396021
 30
0.0
 11
123.6395708909523
 21
83.67469457396021
 31
0.0
  0
LINE
  5
5AE
  8
3
 10
113.6395708909524
 20
84.513859937218854
 30
0.0
 11
123.6395708909523
 21
84.513859937218854
 31
0.0
  0
LINE
  5
5AF
  8
3
 10
113.6395708909524
 20
85.522892978135005
 30
0.0
 11
123.6395708909523
 21
85.522892978135005
 31
0.0
  0
LINE
  5
5B0
  8
3
 10
113.6395708909524
 20
86.692076156931194
 30
0.0
 11
123.6395708909523
 21
86.692076156931194
 31
0.0
  0
LINE
  5
5B1
  8
3
 10
113.6395708909524
 20
88.010149600454952
 30
0.0
 11
123.6395708909523
 21
88.010149600454952
 31
0.0
  0
LINE
  5
5B2
  8
3
 10
113.6395708909524
 20
89.464419540913013
 30
0.0
 11
123.6395708909523
 21
89.464419540913013
 31
0.0
  0
LINE
  5
5B3
  8
3
 10
113.6395708909524
 20
91.040880563793849
 30
0.0
 11
123.6395708909523
 21
91.040880563793849
 31
0.0
  0
LINE
  5
5B4
  8
3
 10
113.6395708909524
 20
92.724350487665902
 30
0.0
 11
123.6395708909523
 21
92.724350487665902
 31
0.0
  0
LINE
  5
5B5
  8
3
 10
113.6395708909524
 20
94.498616576884046
 30
0.0
 11
123.6395708909523
 21
94.49861657688416
 31
0.0
  0
LINE
  5
5B6
  8
2
 10
122.6395708909524
 20
98.652285224185903
 30
0.0
 11
119.6395708909524
 21
98.652285224185903
 31
0.0
  0
ARC
  5
5B7
  8
0
 10
113.6395708909524
 20
83.152285224185917
 30
0.0
 40
1.0
 50
180.0
 51
270.0
  0
LINE
  5
5B8
  8
0
 10
113.6395708909524
 20
82.152285224185889
 30
0.0
 11
123.6395708909523
 21
82.152285224185889
 31
0.0
  0
ARC
  5
5B9
  8
0
 10
125.6395708909523
 20
92.152285224185889
 30
0.0
 40
1.0
 50
90.0
 51
180.0
  0
ARC
  5
5BA
  8
0
 10
123.6395708909523
 20
121.1522852241859
 30
0.0
 40
1.0
 50
0.0
 51
90.0
  0
LINE
  5
5BB
  8
3
 10
113.6395708909524
 20
102.1522852241859
 30
0.0
 11
123.6395708909523
 21
102.1522852241859
 31
0.0
  0
LINE
  5
5BC
  8
2
 10
122.6395708909524
 20
105.6522852241859
 30
0.0
 11
119.6395708909524
 21
105.6522852241859
 31
0.0
  0
LINE
  5
5BD
  8
2
 10
119.6395708909524
 20
105.6522852241859
 30
0.0
 11
117.61884494878871
 21
102.1522852241859
 31
0.0
  0
LINE
  5
5BE
  8
3
 10
113.6395708909524
 20
104.112628030777
 30
0.0
 11
123.6395708909523
 21
104.112628030777
 31
0.0
  0
LINE
  5
5BF
  8
3
 10
113.6395708909524
 20
106.0540916645085
 30
0.0
 11
123.6395708909523
 21
106.0540916645085
 31
0.0
  0
LINE
  5
5C0
  8
3
 10
113.6395708909524
 20
107.9579787692752
 30
0.0
 11
123.6395708909523
 21
107.9579787692752
 31
0.0
  0
LINE
  5
5C1
  8
3
 10
113.6395708909524
 20
109.8059538714877
 30
0.0
 11
123.6395708909523
 21
109.8059538714876
 31
0.0
  0
LINE
  5
5C2
  8
3
 10
113.6395708909524
 20
111.5802199607059
 30
0.0
 11
123.6395708909523
 21
111.5802199607059
 31
0.0
  0
LINE
  5
5C3
  8
3
 10
113.6395708909524
 20
113.2636898845779
 30
0.0
 11
123.6395708909523
 21
113.2636898845779
 31
0.0
  0
LINE
  5
5C4
  8
3
 10
113.6395708909524
 20
114.84015090745881
 30
0.0
 11
123.6395708909523
 21
114.84015090745881
 31
0.0
  0
LINE
  5
5C5
  8
3
 10
113.6395708909524
 20
116.2944208479168
 30
0.0
 11
123.6395708909523
 21
116.2944208479168
 31
0.0
  0
LINE
  5
5C6
  8
3
 10
113.6395708909524
 20
117.6124942914406
 30
0.0
 11
123.6395708909523
 21
117.6124942914406
 31
0.0
  0
LINE
  5
5C7
  8
3
 10
113.6395708909524
 20
118.7816774702368
 30
0.0
 11
123.6395708909523
 21
118.7816774702368
 31
0.0
  0
LINE
  5
5C8
  8
3
 10
113.6395708909524
 20
119.79071051115289
 30
0.0
 11
123.6395708909523
 21
119.79071051115289
 31
0.0
  0
LINE
  5
5C9
  8
3
 10
113.6395708909524
 20
120.6298758744116
 30
0.0
 11
123.6395708909523
 21
120.6298758744116
 31
0.0
  0
LINE
  5
5CA
  8
3
 10
113.6395708909524
 20
121.29109193883011
 30
0.0
 11
123.6395708909523
 21
121.29109193883011
 31
0.0
  0
LINE
  5
5CB
  8
3
 10
113.6395708909524
 20
121.7679908322506
 30
0.0
 11
123.6395708909523
 21
121.7679908322506
 31
0.0
  0
LINE
  5
5CC
  8
3
 10
113.6395708909524
 20
122.0559797576298
 30
0.0
 11
123.6395708909523
 21
122.0559797576298
 31
0.0
  0
ARC
  5
5CD
  8
0
 10
113.6395708909524
 20
121.1522852241859
 30
0.0
 40
1.0
 50
90.0
 51
180.0
  0
LINE
  5
5CE
  8
0
 10
113.6395708909524
 20
122.1522852241859
 30
0.0
 11
123.6395708909523
 21
122.1522852241859
 31
0.0
  0
ARC
  5
5CF
  8
0
 10
125.6395708909523
 20
112.1522852241861
 30
0.0
 40
1.0
 50
180.0
 51
270.0
  0
LINE
  5
5D0
  8
2
 10
136.6395708909522
 20
106.152285224186
 30
0.0
 11
136.6395708909524
 21
98.152285224185917
 31
0.0
  0
LINE
  5
5D1
  8
0
 10
137.6395708909524
 20
94.152285224185903
 30
0.0
 11
137.6395708909524
 21
110.1522852241861
 31
0.0
  0
LINE
  5
5D2
  8
2
 10
136.6395708909524
 20
98.152285224185917
 30
0.0
 11
137.6395708909524
 21
97.152285224185917
 31
0.0
  0
ARC
  5
5D3
  8
0
 10
136.6395708909524
 20
94.152285224185903
 30
0.0
 40
1.0
 50
270.0
 51
0.0
  0
LINE
  5
5D4
  8
2
 10
136.6395708909524
 20
106.1522852241859
 30
0.0
 11
137.6395708909524
 21
107.1522852241859
 31
0.0
  0
ARC
  5
5D5
  8
0
 10
136.6395708909524
 20
110.1522852241861
 30
0.0
 40
1.0
 50
0.0
 51
90.0
  0
CIRCLE
  5
5D6
  8
0
 10
187.6395708909524
 20
102.1522852241859
 30
0.0
 40
4.0000000000001128
  0
CIRCLE
  5
5D7
  8
0
 10
187.6395708909524
 20
102.1522852241859
 30
0.0
 40
20.0
  0
CIRCLE
  5
5D8
  8
0
 10
187.6395708909524
 20
102.1522852241859
 30
0.0
 40
9.0000000000002274
  0
TEXT
  5
6C3
  8
0
 62
     3
 10
0.0
 20
0.0
 30
0.0
 40
10.0
  1
AH40R
  7
STANDARD1
  0
ENDSEC
  0
EOF
