  0
SECTION
  2
HEADER
  9
$ACADVER
  1
AC1009
  9
$INSBASE
 10
0.0
 20
0.0
 30
0.0
  9
$EXTMIN
 10
-0.0204638472032742
 20
-2.960436562073669
 30
0.0
  9
$EXTMAX
 10
333.69999999999999
 20
208.5
 30
0.0
  9
$LIMMIN
 10
0.0
 20
0.0
  9
$LIMMAX
 10
375.0
 20
270.0
  9
$ORTHOMODE
 70
     1
  9
$REGENMODE
 70
     1
  9
$FILLMODE
 70
     1
  9
$QTEXTMODE
 70
     0
  9
$MIRRTEXT
 70
     0
  9
$DRAGMODE
 70
     2
  9
$LTSCALE
 40
10.0
  9
$OSMODE
 70
  3071
  9
$ATTMODE
 70
     1
  9
$TEXTSIZE
 40
0.2
  9
$TRACEWID
 40
0.05
  9
$TEXTSTYLE
  7
STANDARD
  9
$CLAYER
  8
0
  9
$CELTYPE
  6
BYLAYER
  9
$CECOLOR
 62
   256
  9
$DIMSCALE
 40
1.0
  9
$DIMASZ
 40
3.0
  9
$DIMEXO
 40
2.0
  9
$DIMDLI
 40
0.38
  9
$DIMRND
 40
0.0
  9
$DIMDLE
 40
0.0
  9
$DIMEXE
 40
2.0
  9
$DIMTP
 40
0.0
  9
$DIMTM
 40
0.0
  9
$DIMTXT
 40
3.2000000000000002
  9
$DIMCEN
 40
0.09
  9
$DIMTSZ
 40
0.0
  9
$DIMTOL
 70
     0
  9
$DIMLIM
 70
     0
  9
$DIMTIH
 70
     0
  9
$DIMTOH
 70
     0
  9
$DIMSE1
 70
     0
  9
$DIMSE2
 70
     0
  9
$DIMTAD
 70
     1
  9
$DIMZIN
 70
     0
  9
$DIMBLK
  1

  9
$DIMASO
 70
     1
  9
$DIMSHO
 70
     0
  9
$DIMPOST
  1

  9
$DIMAPOST
  1

  9
$DIMALT
 70
     0
  9
$DIMALTD
 70
     2
  9
$DIMALTF
 40
25.399999999999999
  9
$DIMLFAC
 40
1.0
  9
$DIMTOFL
 70
     0
  9
$DIMTVP
 40
1.6000000000000001
  9
$DIMTIX
 70
     1
  9
$DIMSOXD
 70
     0
  9
$DIMSAH
 70
     0
  9
$DIMBLK1
  1

  9
$DIMBLK2
  1

  9
$DIMSTYLE
  2
STANDARD
  9
$DIMCLRD
 70
     0
  9
$DIMCLRE
 70
     0
  9
$DIMCLRT
 70
     0
  9
$DIMTFAC
 40
1.0
  9
$DIMGAP
 40
0.09
  9
$LUNITS
 70
     2
  9
$LUPREC
 70
     4
  9
$SKETCHINC
 40
0.1
  9
$FILLETRAD
 40
2.0
  9
$AUNITS
 70
     0
  9
$AUPREC
 70
     0
  9
$MENU
  1
E:\r13\win\SUPPORT\ACAD
  9
$ELEVATION
 40
0.0
  9
$PELEVATION
 40
0.0
  9
$THICKNESS
 40
0.0
  9
$LIMCHECK
 70
     0
  9
$BLIPMODE
 70
     0
  9
$CHAMFERA
 40
0.0
  9
$CHAMFERB
 40
0.0
  9
$SKPOLY
 70
     0
  9
$TDCREATE
 40
2447977.5416277782
  9
$TDUPDATE
 40
2456597.5017375122
  9
$TDINDWG
 40
0.0005318403
  9
$TDUSRTIMER
 40
0.0005318403
  9
$USRTIMER
 70
     1
  9
$ANGBASE
 50
0.0
  9
$ANGDIR
 70
     0
  9
$PDMODE
 70
     0
  9
$PDSIZE
 40
0.0
  9
$PLINEWID
 40
0.0
  9
$COORDS
 70
     1
  9
$SPLFRAME
 70
     0
  9
$SPLINETYPE
 70
     6
  9
$SPLINESEGS
 70
     8
  9
$ATTDIA
 70
     0
  9
$ATTREQ
 70
     1
  9
$HANDLING
 70
     1
  9
$HANDSEED
  5
357
  9
$SURFTAB1
 70
     6
  9
$SURFTAB2
 70
     6
  9
$SURFTYPE
 70
     6
  9
$SURFU
 70
     6
  9
$SURFV
 70
     6
  9
$UCSNAME
  2

  9
$UCSORG
 10
0.0
 20
0.0
 30
0.0
  9
$UCSXDIR
 10
1.0
 20
0.0
 30
0.0
  9
$UCSYDIR
 10
0.0
 20
1.0
 30
0.0
  9
$PUCSNAME
  2

  9
$PUCSORG
 10
0.0
 20
0.0
 30
0.0
  9
$PUCSXDIR
 10
1.0
 20
0.0
 30
0.0
  9
$PUCSYDIR
 10
0.0
 20
1.0
 30
0.0
  9
$USERI1
 70
     0
  9
$USERI2
 70
     1
  9
$USERI3
 70
     1
  9
$USERI4
 70
     0
  9
$USERI5
 70
     0
  9
$USERR1
 40
0.0
  9
$USERR2
 40
0.0
  9
$USERR3
 40
0.0
  9
$USERR4
 40
0.0
  9
$USERR5
 40
0.0
  9
$WORLDVIEW
 70
     1
  9
$SHADEDGE
 70
     3
  9
$SHADEDIF
 70
    70
  9
$TILEMODE
 70
     1
  9
$MAXACTVP
 70
    16
  9
$PLIMCHECK
 70
     0
  9
$PEXTMIN
 10
1.0000000000000000E+020
 20
1.0000000000000000E+020
 30
1.0000000000000000E+020
  9
$PEXTMAX
 10
-1.0000000000000000E+020
 20
-1.0000000000000000E+020
 30
-1.0000000000000000E+020
  9
$PLIMMIN
 10
0.0
 20
0.0
  9
$PLIMMAX
 10
12.0
 20
9.0
  9
$UNITMODE
 70
     0
  9
$VISRETAIN
 70
     0
  9
$PLINEGEN
 70
     1
  9
$PSLTSCALE
 70
     0
  0
ENDSEC
  0
SECTION
  2
TABLES
  0
TABLE
  2
VPORT
 70
     1
  0
VPORT
  2
*ACTIVE
 70
     0
 10
0.0
 20
0.0
 11
1.0
 21
1.0
 12
195.04380321732449
 22
133.5127261426681
 13
0.0
 23
0.0
 14
10.0
 24
10.0
 15
10.0
 25
10.0
 16
0.0
 26
0.0
 36
1.0
 17
0.0
 27
0.0
 37
0.0
 40
275.42274993631997
 41
1.831871345029239
 42
50.0
 43
0.0
 44
0.0
 50
0.0
 51
0.0
 71
     0
 72
   500
 73
     1
 74
     0
 75
     0
 76
     0
 77
     0
 78
     2
  0
ENDTAB
  0
TABLE
  2
LTYPE
 70
     4
  0
LTYPE
  2
CONTINUOUS
 70
     0
  3
Solid Line
 72
    65
 73
     0
 40
0.0
  0
LTYPE
  2
CENTER
 70
     0
  3
____ _ ____ _ ____ _ ____ _ ____ _ ____ _ ____
 72
    65
 73
     4
 40
2.0
 49
1.25
 49
-0.25
 49
0.25
 49
-0.25
  0
LTYPE
  2
HIDDEN
 70
     0
  3
_ _ _ _ _ _ _ _ _ _ _ _ _ _ _ _ _ _ _ _ _ _ _
 72
    65
 73
     2
 40
0.375
 49
0.25
 49
-0.125
  0
LTYPE
  2
PHANTOM2
 70
     0
  3
___ _ _ ___ _ _ ___ _ _ ___ _ _
 72
    65
 73
     6
 40
1.25
 49
0.625
 49
-0.125
 49
0.125
 49
-0.125
 49
0.125
 49
-0.125
  0
ENDTAB
  0
TABLE
  2
LAYER
 70
     3
  0
LAYER
  2
0
 70
     0
 62
     7
  6
CONTINUOUS
  0
LAYER
  2
1
 70
     0
 62
     1
  6
CENTER
  0
LAYER
  2
2
 70
     0
 62
     2
  6
HIDDEN
  0
ENDTAB
  0
TABLE
  2
STYLE
 70
     2
  0
STYLE
  2
STANDARD
 70
     0
 40
0.0
 41
1.0
 50
0.0
 71
     0
 42
0.2
  3
TXT
  4
BIGFONT
  0
STYLE
  2
STANDARD1
 70
     0
 40
0.0
 41
1.0
 50
0.0
 71
     0
 42
3.0
  3
txt
  4

  0
ENDTAB
  0
TABLE
  2
VIEW
 70
     1
  0
VIEW
  2
ALL
 70
     0
 40
270.0
 10
220.99159663865549
 20
135.0
 41
0.0
 11
0.0
 21
0.0
 31
1.0
 12
0.0
 22
0.0
 32
0.0
 42
0.0
 43
0.0
 44
0.0
 50
0.0
 71
     0
  0
ENDTAB
  0
TABLE
  2
UCS
 70
     0
  0
ENDTAB
  0
TABLE
  2
APPID
 70
     3
  0
APPID
  2
ACAD
 70
     0
  0
APPID
  2
ACAD_MLEADERVER
 70
     0
  0
APPID
  2
ACAD_NAV_VCDISPLAY
 70
     0
  0
ENDTAB
  0
TABLE
  2
DIMSTYLE
 70
     1
  0
DIMSTYLE
  2
STANDARD
 70
     0
  3

  4

  5

  6

  7

 40
1.0
 41
0.18
 42
0.0625
 43
0.38
 44
0.18
 45
0.0
 46
0.0
 47
0.0
 48
0.0
140
0.18
141
0.09
142
0.0
143
25.399999999999999
144
1.0
145
0.0
146
1.0
147
0.09
 71
     0
 72
     0
 73
     1
 74
     1
 75
     0
 76
     0
 77
     0
 78
     0
170
     0
171
     2
172
     0
173
     0
174
     0
175
     0
176
     0
177
     0
178
     0
  0
ENDTAB
  0
ENDSEC
  0
SECTION
  2
BLOCKS
  0
BLOCK
  8
0
  2
$MODEL_SPACE
 70
     0
 10
0.0
 20
0.0
 30
0.0
  3
$MODEL_SPACE
  1

  0
ENDBLK
  5
19F
  8
0
  0
BLOCK
 67
     1
  8
0
  2
$PAPER_SPACE
 70
     0
 10
0.0
 20
0.0
 30
0.0
  3
$PAPER_SPACE
  1

  0
ENDBLK
  5
19D
 67
     1
  8
0
  0
ENDSEC
  0
SECTION
  2
ENTITIES
  0
LINE
  5
35
  8
0
 10
115.0
 20
80.000000000000014
 30
0.0
 11
136.0
 21
80.000000000000014
 31
0.0
  0
LINE
  5
36
  8
0
 10
265.0
 20
80.000000000000014
 30
0.0
 11
265.0
 21
96.000000000000014
 31
0.0
  0
LINE
  5
37
  8
0
 10
115.0
 20
96.000000000000014
 30
0.0
 11
115.0
 21
80.000000000000014
 31
0.0
  0
LINE
  5
38
  8
0
 10
306.30000000000001
 20
80.000000000000028
 30
0.0
 11
333.69999999999999
 21
80.000000000000014
 31
0.0
  0
LINE
  5
39
  8
0
 10
136.0
 20
80.000000000000014
 30
0.0
 11
136.0
 21
113.5
 31
0.0
  0
LINE
  5
3A
  8
0
 10
140.5
 20
118.0
 30
0.0
 11
239.4999980926514
 21
118.0
 31
0.0
  0
LINE
  5
3B
  8
0
 10
244.0
 20
113.5
 30
0.0
 11
244.0
 21
80.000000000000014
 31
0.0
  0
LINE
  5
3C
  8
1
 10
190.0
 20
130.0
 30
0.0
 11
190.0
 21
113.0
 31
0.0
  0
LINE
  5
3D
  8
0
 10
265.0
 20
96.000000000000014
 30
0.0
 11
250.8549184048542
 21
120.5
 31
0.0
  0
LINE
  5
3E
  8
0
 10
115.0
 20
96.000000000000014
 30
0.0
 11
129.1450815951458
 21
120.5
 31
0.0
  0
LINE
  5
3F
  8
0
 10
244.0
 20
80.000000000000014
 30
0.0
 11
265.0
 21
80.000000000000028
 31
0.0
  0
LINE
  5
40
  8
2
 10
248.0
 20
96.0
 30
0.0
 11
265.0
 21
96.0
 31
0.0
  0
ARC
  5
41
  8
0
 10
243.0606897707942
 20
116.0
 30
0.0
 40
9.0
 50
30.000000000000021
 51
90.000012142558532
  0
ARC
  5
42
  8
0
 10
136.9393102292058
 20
116.0
 30
0.0
 40
9.0
 50
90.0
 51
149.99999999999989
  0
ARC
  5
43
  8
0
 10
140.5
 20
113.5
 30
0.0
 40
4.5
 50
90.0
 51
179.99999999999989
  0
ARC
  5
44
  8
0
 10
239.5
 20
113.5
 30
0.0
 40
4.5
 50
0.0
 51
90.0
  0
LINE
  5
45
  8
1
 10
256.0
 20
75.000000000000014
 30
0.0
 11
256.0
 21
121.5884572681199
 31
0.0
  0
LINE
  5
46
  8
1
 10
124.0
 20
75.000000000000028
 30
0.0
 11
124.0
 21
121.5884572681199
 31
0.0
  0
LINE
  5
47
  8
1
 10
319.99999999999989
 20
130.01909918771671
 30
0.0
 11
320.0
 21
75.000000000000028
 31
0.0
  0
LINE
  5
48
  8
2
 10
248.0
 20
96.000000000000014
 30
0.0
 11
248.0
 21
120.4785049427806
 31
0.0
  0
ARC
  5
49
  8
2
 10
243.5
 20
120.4785049427806
 30
0.0
 40
4.5
 50
0.0
 51
84.397605312763943
  0
LINE
  5
4A
  8
2
 10
260.25
 20
80.000000000000014
 30
0.0
 11
260.25
 21
87.500000000000014
 31
0.0
  0
LINE
  5
4B
  8
2
 10
262.75
 20
87.500000000000014
 30
0.0
 11
262.75
 21
96.000000000000014
 31
0.0
  0
LINE
  5
4C
  8
2
 10
249.25
 20
96.000000000000014
 30
0.0
 11
249.25
 21
87.500000000000014
 31
0.0
  0
LINE
  5
4D
  8
2
 10
249.25
 20
87.500000000000014
 30
0.0
 11
262.75
 21
87.5
 31
0.0
  0
LINE
  5
4E
  8
2
 10
251.75
 20
87.500000000000014
 30
0.0
 11
251.75
 21
80.000000000000014
 31
0.0
  0
LINE
  5
4F
  8
0
 10
243.06068786344559
 20
125.0
 30
0.0
 11
136.9393102292058
 21
125.0
 31
0.0
  0
LINE
  5
50
  8
0
 10
140.5
 20
119.2
 30
0.0
 11
239.5
 21
119.2
 31
0.0
  0
ARC
  5
51
  8
0
 10
140.5
 20
113.5
 30
0.0
 40
5.7000000000000002
 50
90.0
 51
179.99999999999989
  0
LINE
  5
52
  8
0
 10
134.80000000000001
 20
80.000000000000014
 30
0.0
 11
134.80000000000001
 21
113.5
 31
0.0
  0
LINE
  5
53
  8
0
 10
320.0
 20
125.0
 30
0.0
 11
330.92231096509272
 21
124.0444216110495
 31
0.0
  0
LINE
  5
54
  8
0
 10
320.00000000000028
 20
125.0
 30
0.0
 11
309.07768903490722
 21
124.0444216110495
 31
0.0
  0
ARC
  5
55
  8
0
 10
239.5
 20
113.5
 30
0.0
 40
5.7000000000000002
 50
0.0000000000000763
 51
90.000000000000028
  0
LINE
  5
56
  8
0
 10
245.19999999999999
 20
80.000000000000014
 30
0.0
 11
245.19999999999999
 21
113.5
 31
0.0
  0
ARC
  5
57
  8
2
 10
136.5
 20
120.4785049427806
 30
0.0
 40
4.5
 50
95.602394687236085
 51
180.0
  0
LINE
  5
58
  8
2
 10
132.0
 20
96.000000000000014
 30
0.0
 11
132.0
 21
120.4785049427806
 31
0.0
  0
LINE
  5
59
  8
2
 10
128.24999999999989
 20
87.500000000000014
 30
0.0
 11
128.24999999999989
 21
80.000000000000014
 31
0.0
  0
LINE
  5
5A
  8
2
 10
130.74999999999989
 20
87.500000000000014
 30
0.0
 11
117.2499999999999
 21
87.5
 31
0.0
  0
LINE
  5
5B
  8
2
 10
130.74999999999989
 20
96.000000000000014
 30
0.0
 11
130.74999999999989
 21
87.500000000000014
 31
0.0
  0
LINE
  5
5C
  8
2
 10
132.0
 20
96.0
 30
0.0
 11
115.0
 21
96.0
 31
0.0
  0
LINE
  5
5D
  8
2
 10
117.2499999999999
 20
87.500000000000014
 30
0.0
 11
117.2499999999999
 21
96.000000000000014
 31
0.0
  0
LINE
  5
5E
  8
2
 10
119.75
 20
80.000000000000014
 30
0.0
 11
119.75
 21
87.500000000000014
 31
0.0
  0
LINE
  5
68
  8
1
 10
110.0
 20
190.0
 30
0.0
 11
270.0
 21
190.0
 31
0.0
  0
LINE
  5
69
  8
1
 10
190.0
 20
208.5
 30
0.0
 11
190.0
 21
171.5
 31
0.0
  0
CIRCLE
  5
6A
  8
0
 10
124.0
 20
190.0
 30
0.0
 40
4.2499999999999432
  0
LINE
  5
6B
  8
1
 10
124.0
 20
199.25
 30
0.0
 11
124.0
 21
180.74999999999989
 31
0.0
  0
LINE
  5
6C
  8
0
 10
114.9999999999998
 20
190.0
 30
0.0
 11
116.0388676421564
 21
201.8743114854953
 31
0.0
  0
LINE
  5
6D
  8
0
 10
115.0
 20
190.0
 30
0.0
 11
116.0388676421564
 21
178.1256885145047
 31
0.0
  0
LINE
  5
6E
  8
0
 10
136.9393102292058
 20
190.0
 30
0.0
 11
243.0606897707942
 21
190.0
 31
0.0
  0
LINE
  5
6F
  8
0
 10
118.0312583870391
 20
203.69999999999999
 30
0.0
 11
135.99999999999989
 21
203.69999999999999
 31
0.0
  0
LINE
  5
70
  8
0
 10
118.0312570383399
 20
176.30000000000001
 30
0.0
 11
135.99999999999989
 21
176.30000000000001
 31
0.0
  0
LINE
  5
71
  8
0
 10
136.0
 20
176.30000000000001
 30
0.0
 11
136.0
 21
177.24999999999989
 31
0.0
  0
LINE
  5
72
  8
0
 10
136.0
 20
202.75
 30
0.0
 11
244.0
 21
202.75
 31
0.0
  0
LINE
  5
73
  8
0
 10
136.0
 20
177.25
 30
0.0
 11
244.0
 21
177.25
 31
0.0
  0
ARC
  5
74
  8
0
 10
118.0312570383399
 20
201.69999999999999
 30
0.0
 40
2.0
 50
90.0
 51
175.00000000000011
  0
ARC
  5
75
  8
0
 10
118.0312570383399
 20
178.30000000000001
 30
0.0
 40
2.0
 50
184.99999999999969
 51
269.99999999999989
  0
LINE
  5
76
  8
0
 10
119.52986088221959
 20
203.54017786450891
 30
0.0
 11
136.0
 21
202.75
 31
0.0
  0
LINE
  5
77
  8
0
 10
119.52986088221959
 20
176.45982213549101
 30
0.0
 11
136.0
 21
177.24999999999989
 31
0.0
  0
LINE
  5
78
  8
0
 10
136.0
 20
202.75
 30
0.0
 11
136.0
 21
203.69999999999999
 31
0.0
  0
LINE
  5
79
  8
0
 10
132.0
 20
185.5
 30
0.0
 11
132.0
 21
194.5
 31
0.0
  0
LINE
  5
7A
  8
0
 10
116.87870647280241
 20
199.0
 30
0.0
 11
127.4999999999999
 21
199.0
 31
0.0
  0
LINE
  5
7B
  8
0
 10
116.87870647280251
 20
181.0
 30
0.0
 11
127.5
 21
181.0
 31
0.0
  0
ARC
  5
7C
  8
0
 10
127.4999999999999
 20
194.5
 30
0.0
 40
4.5
 50
0.0000000000001018
 51
90.0
  0
ARC
  5
7D
  8
0
 10
127.5
 20
185.5
 30
0.0
 40
4.5
 50
269.99999999999989
 51
0.0000000000001145
  0
ARC
  5
7E
  8
0
 10
116.87870647280241
 20
200.0
 30
0.0
 40
1.0
 50
175.0000000000004
 51
269.99999999999989
  0
ARC
  5
7F
  8
0
 10
116.87870647280251
 20
180.0
 30
0.0
 40
1.0
 50
89.999999999999915
 51
184.9999999999996
  0
CIRCLE
  5
80
  8
0
 10
124.0
 20
190.0
 30
0.0
 40
6.7500000000000284
  0
CIRCLE
  5
81
  8
0
 10
256.0
 20
190.0
 30
0.0
 40
6.7500000000000284
  0
ARC
  5
82
  8
0
 10
263.12129352719739
 20
180.0
 30
0.0
 40
1.0
 50
355.00000000000051
 51
90.000000000000114
  0
ARC
  5
83
  8
0
 10
263.12129352719751
 20
200.0
 30
0.0
 40
1.0
 50
270.00000000000011
 51
4.9999999999996119
  0
ARC
  5
84
  8
0
 10
252.49999999999989
 20
185.5
 30
0.0
 40
4.5
 50
179.99999999999989
 51
270.00000000000023
  0
ARC
  5
85
  8
0
 10
252.5
 20
194.5
 30
0.0
 40
4.5
 50
90.000000000000028
 51
179.99999999999989
  0
LINE
  5
86
  8
0
 10
263.12129352719739
 20
181.0
 30
0.0
 11
252.49999999999989
 21
181.0
 31
0.0
  0
LINE
  5
87
  8
0
 10
263.12129352719751
 20
199.0
 30
0.0
 11
252.5
 21
199.0
 31
0.0
  0
LINE
  5
88
  8
0
 10
247.99999999999989
 20
185.5
 30
0.0
 11
248.0
 21
194.5
 31
0.0
  0
LINE
  5
89
  8
0
 10
243.99999999999989
 20
202.75
 30
0.0
 11
243.99999999999989
 21
203.69999999999999
 31
0.0
  0
LINE
  5
8A
  8
0
 10
260.47013911778038
 20
176.45982213549101
 30
0.0
 11
243.99999999999989
 21
177.24999999999989
 31
0.0
  0
LINE
  5
8B
  8
0
 10
260.47013911778038
 20
203.54017786450891
 30
0.0
 11
243.99999999999989
 21
202.75
 31
0.0
  0
ARC
  5
8C
  8
0
 10
261.96874296165998
 20
178.30000000000001
 30
0.0
 40
2.0
 50
270.00000000000023
 51
355.00000000000028
  0
ARC
  5
8D
  8
0
 10
261.96874296165998
 20
201.69999999999999
 30
0.0
 40
2.0
 50
4.9999999999998916
 51
90.000000000000028
  0
LINE
  5
8E
  8
0
 10
243.99999999999989
 20
176.30000000000001
 30
0.0
 11
243.99999999999989
 21
177.24999999999989
 31
0.0
  0
LINE
  5
8F
  8
0
 10
261.96874296165998
 20
176.30000000000001
 30
0.0
 11
244.0
 21
176.30000000000001
 31
0.0
  0
LINE
  5
90
  8
0
 10
261.9687416129608
 20
203.69999999999999
 30
0.0
 11
244.0
 21
203.69999999999999
 31
0.0
  0
LINE
  5
91
  8
0
 10
264.99999999999989
 20
190.0
 30
0.0
 11
263.9611323578435
 21
178.1256885145047
 31
0.0
  0
LINE
  5
92
  8
0
 10
265.00000000000011
 20
190.0
 30
0.0
 11
263.9611323578435
 21
201.8743114854953
 31
0.0
  0
LINE
  5
93
  8
1
 10
256.0
 20
199.25
 30
0.0
 11
256.0
 21
180.74999999999989
 31
0.0
  0
CIRCLE
  5
94
  8
0
 10
256.0
 20
190.0
 30
0.0
 40
4.2499999999999432
  0
LINE
  5
95
  8
0
 10
307.25251228060841
 20
122.09727355575269
 30
0.0
 11
306.30000000000001
 21
80.000000000000028
 31
0.0
  0
LINE
  5
96
  8
0
 10
332.74748771939147
 20
122.09727355575269
 30
0.0
 11
333.69999999999999
 21
80.000000000000028
 31
0.0
  0
ARC
  5
97
  8
0
 10
309.25200052040248
 20
122.052032214866
 30
0.0
 40
2.0
 50
94.999999999999815
 51
178.70382049643911
  0
ARC
  5
98
  8
0
 10
330.74799947959741
 20
122.052032214866
 30
0.0
 40
2.0
 50
1.2961795035610411
 51
85.000000000000313
  0
ARC
  5
99
  8
2
 10
330.74799947959741
 20
120.9479677851339
 30
0.0
 40
2.0
 50
274.99999999999972
 51
358.70382049643899
  0
ARC
  5
9A
  8
2
 10
309.25200052040248
 20
120.947967785134
 30
0.0
 40
2.0
 50
181.29617950356089
 51
265.00000000000023
  0
LINE
  5
9B
  8
2
 10
320.00000000000028
 20
118.0
 30
0.0
 11
309.07768903490722
 21
118.9555783889504
 31
0.0
  0
LINE
  5
9C
  8
2
 10
320.0
 20
118.0
 30
0.0
 11
330.92231096509272
 21
118.9555783889504
 31
0.0
  0
LINE
  5
9D
  8
2
 10
307.25251228060841
 20
122.09727355575269
 30
0.0
 11
307.25251228060841
 21
120.90272644424731
 31
0.0
  0
LINE
  5
9E
  8
2
 10
332.74748771939147
 20
122.09727355575269
 30
0.0
 11
332.74748771939147
 21
120.90272644424719
 31
0.0
  0
LINE
  5
9F
  8
0
 10
311.0
 20
96.000000000000014
 30
0.0
 11
329.0
 21
96.000000000000014
 31
0.0
  0
LINE
  5
A0
  8
0
 10
310.99999999999989
 20
117.650635094611
 30
0.0
 11
310.99999999999989
 21
96.000000000000014
 31
0.0
  0
LINE
  5
A1
  8
0
 10
329.0
 20
117.650635094611
 30
0.0
 11
329.0
 21
96.000000000000014
 31
0.0
  0
LINE
  5
A2
  8
0
 10
320.0
 20
96.000000000000014
 30
0.0
 11
320.0
 21
80.000000000000014
 31
0.0
  0
POLYLINE
  5
A3
  8
0
 66
     1
 10
0.0
 20
0.0
 30
0.0
  0
VERTEX
  5
A4
  8
0
 10
315.49999999999989
 20
120.4785049427806
 30
0.0
 42
0.0637479897830181
  0
VERTEX
  5
A5
  8
0
 10
313.70234460242392
 20
120.2483759071424
 30
0.0
 42
0.0767512434167648
  0
VERTEX
  5
A6
  8
0
 10
312.31801948466051
 20
119.65024104056469
 30
0.0
 42
0.1071500737186013
 70
     2
 50
212.1458917196392
  0
VERTEX
  5
A7
  8
0
 10
311.3013619390851
 20
118.655430700089
 30
0.0
 42
0.1467330460488766
 50
212.1458917196392
  0
VERTEX
  5
A8
  8
0
 10
310.99999999999989
 20
117.650635094611
 30
0.0
 42
0.1467330460488766
  0
SEQEND
  5
A9
  8
0
  0
POLYLINE
  5
AA
  8
0
 66
     1
 10
0.0
 20
0.0
 30
0.0
  0
VERTEX
  5
AB
  8
0
 10
324.5
 20
120.4785049427806
 30
0.0
 42
-0.0637479897830181
  0
VERTEX
  5
AC
  8
0
 10
326.29765539757602
 20
120.2483759071424
 30
0.0
 42
-0.0767512434167648
  0
VERTEX
  5
AD
  8
0
 10
327.68198051533938
 20
119.65024104056469
 30
0.0
 42
-0.1071500737186013
 70
     2
 50
327.85410828036089
  0
VERTEX
  5
AE
  8
0
 10
328.69863806091479
 20
118.655430700089
 30
0.0
 42
-0.1467330460488766
  0
VERTEX
  5
AF
  8
0
 10
329.0
 20
117.650635094611
 30
0.0
 42
-0.1467330460488766
  0
SEQEND
  5
B0
  8
0
  0
POLYLINE
  5
B1
  8
0
 66
     1
 10
0.0
 20
0.0
 30
0.0
  0
VERTEX
  5
B2
  8
0
 10
55.500000000000107
 20
120.4785049427806
 30
0.0
 42
0.0637479897830181
  0
VERTEX
  5
B3
  8
0
 10
53.702344602424091
 20
120.2483759071424
 30
0.0
 42
0.0767512434167648
  0
VERTEX
  5
B4
  8
0
 10
52.318019484660617
 20
119.65024104056469
 30
0.0
 42
0.1071500737186013
 70
     2
 50
212.1458917196392
  0
VERTEX
  5
B5
  8
0
 10
51.301361939085261
 20
118.655430700089
 30
0.0
 42
0.1467330460488766
  0
VERTEX
  5
B6
  8
0
 10
51.000000000000121
 20
117.650635094611
 30
0.0
 42
0.1467330460488766
  0
SEQEND
  5
B7
  8
0
  0
POLYLINE
  5
B8
  8
0
 66
     1
 10
0.0
 20
0.0
 30
0.0
  0
VERTEX
  5
B9
  8
0
 10
64.500000000000114
 20
120.4785049427806
 30
0.0
 42
-0.0637479897830181
  0
VERTEX
  5
BA
  8
0
 10
66.297655397576136
 20
120.2483759071424
 30
0.0
 42
-0.0767512434167648
  0
VERTEX
  5
BB
  8
0
 10
67.681980515339603
 20
119.65024104056469
 30
0.0
 42
-0.1071500737186013
 70
     2
 50
327.85410828036089
  0
VERTEX
  5
BC
  8
0
 10
68.698638060914959
 20
118.655430700089
 30
0.0
 42
-0.1467330460488766
  0
VERTEX
  5
BD
  8
0
 10
69.000000000000114
 20
117.650635094611
 30
0.0
 42
-0.1467330460488766
  0
SEQEND
  5
BE
  8
0
  0
LINE
  5
BF
  8
0
 10
60.000000000000057
 20
96.000000000000014
 30
0.0
 11
60.000000000000057
 21
80.000000000000014
 31
0.0
  0
LINE
  5
C0
  8
0
 10
51.000000000000121
 20
117.650635094611
 30
0.0
 11
51.000000000000121
 21
96.000000000000014
 31
0.0
  0
LINE
  5
C1
  8
0
 10
69.000000000000114
 20
117.650635094611
 30
0.0
 11
69.000000000000114
 21
96.000000000000014
 31
0.0
  0
LINE
  5
C2
  8
0
 10
69.000000000000057
 20
96.000000000000014
 30
0.0
 11
51.000000000000121
 21
96.000000000000014
 31
0.0
  0
LINE
  5
C3
  8
2
 10
47.252512280608578
 20
122.09727355575269
 30
0.0
 11
47.252512280608578
 21
120.90272644424719
 31
0.0
  0
LINE
  5
C4
  8
2
 10
72.747487719391643
 20
122.09727355575269
 30
0.0
 11
72.747487719391643
 21
120.90272644424731
 31
0.0
  0
LINE
  5
C5
  8
2
 10
60.000000000000057
 20
118.0
 30
0.0
 11
49.07768903490733
 21
118.9555783889504
 31
0.0
  0
LINE
  5
C6
  8
2
 10
59.999999999999709
 20
118.0
 30
0.0
 11
70.92231096509289
 21
118.9555783889504
 31
0.0
  0
ARC
  5
C7
  8
2
 10
70.747999479597581
 20
120.947967785134
 30
0.0
 40
2.0
 50
274.99999999999977
 51
358.70382049643911
  0
ARC
  5
C8
  8
2
 10
49.252000520402639
 20
120.9479677851339
 30
0.0
 40
2.0
 50
181.29617950356109
 51
265.00000000000028
  0
ARC
  5
C9
  8
0
 10
49.252000520402639
 20
122.052032214866
 30
0.0
 40
2.0
 50
94.999999999999716
 51
178.70382049643899
  0
ARC
  5
CA
  8
0
 10
70.747999479597581
 20
122.052032214866
 30
0.0
 40
2.0
 50
1.2961795035609389
 51
85.000000000000213
  0
LINE
  5
CB
  8
0
 10
47.252512280608578
 20
122.09727355575269
 30
0.0
 11
46.300000000000061
 21
80.000000000000028
 31
0.0
  0
LINE
  5
CC
  8
0
 10
72.747487719391643
 20
122.09727355575269
 30
0.0
 11
73.700000000000045
 21
80.000000000000028
 31
0.0
  0
LINE
  5
CD
  8
0
 10
59.999999999999709
 20
125.0
 30
0.0
 11
70.92231096509289
 21
124.0444216110495
 31
0.0
  0
LINE
  5
CE
  8
0
 10
60.000000000000057
 20
125.0
 30
0.0
 11
49.07768903490733
 21
124.0444216110495
 31
0.0
  0
LINE
  5
CF
  8
1
 10
60.000000000000107
 20
130.01909918771671
 30
0.0
 11
60.000000000000057
 21
75.000000000000028
 31
0.0
  0
LINE
  5
D0
  8
0
 10
73.700000000000045
 20
80.000000000000028
 30
0.0
 11
46.300000000000061
 21
80.000000000000014
 31
0.0
  0
TEXT
  5
2C8
  8
0
 62
     3
 10
0.0
 20
0.0
 30
0.0
 40
10.0
  1
AGS150AE
  7
STANDARD1
  0
ENDSEC
  0
EOF
