  0
SECTION
  2
HEADER
  9
$ACADVER
  1
AC1009
  9
$INSBASE
 10
0.0
 20
0.0
 30
0.0
  9
$EXTMIN
 10
-0.0204638472032742
 20
-2.960436562073669
 30
0.0
  9
$EXTMAX
 10
292.88840049274052
 20
149.1036568894925
 30
0.0
  9
$LIMMIN
 10
0.0
 20
0.0
  9
$LIMMAX
 10
375.0
 20
270.0
  9
$ORTHOMODE
 70
     1
  9
$REGENMODE
 70
     1
  9
$FILLMODE
 70
     1
  9
$QTEXTMODE
 70
     0
  9
$MIRRTEXT
 70
     1
  9
$DRAGMODE
 70
     2
  9
$LTSCALE
 40
10.0
  9
$OSMODE
 70
  3071
  9
$ATTMODE
 70
     1
  9
$TEXTSIZE
 40
5.0
  9
$TRACEWID
 40
0.05
  9
$TEXTSTYLE
  7
STANDARD
  9
$CLAYER
  8
4
  9
$CELTYPE
  6
BYLAYER
  9
$CECOLOR
 62
   256
  9
$DIMSCALE
 40
1.0
  9
$DIMASZ
 40
3.0
  9
$DIMEXO
 40
2.0
  9
$DIMDLI
 40
0.38
  9
$DIMRND
 40
0.0
  9
$DIMDLE
 40
0.0
  9
$DIMEXE
 40
2.0
  9
$DIMTP
 40
0.0
  9
$DIMTM
 40
0.0
  9
$DIMTXT
 40
3.2000000000000002
  9
$DIMCEN
 40
0.0
  9
$DIMTSZ
 40
0.0
  9
$DIMTOL
 70
     0
  9
$DIMLIM
 70
     0
  9
$DIMTIH
 70
     0
  9
$DIMTOH
 70
     0
  9
$DIMSE1
 70
     0
  9
$DIMSE2
 70
     0
  9
$DIMTAD
 70
     1
  9
$DIMZIN
 70
     8
  9
$DIMBLK
  1

  9
$DIMASO
 70
     0
  9
$DIMSHO
 70
     0
  9
$DIMPOST
  1

  9
$DIMAPOST
  1

  9
$DIMALT
 70
     0
  9
$DIMALTD
 70
     2
  9
$DIMALTF
 40
25.399999999999999
  9
$DIMLFAC
 40
1.0
  9
$DIMTOFL
 70
     0
  9
$DIMTVP
 40
1.6000000000000001
  9
$DIMTIX
 70
     1
  9
$DIMSOXD
 70
     0
  9
$DIMSAH
 70
     0
  9
$DIMBLK1
  1

  9
$DIMBLK2
  1

  9
$DIMSTYLE
  2
STANDARD
  9
$DIMCLRD
 70
     0
  9
$DIMCLRE
 70
     0
  9
$DIMCLRT
 70
     0
  9
$DIMTFAC
 40
1.0
  9
$DIMGAP
 40
1.1999999999999991
  9
$LUNITS
 70
     2
  9
$LUPREC
 70
     4
  9
$SKETCHINC
 40
0.1
  9
$FILLETRAD
 40
0.0
  9
$AUNITS
 70
     0
  9
$AUPREC
 70
     4
  9
$MENU
  1
ACAD
  9
$ELEVATION
 40
0.0
  9
$PELEVATION
 40
0.0
  9
$THICKNESS
 40
0.0
  9
$LIMCHECK
 70
     0
  9
$BLIPMODE
 70
     0
  9
$CHAMFERA
 40
1.0
  9
$CHAMFERB
 40
1.0
  9
$SKPOLY
 70
     0
  9
$TDCREATE
 40
2448055.7149187499
  9
$TDUPDATE
 40
2456597.5012104628
  9
$TDINDWG
 40
0.5160440162
  9
$TDUSRTIMER
 40
0.5160440162
  9
$USRTIMER
 70
     1
  9
$ANGBASE
 50
0.0
  9
$ANGDIR
 70
     0
  9
$PDMODE
 70
     0
  9
$PDSIZE
 40
0.0
  9
$PLINEWID
 40
0.0
  9
$COORDS
 70
     1
  9
$SPLFRAME
 70
     0
  9
$SPLINETYPE
 70
     6
  9
$SPLINESEGS
 70
     8
  9
$ATTDIA
 70
     0
  9
$ATTREQ
 70
     1
  9
$HANDLING
 70
     1
  9
$HANDSEED
  5
2BD8
  9
$SURFTAB1
 70
     6
  9
$SURFTAB2
 70
     6
  9
$SURFTYPE
 70
     6
  9
$SURFU
 70
     6
  9
$SURFV
 70
     6
  9
$UCSNAME
  2

  9
$UCSORG
 10
0.0
 20
0.0
 30
0.0
  9
$UCSXDIR
 10
1.0
 20
0.0
 30
0.0
  9
$UCSYDIR
 10
0.0
 20
1.0
 30
0.0
  9
$PUCSNAME
  2

  9
$PUCSORG
 10
0.0
 20
0.0
 30
0.0
  9
$PUCSXDIR
 10
1.0
 20
0.0
 30
0.0
  9
$PUCSYDIR
 10
0.0
 20
1.0
 30
0.0
  9
$USERI1
 70
     0
  9
$USERI2
 70
     0
  9
$USERI3
 70
     0
  9
$USERI4
 70
     0
  9
$USERI5
 70
     0
  9
$USERR1
 40
0.0
  9
$USERR2
 40
0.0
  9
$USERR3
 40
0.0
  9
$USERR4
 40
0.0
  9
$USERR5
 40
0.0
  9
$WORLDVIEW
 70
     1
  9
$SHADEDGE
 70
     3
  9
$SHADEDIF
 70
    70
  9
$TILEMODE
 70
     1
  9
$MAXACTVP
 70
    16
  9
$PLIMCHECK
 70
     0
  9
$PEXTMIN
 10
1.0000000000000000E+020
 20
1.0000000000000000E+020
 30
1.0000000000000000E+020
  9
$PEXTMAX
 10
-1.0000000000000000E+020
 20
-1.0000000000000000E+020
 30
-1.0000000000000000E+020
  9
$PLIMMIN
 10
0.0
 20
0.0
  9
$PLIMMAX
 10
12.0
 20
9.0
  9
$UNITMODE
 70
     0
  9
$VISRETAIN
 70
     0
  9
$PLINEGEN
 70
     1
  9
$PSLTSCALE
 70
     0
  0
ENDSEC
  0
SECTION
  2
TABLES
  0
TABLE
  2
VPORT
 70
     1
  0
VPORT
  2
*ACTIVE
 70
     0
 10
0.0
 20
0.0
 11
1.0
 21
1.0
 12
195.04380321732449
 22
133.5127261426681
 13
0.0
 23
0.0
 14
5.0
 24
5.0
 15
10.0
 25
10.0
 16
0.0
 26
0.0
 36
1.0
 17
0.0
 27
0.0
 37
0.0
 40
275.42274993631997
 41
1.831871345029239
 42
50.0
 43
0.0
 44
0.0
 50
0.0
 51
0.0
 71
     0
 72
   500
 73
     1
 74
     1
 75
     0
 76
     0
 77
     0
 78
     2
  0
ENDTAB
  0
TABLE
  2
LTYPE
 70
     4
  0
LTYPE
  2
CONTINUOUS
 70
     0
  3
実線
 72
    65
 73
     0
 40
0.0
  0
LTYPE
  2
CENTER
 70
     0
  3
____ _ ____ _ ____ _ ____ _ ____ _ ____ _ ____
 72
    65
 73
     4
 40
2.0
 49
1.25
 49
-0.25
 49
0.25
 49
-0.25
  0
LTYPE
  2
HIDDEN
 70
     0
  3
_ _ _ _ _ _ _ _ _ _ _ _ _ _ _ _ _ _ _ _ _ _ _
 72
    65
 73
     2
 40
0.375
 49
0.25
 49
-0.125
  0
LTYPE
  2
PHANTOM2
 70
     0
  3
___ _ _ ___ _ _ ___ _ _ ___ _ _
 72
    65
 73
     6
 40
1.25
 49
0.625
 49
-0.125
 49
0.125
 49
-0.125
 49
0.125
 49
-0.125
  0
ENDTAB
  0
TABLE
  2
LAYER
 70
     5
  0
LAYER
  2
0
 70
     0
 62
     7
  6
CONTINUOUS
  0
LAYER
  2
1
 70
     0
 62
     1
  6
CENTER
  0
LAYER
  2
2
 70
     0
 62
     2
  6
HIDDEN
  0
LAYER
  2
4
 70
     0
 62
     4
  6
CONTINUOUS
  0
LAYER
  2
DEFPOINTS
 70
     0
 62
     7
  6
CONTINUOUS
  0
ENDTAB
  0
TABLE
  2
STYLE
 70
     3
  0
STYLE
  2
STANDARD
 70
     0
 40
0.0
 41
1.0
 50
0.0
 71
     0
 42
5.0
  3
simplex.shx
  4
bigfont.shx
  0
STYLE
  2
07500
 70
     0
 40
0.0
 41
0.75
 50
0.0
 71
     0
 42
0.2
  3
simplex.shx
  4
bigfont.shx
  0
STYLE
  2
STANDARD1
 70
     0
 40
0.0
 41
1.0
 50
0.0
 71
     0
 42
3.0
  3
txt
  4

  0
ENDTAB
  0
TABLE
  2
VIEW
 70
     1
  0
VIEW
  2
ALL
 70
     0
 40
270.0
 10
220.99159663865549
 20
135.0
 41
0.0
 11
0.0
 21
0.0
 31
1.0
 12
0.0
 22
0.0
 32
0.0
 42
0.0
 43
0.0
 44
0.0
 50
0.0
 71
     0
  0
ENDTAB
  0
TABLE
  2
UCS
 70
     0
  0
ENDTAB
  0
TABLE
  2
APPID
 70
    43
  0
APPID
  2
ACAD
 70
     0
  0
APPID
  2
DCO15
 70
     0
  0
APPID
  2
GENIUS_GENOREF_13
 70
     0
  0
APPID
  2
GENIUS_GENOENT_13
 70
     0
  0
APPID
  2
GENIUS_GENBH_13
 70
     0
  0
APPID
  2
GENIUS_GENOBJ_13
 70
     0
  0
APPID
  2
GENIUS_GENODEF_13
 70
     0
  0
APPID
  2
GENIUS_GENOLIS_13
 70
     0
  0
APPID
  2
GENIUS_GENOBJ-NBEHI-BHF_13
 70
     0
  0
APPID
  2
GENIUS_GENOBJ-NBEHI-BHB_13
 70
     0
  0
APPID
  2
GENIUS_GENOBJ-F-PART_13
 70
     0
  0
APPID
  2
GENIUS_GEFSTDP_13
 70
     0
  0
APPID
  2
GENIUS_GENOBJ-N-RSSYM_13
 70
     0
  0
APPID
  2
GENIUS_GENSYMENT_13
 70
     0
  0
APPID
  2
GENIUS_GENOBJ-N-TIT_13
 70
     0
  0
APPID
  2
GENIUS_GENTITLE_13
 70
     0
  0
APPID
  2
GENIUS_GENZVEED_13
 70
     0
  0
APPID
  2
GENIUS_GENOBJ-N-LEADER_13
 70
     0
  0
APPID
  2
GENIUS_GENOBJ-N-FIL_13
 70
     0
  0
APPID
  2
GENIUS_GENOBJ-N-SEC_13
 70
     0
  0
APPID
  2
GENIUS_GENOBJ-N-CRS_13
 70
     0
  0
APPID
  2
GENIUS_GENOBJ-N-ZOO_13
 70
     0
  0
APPID
  2
GENIUS_GENZOO_13
 70
     0
  0
APPID
  2
GENIUS_GENOBJ-F-TOL_13
 70
     0
  0
APPID
  2
GENIUS_GENFIL_13
 70
     0
  0
APPID
  2
GENIUS_GENOBJ-N-CHA_13
 70
     0
  0
APPID
  2
_CALL_MAC$
 70
     0
  0
APPID
  2
ASM_BASE
 70
     0
  0
APPID
  2
ASM_EXPLO_VER_2_00
 70
     0
  0
APPID
  2
ASM_CADM_VER_12_00
 70
     0
  0
APPID
  2
ASM_BASEFORO
 70
     0
  0
APPID
  2
ASM_BASETRAVI
 70
     0
  0
APPID
  2
ASM_BASETRAVI1
 70
     0
  0
APPID
  2
ASM_GRUPPI
 70
     0
  0
APPID
  2
ASM_CADM_ALBERO
 70
     0
  0
APPID
  2
ASM_GOLE
 70
     0
  0
APPID
  2
ACAD_MLEADERVER
 70
     0
  0
APPID
  2
ACAD_DSTYLE_DIMJAG
 70
     0
  0
APPID
  2
ACAD_DSTYLE_DIMTALN
 70
     0
  0
APPID
  2
ACAD_EXEMPT_FROM_CAD_STANDARDS
 70
     0
  0
APPID
  2
GRADIENTCOLOR1ACI
 70
     0
  0
APPID
  2
GRADIENTCOLOR2ACI
 70
     0
  0
APPID
  2
ACAD_NAV_VCDISPLAY
 70
     0
  0
ENDTAB
  0
TABLE
  2
DIMSTYLE
 70
     1
  0
DIMSTYLE
  2
STANDARD
 70
     0
  3

  4

  5

  6

  7

 40
1.0
 41
0.18
 42
0.0625
 43
0.38
 44
0.18
 45
0.0
 46
0.0
 47
0.0
 48
0.0
140
0.18
141
0.09
142
0.0
143
25.399999999999999
144
1.0
145
0.0
146
1.0
147
0.09
 71
     0
 72
     0
 73
     1
 74
     1
 75
     0
 76
     0
 77
     0
 78
     0
170
     0
171
     2
172
     0
173
     0
174
     0
175
     0
176
     0
177
     0
178
     0
  0
ENDTAB
  0
ENDSEC
  0
SECTION
  2
BLOCKS
  0
BLOCK
  8
0
  2
$MODEL_SPACE
 70
     0
 10
0.0
 20
0.0
 30
0.0
  3
$MODEL_SPACE
  1

  0
ENDBLK
  5
36
  8
0
  0
BLOCK
 67
     1
  8
0
  2
$PAPER_SPACE
 70
     0
 10
0.0
 20
0.0
 30
0.0
  3
$PAPER_SPACE
  1

  0
ENDBLK
  5
34
 67
     1
  8
0
  0
ENDSEC
  0
SECTION
  2
ENTITIES
  0
ARC
  5
1785
  8
0
 10
281.71668669893438
 20
134.08327580989231
 30
0.0
 40
2.9999999999999298
 50
331.29340162756603
 51
28.706598872813831
  0
ARC
  5
1786
  8
0
 10
143.7166866989343
 20
134.08327580989231
 30
0.0
 40
2.9999999999999871
 50
151.2933921352664
 51
208.7066076694222
  0
POLYLINE
  5
1791
  8
0
 66
     1
 10
0.0
 20
0.0
 30
0.0
  0
VERTEX
  5
2928
  8
0
 10
275.49731913500977
 20
141.56956153319459
 30
0.0
  0
VERTEX
  5
2929
  8
0
 10
275.61971065090881
 20
141.57263056600601
 30
0.0
  0
VERTEX
  5
292A
  8
0
 10
275.7978931660607
 20
141.5770553036287
 30
0.0
  0
VERTEX
  5
292B
  8
0
 10
275.88709090322459
 20
141.5792510558789
 30
0.0
  0
VERTEX
  5
292C
  8
0
 10
275.89825110617568
 20
141.5795248790055
 30
0.0
  0
SEQEND
  5
292D
  8
0
  0
ARC
  5
1792
  8
0
 10
273.82286947366202
 20
129.76035438867819
 30
0.0
 40
11.99999999999997
 50
28.706603055431771
 51
80.040706243672133
  0
LINE
  5
1793
  8
0
 10
274.16356386953652
 20
135.5242493608514
 30
0.0
 11
284.34795924761431
 21
135.5242493608514
 31
0.0
  0
LINE
  5
179A
  8
0
 10
274.163563883417
 20
132.64230228191269
 30
0.0
 11
284.34795926019859
 21
132.64230228191269
 31
0.0
  0
ARC
  5
179B
  8
0
 10
273.82286947366202
 20
138.40619723110629
 30
0.0
 40
11.99999999999994
 50
279.9592937563263
 51
331.29339706966317
  0
POLYLINE
  5
179C
  8
0
 66
     1
 10
0.0
 20
0.0
 30
0.0
  0
VERTEX
  5
292E
  8
0
 10
275.89825110617568
 20
126.58702674077909
 30
0.0
  0
VERTEX
  5
292F
  8
0
 10
275.88708998168022
 20
126.58730058652471
 30
0.0
  0
VERTEX
  5
2930
  8
0
 10
275.79788823294842
 20
126.5894964379481
 30
0.0
  0
VERTEX
  5
2931
  8
0
 10
275.61970611953001
 20
126.5939211669569
 30
0.0
  0
VERTEX
  5
2932
  8
0
 10
275.49731913500949
 20
126.5969900865899
 30
0.0
  0
SEQEND
  5
2933
  8
0
  0
POLYLINE
  5
179D
  8
0
 66
     1
 10
0.0
 20
0.0
 30
0.0
  0
VERTEX
  5
2934
  8
0
 10
274.163563883417
 20
132.64230228191281
 30
0.0
  0
VERTEX
  5
2935
  8
0
 10
274.2061313027603
 20
132.71519966127281
 30
0.0
  0
VERTEX
  5
2936
  8
0
 10
274.2844673146767
 20
132.8642660411432
 30
0.0
  0
VERTEX
  5
2937
  8
0
 10
274.35359711909831
 20
133.01739286116461
 30
0.0
  0
VERTEX
  5
2938
  8
0
 10
274.38465758573028
 20
133.0953653295781
 30
0.0
  0
VERTEX
  5
2939
  8
0
 10
274.41335417313871
 20
133.1742165153276
 30
0.0
  0
VERTEX
  5
293A
  8
0
 10
274.46357257172372
 20
133.33437333866539
 30
0.0
  0
VERTEX
  5
293B
  8
0
 10
274.50408348631748
 20
133.497500751004
 30
0.0
  0
VERTEX
  5
293C
  8
0
 10
274.5347109931314
 20
133.66323736192831
 30
0.0
  0
VERTEX
  5
293D
  8
0
 10
274.55521889784143
 20
133.83069050333009
 30
0.0
  0
VERTEX
  5
293E
  8
0
 10
274.56547841526418
 20
133.99873630029001
 30
0.0
  0
VERTEX
  5
293F
  8
0
 10
274.56677004339161
 20
134.08284181017331
 30
0.0
  0
VERTEX
  5
2940
  8
0
 10
274.56550537384442
 20
134.1669286431773
 30
0.0
  0
VERTEX
  5
2941
  8
0
 10
274.55531366015998
 20
134.33482500609651
 30
0.0
  0
VERTEX
  5
2942
  8
0
 10
274.53491505129608
 20
134.5019828414583
 30
0.0
  0
VERTEX
  5
2943
  8
0
 10
274.50432583824482
 20
134.66792992417621
 30
0.0
  0
VERTEX
  5
2944
  8
0
 10
274.46376648689329
 20
134.8314871623034
 30
0.0
  0
VERTEX
  5
2945
  8
0
 10
274.41348369375402
 20
134.9919617496829
 30
0.0
  0
VERTEX
  5
2946
  8
0
 10
274.38475410878777
 20
135.0709329473396
 30
0.0
  0
VERTEX
  5
2947
  8
0
 10
274.35366263756578
 20
135.149001190354
 30
0.0
  0
VERTEX
  5
2948
  8
0
 10
274.28448381486311
 20
135.3022517644691
 30
0.0
  0
VERTEX
  5
2949
  8
0
 10
274.20612709280408
 20
135.45135942091071
 30
0.0
  0
VERTEX
  5
294A
  8
0
 10
274.16356386953652
 20
135.5242493608512
 30
0.0
  0
SEQEND
  5
294B
  8
0
  0
POLYLINE
  5
179F
  8
0
 66
     1
 10
0.0
 20
0.0
 30
0.0
  0
VERTEX
  5
294C
  8
0
 10
274.1635638695364
 20
135.5242493608514
 30
0.0
  0
VERTEX
  5
294D
  8
0
 10
273.99274340419612
 20
135.80059399415401
 30
0.0
  0
VERTEX
  5
294E
  8
0
 10
273.63711525374032
 20
136.33750283926631
 30
0.0
  0
VERTEX
  5
294F
  8
0
 10
273.26285500041689
 20
136.85282908289241
 30
0.0
  0
VERTEX
  5
2950
  8
0
 10
273.06873934085581
 20
137.10219129982951
 30
0.0
  0
VERTEX
  5
2951
  8
0
 10
272.86996504207752
 20
137.34590680174091
 30
0.0
  0
VERTEX
  5
2952
  8
0
 10
272.45842905300992
 20
137.81605436754489
 30
0.0
  0
VERTEX
  5
2953
  8
0
 10
272.02821381672101
 20
138.2625807837133
 30
0.0
  0
VERTEX
  5
2954
  8
0
 10
271.57927101653257
 20
138.68479424419669
 30
0.0
  0
VERTEX
  5
2955
  8
0
 10
271.11154711171991
 20
139.08200601003719
 30
0.0
  0
VERTEX
  5
2956
  8
0
 10
270.62612310677838
 20
139.4527231283426
 30
0.0
  0
VERTEX
  5
2957
  8
0
 10
270.37705171374972
 20
139.62782759671009
 30
0.0
  0
VERTEX
  5
2958
  8
0
 10
270.12371404057842
 20
139.79607704538199
 30
0.0
  0
VERTEX
  5
2959
  8
0
 10
269.6041566283792
 20
140.1119480896491
 30
0.0
  0
VERTEX
  5
295A
  8
0
 10
269.06728791867693
 20
140.40020788811259
 30
0.0
  0
VERTEX
  5
295B
  8
0
 10
268.51296060338439
 20
140.66073605180929
 30
0.0
  0
VERTEX
  5
295C
  8
0
 10
267.94105115299101
 20
140.8934403172606
 30
0.0
  0
VERTEX
  5
295D
  8
0
 10
267.35577842946333
 20
141.0968975231433
 30
0.0
  0
VERTEX
  5
295E
  8
0
 10
267.06008194286511
 20
141.1873054897826
 30
0.0
  0
VERTEX
  5
295F
  8
0
 10
266.76226301881599
 20
141.270440536536
 30
0.0
  0
VERTEX
  5
2960
  8
0
 10
266.15997693410981
 20
141.4156431948926
 30
0.0
  0
VERTEX
  5
2961
  8
0
 10
265.54834240816081
 20
141.5338852239766
 30
0.0
  0
VERTEX
  5
2962
  8
0
 10
265.2388328900808
 20
141.58327580989231
 30
0.0
  0
SEQEND
  5
2963
  8
0
  0
POLYLINE
  5
17A0
  8
0
 66
     1
 10
0.0
 20
0.0
 30
0.0
  0
VERTEX
  5
2964
  8
0
 10
268.87305328583108
 20
141.2480363778981
 30
0.0
  0
VERTEX
  5
2965
  8
0
 10
269.1530362682513
 20
141.26294886222411
 30
0.0
  0
VERTEX
  5
2966
  8
0
 10
269.6969875383848
 20
141.2914746760475
 30
0.0
  0
VERTEX
  5
2967
  8
0
 10
270.21950001073202
 20
141.31833227089001
 30
0.0
  0
VERTEX
  5
2968
  8
0
 10
270.47268454182739
 20
141.33115882195381
 30
0.0
  0
VERTEX
  5
2969
  8
0
 10
270.72047081389661
 20
141.3435959768164
 30
0.0
  0
VERTEX
  5
296A
  8
0
 10
271.19979730601568
 20
141.36733739175381
 30
0.0
  0
VERTEX
  5
296B
  8
0
 10
271.6573771042415
 20
141.38962545318839
 30
0.0
  0
VERTEX
  5
296C
  8
0
 10
272.09310810886552
 20
141.41052649986261
 30
0.0
  0
VERTEX
  5
296D
  8
0
 10
272.50688852104309
 20
141.43010432426979
 30
0.0
  0
VERTEX
  5
296E
  8
0
 10
272.89861685300161
 20
141.44842021666221
 30
0.0
  0
VERTEX
  5
296F
  8
0
 10
273.08617985959131
 20
141.45712341640331
 30
0.0
  0
VERTEX
  5
2970
  8
0
 10
273.26819192951427
 20
141.46553300122471
 30
0.0
  0
VERTEX
  5
2971
  8
0
 10
273.61551287931007
 20
141.4814990649985
 30
0.0
  0
VERTEX
  5
2972
  8
0
 10
273.94046693936542
 20
141.49637182344031
 30
0.0
  0
VERTEX
  5
2973
  8
0
 10
274.24276147009539
 20
141.51019404796961
 30
0.0
  0
VERTEX
  5
2974
  8
0
 10
274.5222795715228
 20
141.52301399306441
 30
0.0
  0
VERTEX
  5
2975
  8
0
 10
274.77898622796329
 20
141.534880989881
 30
0.0
  0
VERTEX
  5
2976
  8
0
 10
274.89877437842227
 20
141.54047182589051
 30
0.0
  0
VERTEX
  5
2977
  8
0
 10
275.01284663425452
 20
141.5458417287422
 30
0.0
  0
VERTEX
  5
2978
  8
0
 10
275.22382622959378
 20
141.55594028259529
 30
0.0
  0
VERTEX
  5
2979
  8
0
 10
275.41189071166667
 20
141.565218125271
 30
0.0
  0
VERTEX
  5
297A
  8
0
 10
275.49731913500977
 20
141.56956153319459
 30
0.0
  0
SEQEND
  5
297B
  8
0
  0
POLYLINE
  5
17A2
  8
0
 66
     1
 10
0.0
 20
0.0
 30
0.0
  0
VERTEX
  5
297C
  8
0
 10
275.49731913500949
 20
126.5969900865899
 30
0.0
  0
VERTEX
  5
297D
  8
0
 10
275.41190400842049
 20
126.6013328258434
 30
0.0
  0
VERTEX
  5
297E
  8
0
 10
275.22387447143097
 20
126.61060899638611
 30
0.0
  0
VERTEX
  5
297F
  8
0
 10
275.01294214579542
 20
126.6207053725616
 30
0.0
  0
VERTEX
  5
2980
  8
0
 10
274.89889859161087
 20
126.62607397316521
 30
0.0
  0
VERTEX
  5
2981
  8
0
 10
274.77914275782382
 20
126.6316633510086
 30
0.0
  0
VERTEX
  5
2982
  8
0
 10
274.52251229155172
 20
126.64352691979779
 30
0.0
  0
VERTEX
  5
2983
  8
0
 10
274.24308697756931
 20
126.6563426760074
 30
0.0
  0
VERTEX
  5
2984
  8
0
 10
273.94090326208362
 20
126.67015984847031
 30
0.0
  0
VERTEX
  5
2985
  8
0
 10
273.61600081995232
 20
126.6850301857645
 30
0.0
  0
VERTEX
  5
2986
  8
0
 10
273.2686286471544
 20
126.70099847987331
 30
0.0
  0
VERTEX
  5
2987
  8
0
 10
273.08658981764842
 20
126.7094092236172
 30
0.0
  0
VERTEX
  5
2988
  8
0
 10
272.89899951427719
 20
126.7181136057898
 30
0.0
  0
VERTEX
  5
2989
  8
0
 10
272.50721565739661
 20
126.73643191481921
 30
0.0
  0
VERTEX
  5
298A
  8
0
 10
272.09337960652363
 20
126.75601219040379
 30
0.0
  0
VERTEX
  5
298B
  8
0
 10
271.65759419720911
 20
126.7769156764594
 30
0.0
  0
VERTEX
  5
298C
  8
0
 10
271.19996257198858
 20
126.7992061129377
 30
0.0
  0
VERTEX
  5
298D
  8
0
 10
270.72058817299092
 20
126.8229497792006
 30
0.0
  0
VERTEX
  5
298E
  8
0
 10
270.4727798373512
 20
126.8353879927422
 30
0.0
  0
VERTEX
  5
298F
  8
0
 10
270.21957472691059
 20
126.84821554585049
 30
0.0
  0
VERTEX
  5
2990
  8
0
 10
269.69702622345062
 20
126.8750749357327
 30
0.0
  0
VERTEX
  5
2991
  8
0
 10
269.15304688826131
 20
126.9036021948977
 30
0.0
  0
VERTEX
  5
2992
  8
0
 10
268.8730532861041
 20
126.9185152418718
 30
0.0
  0
SEQEND
  5
2993
  8
0
  0
POLYLINE
  5
17A3
  8
0
 66
     1
 10
0.0
 20
0.0
 30
0.0
  0
VERTEX
  5
2994
  8
0
 10
265.2388328900808
 20
126.5832758098923
 30
0.0
  0
VERTEX
  5
2995
  8
0
 10
265.55946307280129
 20
126.6345680179278
 30
0.0
  0
VERTEX
  5
2996
  8
0
 10
266.1939876735247
 20
126.7583241988807
 30
0.0
  0
VERTEX
  5
2997
  8
0
 10
266.82001264847321
 20
126.9116265726291
 30
0.0
  0
VERTEX
  5
2998
  8
0
 10
267.13001096136168
 20
126.9999061981822
 30
0.0
  0
VERTEX
  5
2999
  8
0
 10
267.43793250268862
 20
127.0962108161266
 30
0.0
  0
VERTEX
  5
299A
  8
0
 10
268.038527413238
 20
127.3103211654728
 30
0.0
  0
VERTEX
  5
299B
  8
0
 10
268.61653941696687
 20
127.5517857569868
 30
0.0
  0
VERTEX
  5
299C
  8
0
 10
269.17253606256389
 20
127.81996472141719
 30
0.0
  0
VERTEX
  5
299D
  8
0
 10
269.70710033202568
 20
128.11419710795951
 30
0.0
  0
VERTEX
  5
299E
  8
0
 10
270.22081095945049
 20
128.43381504553281
 30
0.0
  0
VERTEX
  5
299F
  8
0
 10
270.47002077141701
 20
128.60293542322799
 30
0.0
  0
VERTEX
  5
29A0
  8
0
 10
270.71422216196169
 20
128.77815333568549
 30
0.0
  0
VERTEX
  5
29A1
  8
0
 10
271.18784854576398
 20
129.14655632723401
 30
0.0
  0
VERTEX
  5
29A2
  8
0
 10
271.6427431755414
 20
129.53891597890819
 30
0.0
  0
VERTEX
  5
29A3
  8
0
 10
272.07968424599841
 20
129.9551406944145
 30
0.0
  0
VERTEX
  5
29A4
  8
0
 10
272.49872218673841
 20
130.3945908298827
 30
0.0
  0
VERTEX
  5
29A5
  8
0
 10
272.89989655912967
 20
130.85661964151271
 30
0.0
  0
VERTEX
  5
29A6
  8
0
 10
273.09379360063201
 20
131.09589906671539
 30
0.0
  0
VERTEX
  5
29A7
  8
0
 10
273.2832333352805
 20
131.3405816351472
 30
0.0
  0
VERTEX
  5
29A8
  8
0
 10
273.64874326836627
 20
131.8458401921105
 30
0.0
  0
VERTEX
  5
29A9
  8
0
 10
273.99642012231078
 20
132.37177307098301
 30
0.0
  0
VERTEX
  5
29AA
  8
0
 10
274.163563883417
 20
132.64230228191281
 30
0.0
  0
SEQEND
  5
29AB
  8
0
  0
POLYLINE
  5
17A5
  8
0
 66
     1
 10
0.0
 20
0.0
 30
0.0
  0
VERTEX
  5
29AC
  8
0
 10
268.87305328535751
 20
126.9185152418261
 30
0.0
  0
VERTEX
  5
29AD
  8
0
 10
268.37995142413251
 20
126.83768780991591
 30
0.0
  0
VERTEX
  5
29AE
  8
0
 10
267.42654057728072
 20
126.7064461229246
 30
0.0
  0
VERTEX
  5
29AF
  8
0
 10
266.90088752477288
 20
126.64789322967211
 30
0.0
  0
VERTEX
  5
29B0
  8
0
 10
266.75729217341592
 20
126.633624265892
 30
0.0
  0
VERTEX
  5
29B1
  8
0
 10
266.61754618962971
 20
126.6204713262954
 30
0.0
  0
VERTEX
  5
29B2
  8
0
 10
266.54927684873383
 20
126.61431517716341
 30
0.0
  0
VERTEX
  5
29B3
  8
0
 10
266.48216280259538
 20
126.60843978500689
 30
0.0
  0
VERTEX
  5
29B4
  8
0
 10
266.3516612379882
 20
126.59753185940561
 30
0.0
  0
VERTEX
  5
29B5
  8
0
 10
266.2265653383181
 20
126.5877473472995
 30
0.0
  0
VERTEX
  5
29B6
  8
0
 10
266.1662088779288
 20
126.5832758098923
 30
0.0
  0
SEQEND
  5
29B7
  8
0
  0
POLYLINE
  5
17A9
  8
0
 66
     1
 10
0.0
 20
0.0
 30
0.0
  0
VERTEX
  5
29B8
  8
0
 10
266.16620887792891
 20
141.58327580989231
 30
0.0
  0
VERTEX
  5
29B9
  8
0
 10
266.22663966700043
 20
141.5787986630373
 30
0.0
  0
VERTEX
  5
29BA
  8
0
 10
266.35440821399368
 20
141.56879737145761
 30
0.0
  0
VERTEX
  5
29BB
  8
0
 10
266.49159887134368
 20
141.55729648501449
 30
0.0
  0
VERTEX
  5
29BC
  8
0
 10
266.56338862127268
 20
141.55097865461511
 30
0.0
  0
VERTEX
  5
29BD
  8
0
 10
266.636283826382
 20
141.5443594142501
 30
0.0
  0
VERTEX
  5
29BE
  8
0
 10
266.78481416546708
 20
141.53025112636661
 30
0.0
  0
VERTEX
  5
29BF
  8
0
 10
266.93615405443433
 20
141.51503904814211
 30
0.0
  0
VERTEX
  5
29C0
  8
0
 10
267.47353297765079
 20
141.45439396843921
 30
0.0
  0
VERTEX
  5
29C1
  8
0
 10
268.3980235767541
 20
141.3260602159335
 30
0.0
  0
VERTEX
  5
29C2
  8
0
 10
268.8730532856377
 20
141.2480363779099
 30
0.0
  0
SEQEND
  5
29C3
  8
0
  0
ARC
  5
17AE
  8
0
 10
151.6105039242068
 20
129.76035438867831
 30
0.0
 40
11.99999999999997
 50
99.959293756327824
 51
151.29339469658839
  0
POLYLINE
  5
17AF
  8
0
 66
     1
 10
0.0
 20
0.0
 30
0.0
  0
VERTEX
  5
29C4
  8
0
 10
149.53512229169289
 20
141.5795248790055
 30
0.0
  0
VERTEX
  5
29C5
  8
0
 10
149.53894408415491
 20
141.57943113137631
 30
0.0
  0
VERTEX
  5
29C6
  8
0
 10
149.5695008868104
 20
141.57868073271879
 30
0.0
  0
VERTEX
  5
29C7
  8
0
 10
149.6305699082109
 20
141.57717651362501
 30
0.0
  0
VERTEX
  5
29C8
  8
0
 10
149.67253205909699
 20
141.57613943391661
 30
0.0
  0
SEQEND
  5
29C9
  8
0
  0
LINE
  5
17B0
  8
0
 10
151.7112484008822
 20
135.52424977379971
 30
0.0
 11
141.08541437639889
 21
135.52424977379971
 31
0.0
  0
ARC
  5
17B1
  8
0
 10
151.6105039242068
 20
138.40619723110629
 30
0.0
 40
11.99999999999998
 50
208.70660525458391
 51
260.04070624367188
  0
LINE
  5
17B2
  8
0
 10
151.71124839535369
 20
132.6423018549545
 30
0.0
 11
141.08541437148691
 21
132.6423018549545
 31
0.0
  0
POLYLINE
  5
17B6
  8
0
 66
     1
 10
0.0
 20
0.0
 30
0.0
  0
VERTEX
  5
29CA
  8
0
 10
149.67253205907721
 20
126.59041218586761
 30
0.0
  0
VERTEX
  5
29CB
  8
0
 10
149.6305689849147
 20
126.58937508337181
 30
0.0
  0
VERTEX
  5
29CC
  8
0
 10
149.5694998843845
 20
126.5878708624239
 30
0.0
  0
VERTEX
  5
29CD
  8
0
 10
149.53894389749451
 20
126.587120483829
 30
0.0
  0
VERTEX
  5
29CE
  8
0
 10
149.53512229169289
 20
126.58702674077909
 30
0.0
  0
SEQEND
  5
29CF
  8
0
  0
POLYLINE
  5
17B8
  8
0
 66
     1
 10
0.0
 20
0.0
 30
0.0
  0
VERTEX
  5
29D0
  8
0
 10
149.6725320591064
 20
141.57613943391499
 30
0.0
  0
VERTEX
  5
29D1
  8
0
 10
149.7285782147153
 20
141.57369433306911
 30
0.0
  0
VERTEX
  5
29D2
  8
0
 10
149.86482737016379
 20
141.56785217462459
 30
0.0
  0
VERTEX
  5
29D3
  8
0
 10
150.0332396863011
 20
141.56069659282329
 30
0.0
  0
VERTEX
  5
29D4
  8
0
 10
150.12948969683211
 20
141.55660712660719
 30
0.0
  0
VERTEX
  5
29D5
  8
0
 10
150.23375960196441
 20
141.5521649549799
 30
0.0
  0
VERTEX
  5
29D6
  8
0
 10
150.46633064385409
 20
141.5421835846891
 30
0.0
  0
VERTEX
  5
29D7
  8
0
 10
150.73089498353639
 20
141.53066773196761
 30
0.0
  0
VERTEX
  5
29D8
  8
0
 10
151.0273930815533
 20
141.51752151889349
 30
0.0
  0
VERTEX
  5
29D9
  8
0
 10
151.3557634356977
 20
141.5026378573896
 30
0.0
  0
VERTEX
  5
29DA
  8
0
 10
151.71594244168571
 20
141.4858983353304
 30
0.0
  0
VERTEX
  5
29DB
  8
0
 10
151.90791968247689
 20
141.47679344779121
 30
0.0
  0
VERTEX
  5
29DC
  8
0
 10
152.1077055418873
 20
141.4671807646852
 30
0.0
  0
VERTEX
  5
29DD
  8
0
 10
152.53057671026289
 20
141.44636472631311
 30
0.0
  0
VERTEX
  5
29DE
  8
0
 10
152.98435783044351
 20
141.423306293737
 30
0.0
  0
VERTEX
  5
29DF
  8
0
 10
153.46886017245041
 20
141.39785015648729
 30
0.0
  0
VERTEX
  5
29E0
  8
0
 10
153.98389317179149
 20
141.3698299784642
 30
0.0
  0
VERTEX
  5
29E1
  8
0
 10
154.5292644210175
 20
141.3390681759935
 30
0.0
  0
VERTEX
  5
29E2
  8
0
 10
154.8132662672844
 20
141.32260052670529
 30
0.0
  0
VERTEX
  5
29E3
  8
0
 10
155.10477971027061
 20
141.3053756339142
 30
0.0
  0
VERTEX
  5
29E4
  8
0
 10
155.71024310250669
 20
141.26855135202709
 30
0.0
  0
VERTEX
  5
29E5
  8
0
 10
156.34545703037151
 20
141.2283820130406
 30
0.0
  0
VERTEX
  5
29E6
  8
0
 10
156.6741582858287
 20
141.2069727913663
 30
0.0
  0
SEQEND
  5
29E7
  8
0
  0
POLYLINE
  5
17B9
  8
0
 66
     1
 10
0.0
 20
0.0
 30
0.0
  0
VERTEX
  5
29E8
  8
0
 10
156.67415828647509
 20
141.20697279141109
 30
0.0
  0
VERTEX
  5
29E9
  8
0
 10
157.25194888757781
 20
141.30149757279031
 30
0.0
  0
VERTEX
  5
29EA
  8
0
 10
158.3743239696426
 20
141.45270354997919
 30
0.0
  0
VERTEX
  5
29EB
  8
0
 10
158.97320068053091
 20
141.51651216334429
 30
0.0
  0
VERTEX
  5
29EC
  8
0
 10
159.13337643696761
 20
141.53158690416521
 30
0.0
  0
VERTEX
  5
29ED
  8
0
 10
159.28797193911331
 20
141.54531787283801
 30
0.0
  0
VERTEX
  5
29EE
  8
0
 10
159.36305223538659
 20
141.5516898953382
 30
0.0
  0
VERTEX
  5
29EF
  8
0
 10
159.4365872963715
 20
141.5577385328767
 30
0.0
  0
VERTEX
  5
29F0
  8
0
 10
159.5788204245986
 20
141.56888232161521
 30
0.0
  0
VERTEX
  5
29F1
  8
0
 10
159.71426926638441
 20
141.57878221643529
 30
0.0
  0
VERTEX
  5
29F2
  8
0
 10
159.77932478888749
 20
141.58327580989231
 30
0.0
  0
SEQEND
  5
29F3
  8
0
  0
LINE
  5
17BA
  8
0
 10
159.77932478888749
 20
141.58327580989231
 30
0.0
 11
266.16620887792891
 21
141.58327580989231
 31
0.0
  0
POLYLINE
  5
17BB
  8
0
 66
     1
 10
0.0
 20
0.0
 30
0.0
  0
VERTEX
  5
29F4
  8
0
 10
160.81742565247399
 20
141.58327580989231
 30
0.0
  0
VERTEX
  5
29F5
  8
0
 10
160.46669161799349
 20
141.52875508897949
 30
0.0
  0
VERTEX
  5
29F6
  8
0
 10
159.7859063843064
 20
141.39838275906851
 30
0.0
  0
VERTEX
  5
29F7
  8
0
 10
159.1317273303213
 20
141.2399455438136
 30
0.0
  0
VERTEX
  5
29F8
  8
0
 10
158.8142527069582
 20
141.15034251779929
 30
0.0
  0
VERTEX
  5
29F9
  8
0
 10
158.50299316116511
 20
141.05388932803339
 30
0.0
  0
VERTEX
  5
29FA
  8
0
 10
157.8985279575295
 20
140.84063914033129
 30
0.0
  0
VERTEX
  5
29FB
  8
0
 10
157.3171450362737
 20
140.6005780898482
 30
0.0
  0
VERTEX
  5
29FC
  8
0
 10
156.7576723547599
 20
140.3340289302578
 30
0.0
  0
VERTEX
  5
29FD
  8
0
 10
156.2189020441923
 20
140.04119353589371
 30
0.0
  0
VERTEX
  5
29FE
  8
0
 10
155.69949595786181
 20
139.7220350544865
 30
0.0
  0
VERTEX
  5
29FF
  8
0
 10
155.44690644434331
 20
139.55269383763331
 30
0.0
  0
VERTEX
  5
2A00
  8
0
 10
155.19900512849239
 20
139.37691846432179
 30
0.0
  0
VERTEX
  5
2A01
  8
0
 10
154.7171066983521
 20
139.00628992479369
 30
0.0
  0
VERTEX
  5
2A02
  8
0
 10
154.2534900100008
 20
138.61059793605901
 30
0.0
  0
VERTEX
  5
2A03
  8
0
 10
153.80786800933049
 20
138.1902821555978
 30
0.0
  0
VERTEX
  5
2A04
  8
0
 10
153.38158914628491
 20
137.74751031740811
 30
0.0
  0
VERTEX
  5
2A05
  8
0
 10
152.97583860300821
 20
137.28485992218921
 30
0.0
  0
VERTEX
  5
2A06
  8
0
 10
152.7805194007602
 20
137.04641205999849
 30
0.0
  0
VERTEX
  5
2A07
  8
0
 10
152.59016729029059
 20
136.8033915285379
 30
0.0
  0
VERTEX
  5
2A08
  8
0
 10
152.22416812880081
 20
136.30415551775391
 30
0.0
  0
VERTEX
  5
2A09
  8
0
 10
151.87746910512331
 20
135.7881885591886
 30
0.0
  0
VERTEX
  5
2A0A
  8
0
 10
151.7112484008822
 20
135.52424977379971
 30
0.0
  0
SEQEND
  5
2A0B
  8
0
  0
POLYLINE
  5
17BD
  8
0
 66
     1
 10
0.0
 20
0.0
 30
0.0
  0
VERTEX
  5
2A0C
  8
0
 10
151.7112484008822
 20
135.5242497737998
 30
0.0
  0
VERTEX
  5
2A0D
  8
0
 10
151.66793981843759
 20
135.45156662519881
 30
0.0
  0
VERTEX
  5
2A0E
  8
0
 10
151.58819069707729
 20
135.30285189541431
 30
0.0
  0
VERTEX
  5
2A0F
  8
0
 10
151.51775663607731
 20
135.14996889833071
 30
0.0
  0
VERTEX
  5
2A10
  8
0
 10
151.4860908933212
 20
135.0720759372191
 30
0.0
  0
VERTEX
  5
2A11
  8
0
 10
151.45682343961849
 20
134.99327492757121
 30
0.0
  0
VERTEX
  5
2A12
  8
0
 10
151.40557616254301
 20
134.83312714563951
 30
0.0
  0
VERTEX
  5
2A13
  8
0
 10
151.36420348172641
 20
134.66988123820741
 30
0.0
  0
VERTEX
  5
2A14
  8
0
 10
151.33290277016141
 20
134.5038914276422
 30
0.0
  0
VERTEX
  5
2A15
  8
0
 10
151.31194952350509
 20
134.33619753277071
 30
0.0
  0
VERTEX
  5
2A16
  8
0
 10
151.3014684705966
 20
134.1678982391814
 30
0.0
  0
VERTEX
  5
2A17
  8
0
 10
151.3001500238816
 20
134.08366218466989
 30
0.0
  0
VERTEX
  5
2A18
  8
0
 10
151.3014439581562
 20
133.99944352236349
 30
0.0
  0
VERTEX
  5
2A19
  8
0
 10
151.31186279713731
 20
133.83128338550179
 30
0.0
  0
VERTEX
  5
2A1A
  8
0
 10
151.33271388931669
 20
133.66386785729799
 30
0.0
  0
VERTEX
  5
2A1B
  8
0
 10
151.36397748846571
 20
133.49769455684211
 30
0.0
  0
VERTEX
  5
2A1C
  8
0
 10
151.4053971439385
 20
133.3340496164769
 30
0.0
  0
VERTEX
  5
2A1D
  8
0
 10
151.4567058775491
 20
133.17360874248959
 30
0.0
  0
VERTEX
  5
2A1E
  8
0
 10
151.4860045132593
 20
133.09469783643789
 30
0.0
  0
VERTEX
  5
2A1F
  8
0
 10
151.51769932806059
 20
133.01671777086671
 30
0.0
  0
VERTEX
  5
2A20
  8
0
 10
151.5881785474993
 20
132.86372412291689
 30
0.0
  0
VERTEX
  5
2A21
  8
0
 10
151.66794514658821
 20
132.71497573920499
 30
0.0
  0
VERTEX
  5
2A22
  8
0
 10
151.71124839535369
 20
132.6423018549545
 30
0.0
  0
SEQEND
  5
2A23
  8
0
  0
LINE
  5
17BE
  8
0
 10
266.1662088779288
 20
126.5832758098923
 30
0.0
 11
159.77932478888749
 21
126.5832758098923
 31
0.0
  0
POLYLINE
  5
17BF
  8
0
 66
     1
 10
0.0
 20
0.0
 30
0.0
  0
VERTEX
  5
2A24
  8
0
 10
159.77932478888749
 20
126.5832758098923
 30
0.0
  0
VERTEX
  5
2A25
  8
0
 10
159.7118814345481
 20
126.58793764686671
 30
0.0
  0
VERTEX
  5
2A26
  8
0
 10
159.5719393514162
 20
126.5981911438093
 30
0.0
  0
VERTEX
  5
2A27
  8
0
 10
159.42563809563831
 20
126.6097015113474
 30
0.0
  0
VERTEX
  5
2A28
  8
0
 10
159.3502439929521
 20
126.6159348257919
 30
0.0
  0
VERTEX
  5
2A29
  8
0
 10
159.27342853669481
 20
126.622490662248
 30
0.0
  0
VERTEX
  5
2A2A
  8
0
 10
159.115753330605
 20
126.6365813770027
 30
0.0
  0
VERTEX
  5
2A2B
  8
0
 10
158.95304687812231
 20
126.651996476029
 30
0.0
  0
VERTEX
  5
2A2C
  8
0
 10
158.35004181847501
 20
126.7166809039643
 30
0.0
  0
VERTEX
  5
2A2D
  8
0
 10
157.24320481766961
 20
126.8663978449853
 30
0.0
  0
VERTEX
  5
2A2E
  8
0
 10
156.67415828633011
 20
126.9595788283987
 30
0.0
  0
SEQEND
  5
2A2F
  8
0
  0
POLYLINE
  5
17C0
  8
0
 66
     1
 10
0.0
 20
0.0
 30
0.0
  0
VERTEX
  5
2A30
  8
0
 10
156.6741582859409
 20
126.95957882842561
 30
0.0
  0
VERTEX
  5
2A31
  8
0
 10
156.3454849836219
 20
126.938171409286
 30
0.0
  0
VERTEX
  5
2A32
  8
0
 10
155.7103376227374
 20
126.8980061275965
 30
0.0
  0
VERTEX
  5
2A33
  8
0
 10
155.10495251511509
 20
126.8611862935192
 30
0.0
  0
VERTEX
  5
2A34
  8
0
 10
154.8134816795488
 20
126.8439637007919
 30
0.0
  0
VERTEX
  5
2A35
  8
0
 10
154.5295242586275
 20
126.8274983694311
 30
0.0
  0
VERTEX
  5
2A36
  8
0
 10
153.98424584531011
 20
126.79674116999691
 30
0.0
  0
VERTEX
  5
2A37
  8
0
 10
153.4693085572404
 20
126.76872542554931
 30
0.0
  0
VERTEX
  5
2A38
  8
0
 10
152.98490188319619
 20
126.7432734242321
 30
0.0
  0
VERTEX
  5
2A39
  8
0
 10
152.5312134691099
 20
126.7202187239959
 30
0.0
  0
VERTEX
  5
2A3A
  8
0
 10
152.1084291166373
 20
126.6994059267295
 30
0.0
  0
VERTEX
  5
2A3B
  8
0
 10
151.90868353595511
 20
126.68979465664459
 30
0.0
  0
VERTEX
  5
2A3C
  8
0
 10
151.71673284528009
 20
126.6806905078319
 30
0.0
  0
VERTEX
  5
2A3D
  8
0
 10
151.3563925469019
 20
126.66394261770429
 30
0.0
  0
VERTEX
  5
2A3E
  8
0
 10
151.0278588820031
 20
126.64905096705149
 30
0.0
  0
VERTEX
  5
2A3F
  8
0
 10
150.73122657988071
 20
126.6358984431162
 30
0.0
  0
VERTEX
  5
2A40
  8
0
 10
150.46655466369671
 20
126.624377708322
 30
0.0
  0
VERTEX
  5
2A41
  8
0
 10
150.23390014282211
 20
126.6143926635832
 30
0.0
  0
VERTEX
  5
2A42
  8
0
 10
150.12959672728499
 20
126.6099490453792
 30
0.0
  0
VERTEX
  5
2A43
  8
0
 10
150.03331825290951
 20
126.6058583626554
 30
0.0
  0
VERTEX
  5
2A44
  8
0
 10
149.86486280036129
 20
126.5987009544079
 30
0.0
  0
VERTEX
  5
2A45
  8
0
 10
149.72858659411239
 20
126.5928576496201
 30
0.0
  0
VERTEX
  5
2A46
  8
0
 10
149.67253205908349
 20
126.5904121858686
 30
0.0
  0
SEQEND
  5
2A47
  8
0
  0
POLYLINE
  5
17C2
  8
0
 66
     1
 10
0.0
 20
0.0
 30
0.0
  0
VERTEX
  5
2A48
  8
0
 10
151.71124839535381
 20
132.6423018549545
 30
0.0
  0
VERTEX
  5
2A49
  8
0
 10
151.88668465355789
 20
132.36405797436899
 30
0.0
  0
VERTEX
  5
2A4A
  8
0
 10
152.2514649409747
 20
131.82362292756741
 30
0.0
  0
VERTEX
  5
2A4B
  8
0
 10
152.63484354717281
 20
131.30514582773679
 30
0.0
  0
VERTEX
  5
2A4C
  8
0
 10
152.83353308277589
 20
131.05435385020559
 30
0.0
  0
VERTEX
  5
2A4D
  8
0
 10
153.03690582475261
 20
130.80930848469899
 30
0.0
  0
VERTEX
  5
2A4E
  8
0
 10
153.45775715613561
 20
130.3368096557266
 30
0.0
  0
VERTEX
  5
2A4F
  8
0
 10
153.89752075628709
 20
129.88835828788319
 30
0.0
  0
VERTEX
  5
2A50
  8
0
 10
154.35633509736559
 20
129.4646641241159
 30
0.0
  0
VERTEX
  5
2A51
  8
0
 10
154.8343410721881
 20
129.06643375629881
 30
0.0
  0
VERTEX
  5
2A52
  8
0
 10
155.3302253509296
 20
128.6953812209297
 30
0.0
  0
VERTEX
  5
2A53
  8
0
 10
155.584531519861
 20
128.52039928534231
 30
0.0
  0
VERTEX
  5
2A54
  8
0
 10
155.84312076450189
 20
128.3524462252509
 30
0.0
  0
VERTEX
  5
2A55
  8
0
 10
156.3732708563652
 20
128.03763215504659
 30
0.0
  0
VERTEX
  5
2A56
  8
0
 10
156.92091226711511
 20
127.7509535275078
 30
0.0
  0
VERTEX
  5
2A57
  8
0
 10
157.48625842036901
 20
127.49241523645929
 30
0.0
  0
VERTEX
  5
2A58
  8
0
 10
158.06949308771661
 20
127.2619881871384
 30
0.0
  0
VERTEX
  5
2A59
  8
0
 10
158.66539718896999
 20
127.06124811473821
 30
0.0
  0
VERTEX
  5
2A5A
  8
0
 10
158.9662908019977
 20
126.9722184479652
 30
0.0
  0
VERTEX
  5
2A5B
  8
0
 10
159.26923906094169
 20
126.89044065669241
 30
0.0
  0
VERTEX
  5
2A5C
  8
0
 10
159.88159485892729
 20
126.7477967556033
 30
0.0
  0
VERTEX
  5
2A5D
  8
0
 10
160.50307132608381
 20
126.63175543415061
 30
0.0
  0
VERTEX
  5
2A5E
  8
0
 10
160.81742565247399
 20
126.5832758098923
 30
0.0
  0
SEQEND
  5
2A5F
  8
0
  0
LINE
  5
17E6
  8
1
 10
152.71668669893441
 20
119.0628947302921
 30
0.0
 11
152.71668669893441
 21
149.1036568894925
 31
0.0
  0
LINE
  5
17E7
  8
1
 10
133.05713317407589
 20
134.08327582806061
 30
0.0
 11
292.88840049274052
 21
134.08327582806049
 31
0.0
  0
LINE
  5
17E8
  8
1
 10
272.71668669893438
 20
119.0628947302921
 30
0.0
 11
272.71668669893438
 21
149.1036568894925
 31
0.0
  0
LINE
  5
17F0
  8
2
 10
60.747406160295441
 20
52.345610405767729
 30
0.0
 11
58.680406160295433
 21
53.538993412182663
 31
0.0
  0
LINE
  5
17F1
  8
2
 10
58.680406160295433
 20
53.538993412182663
 30
0.0
 11
56.613406160295419
 21
52.345610405767729
 31
0.0
  0
LINE
  5
17F2
  8
2
 10
60.747406160295441
 20
40.778610405767722
 30
0.0
 11
60.747406160295441
 21
52.345610405767729
 31
0.0
  0
LINE
  5
17F3
  8
2
 10
56.613406160295419
 20
52.345610405767729
 30
0.0
 11
56.613406160295419
 21
40.778610405767722
 31
0.0
  0
LINE
  5
17F4
  8
2
 10
61.170406160295443
 20
40.35561040576772
 30
0.0
 11
60.747406160295441
 21
40.778610405767722
 31
0.0
  0
LINE
  5
17F5
  8
2
 10
56.613406160295419
 20
40.778610405767722
 30
0.0
 11
56.190406160295417
 21
40.35561040576772
 31
0.0
  0
ARC
  5
17F6
  8
0
 10
58.680406160295433
 20
70.753337678495029
 30
0.0
 40
11.602272727272711
 50
49.727393143504003
 51
130.272606856496
  0
ARC
  5
17F7
  8
2
 10
58.680406160295433
 20
78.889701314858655
 30
0.0
 40
7.5340909090909056
 50
185.4526219878143
 51
354.54737801218562
  0
LINE
  5
17FC
  8
0
 10
60.121379711254583
 20
77.972885265843331
 30
0.0
 11
60.121379711254583
 21
40.35561040576772
 31
0.0
  0
LINE
  5
17FD
  8
2
 10
56.613406160295419
 20
52.345610405767729
 30
0.0
 11
60.747406160295441
 21
52.345610405767729
 31
0.0
  0
LINE
  5
17FE
  8
2
 10
56.613406160295419
 20
40.778610405767722
 30
0.0
 11
60.747406160295441
 21
40.778610405767722
 31
0.0
  0
LINE
  5
17FF
  8
0
 10
66.180406160295433
 20
74.898944159049051
 30
0.0
 11
66.180406160295433
 21
79.605610405767607
 31
0.0
  0
LINE
  5
1800
  8
0
 10
51.180406160295433
 20
74.898944159049051
 30
0.0
 11
51.180406160295433
 21
79.605610405767607
 31
0.0
  0
LINE
  5
1802
  8
0
 10
57.239432632315861
 20
77.972885266798812
 30
0.0
 11
57.239432632315861
 21
40.35561040576772
 31
0.0
  0
LINE
  5
1803
  8
0
 10
66.176655229408652
 20
40.35561040576772
 30
0.0
 11
51.184157091182207
 21
40.35561040576772
 31
0.0
  0
POLYLINE
  5
1805
  8
0
 66
     1
 10
0.0
 20
0.0
 30
0.0
  0
VERTEX
  5
2A60
  8
0
 10
57.239432632315932
 20
77.972885266798869
 30
0.0
  0
VERTEX
  5
2A61
  8
0
 10
57.312330011675947
 20
77.97588358489196
 30
0.0
  0
VERTEX
  5
2A62
  8
0
 10
57.461396391546373
 20
77.981758347301593
 30
0.0
  0
VERTEX
  5
2A63
  8
0
 10
57.614523211567807
 20
77.987328724649331
 30
0.0
  0
VERTEX
  5
2A64
  8
0
 10
57.692495679981299
 20
77.989949869071893
 30
0.0
  0
VERTEX
  5
2A65
  8
0
 10
57.77134686573077
 20
77.992436934197599
 30
0.0
  0
VERTEX
  5
2A66
  8
0
 10
57.931503689068563
 20
77.996940776529186
 30
0.0
  0
VERTEX
  5
2A67
  8
0
 10
58.09463110140711
 20
78.00071492430942
 30
0.0
  0
VERTEX
  5
2A68
  8
0
 10
58.26036771233148
 20
78.003652060646857
 30
0.0
  0
VERTEX
  5
2A69
  8
0
 10
58.427820853733209
 20
78.005659139284489
 30
0.0
  0
VERTEX
  5
2A6A
  8
0
 10
58.595866650693146
 20
78.006675399819642
 30
0.0
  0
VERTEX
  5
2A6B
  8
0
 10
58.67997216057649
 20
78.006803918487549
 30
0.0
  0
VERTEX
  5
2A6C
  8
0
 10
58.76405899358047
 20
78.006678080916799
 30
0.0
  0
VERTEX
  5
2A6D
  8
0
 10
58.931955356499628
 20
78.005668488829656
 30
0.0
  0
VERTEX
  5
2A6E
  8
0
 10
59.09911319186142
 20
78.003671871804954
 30
0.0
  0
VERTEX
  5
2A6F
  8
0
 10
59.265060274579319
 20
78.000737882168664
 30
0.0
  0
VERTEX
  5
2A70
  8
0
 10
59.42861751270658
 20
77.996958542298444
 30
0.0
  0
VERTEX
  5
2A71
  8
0
 10
59.589092100086127
 20
77.992448302039733
 30
0.0
  0
VERTEX
  5
2A72
  8
0
 10
59.668063297742783
 20
77.989958129130287
 30
0.0
  0
VERTEX
  5
2A73
  8
0
 10
59.746131540757183
 20
77.98733417630342
 30
0.0
  0
VERTEX
  5
2A74
  8
0
 10
59.899382114872203
 20
77.981759633598699
 30
0.0
  0
VERTEX
  5
2A75
  8
0
 10
60.048489771313882
 20
77.975883281613847
 30
0.0
  0
VERTEX
  5
2A76
  8
0
 10
60.121379711254399
 20
77.972885265843374
 30
0.0
  0
SEQEND
  5
2A77
  8
0
  0
POLYLINE
  5
1807
  8
0
 66
     1
 10
0.0
 20
0.0
 30
0.0
  0
VERTEX
  5
2A78
  8
0
 10
60.121379711254583
 20
77.972885265843374
 30
0.0
  0
VERTEX
  5
2A79
  8
0
 10
60.397724344557098
 20
77.958497760471516
 30
0.0
  0
VERTEX
  5
2A7A
  8
0
 10
60.934633189669427
 20
77.913951387665293
 30
0.0
  0
VERTEX
  5
2A7B
  8
0
 10
61.449959433295589
 20
77.850497153523122
 30
0.0
  0
VERTEX
  5
2A7C
  8
0
 10
61.699321650232662
 20
77.812469785461246
 30
0.0
  0
VERTEX
  5
2A7D
  8
0
 10
61.943037152144093
 20
77.770664122110588
 30
0.0
  0
VERTEX
  5
2A7E
  8
0
 10
62.41318471794807
 20
77.676994078243013
 30
0.0
  0
VERTEX
  5
2A7F
  8
0
 10
62.859711134116417
 20
77.57206962686115
 30
0.0
  0
VERTEX
  5
2A80
  8
0
 10
63.28192459459995
 20
77.458535668053173
 30
0.0
  0
VERTEX
  5
2A81
  8
0
 10
63.679136360440403
 20
77.339115728891954
 30
0.0
  0
VERTEX
  5
2A82
  8
0
 10
64.049853478745774
 20
77.216900238731398
 30
0.0
  0
VERTEX
  5
2A83
  8
0
 10
64.224957947113225
 20
77.155705029012552
 30
0.0
  0
VERTEX
  5
2A84
  8
0
 10
64.39320739578514
 20
77.094921249632591
 30
0.0
  0
VERTEX
  5
2A85
  8
0
 10
64.709078440052281
 20
76.975999858691011
 30
0.0
  0
VERTEX
  5
2A86
  8
0
 10
64.997338238515795
 20
76.862956790669841
 30
0.0
  0
VERTEX
  5
2A87
  8
0
 10
65.257866402212514
 20
76.758588540575943
 30
0.0
  0
VERTEX
  5
2A88
  8
0
 10
65.490570667663775
 20
76.665628180534668
 30
0.0
  0
VERTEX
  5
2A89
  8
0
 10
65.694027873546531
 20
76.587206808043106
 30
0.0
  0
VERTEX
  5
2A8A
  8
0
 10
65.784435840185836
 20
76.554297587084136
 30
0.0
  0
VERTEX
  5
2A8B
  8
0
 10
65.86757088693912
 20
76.525810608635766
 30
0.0
  0
VERTEX
  5
2A8C
  8
0
 10
66.012773545295772
 20
76.482665157793804
 30
0.0
  0
VERTEX
  5
2A8D
  8
0
 10
66.131015574379774
 20
76.458734519568154
 30
0.0
  0
VERTEX
  5
2A8E
  8
0
 10
66.180406160295433
 20
76.454207811762444
 30
0.0
  0
SEQEND
  5
2A8F
  8
0
  0
POLYLINE
  5
180B
  8
0
 66
     1
 10
0.0
 20
0.0
 30
0.0
  0
VERTEX
  5
2A90
  8
0
 10
51.180406160295462
 20
76.454207811762444
 30
0.0
  0
VERTEX
  5
2A91
  8
0
 10
51.23169836833096
 20
76.458991500298225
 30
0.0
  0
VERTEX
  5
2A92
  8
0
 10
51.355454549283962
 20
76.484583601255792
 30
0.0
  0
VERTEX
  5
2A93
  8
0
 10
51.508756923032301
 20
76.530966473539706
 30
0.0
  0
VERTEX
  5
2A94
  8
0
 10
51.597036548585351
 20
76.561666461860341
 30
0.0
  0
VERTEX
  5
2A95
  8
0
 10
51.693341166529763
 20
76.597159077129277
 30
0.0
  0
VERTEX
  5
2A96
  8
0
 10
51.907451515875948
 20
76.680359576855153
 30
0.0
  0
VERTEX
  5
2A97
  8
0
 10
52.148916107389987
 20
76.777063707925436
 30
0.0
  0
VERTEX
  5
2A98
  8
0
 10
52.417095071820363
 20
76.884241176031878
 30
0.0
  0
VERTEX
  5
2A99
  8
0
 10
52.711327458362767
 20
76.998878065910503
 30
0.0
  0
VERTEX
  5
2A9A
  8
0
 10
53.030945395936072
 20
77.118025853986126
 30
0.0
  0
VERTEX
  5
2A9B
  8
0
 10
53.200065773631252
 20
77.178395645397245
 30
0.0
  0
VERTEX
  5
2A9C
  8
0
 10
53.375283686088657
 20
77.238831945508878
 30
0.0
  0
VERTEX
  5
2A9D
  8
0
 10
53.743686677637129
 20
77.358555036832001
 30
0.0
  0
VERTEX
  5
2A9E
  8
0
 10
54.136046329311462
 20
77.474718241212827
 30
0.0
  0
VERTEX
  5
2A9F
  8
0
 10
54.552271044817701
 20
77.584883999859926
 30
0.0
  0
VERTEX
  5
2AA0
  8
0
 10
54.991721180285793
 20
77.686510409991456
 30
0.0
  0
VERTEX
  5
2AA1
  8
0
 10
55.453749991915863
 20
77.777124297855607
 30
0.0
  0
VERTEX
  5
2AA2
  8
0
 10
55.693029417118566
 20
77.8175442228262
 30
0.0
  0
VERTEX
  5
2AA3
  8
0
 10
55.937711985550322
 20
77.854307510039916
 30
0.0
  0
VERTEX
  5
2AA4
  8
0
 10
56.44297054251367
 20
77.915677194229829
 30
0.0
  0
VERTEX
  5
2AA5
  8
0
 10
56.968903421386187
 20
77.958860241509967
 30
0.0
  0
VERTEX
  5
2AA6
  8
0
 10
57.239432632315932
 20
77.972885266798869
 30
0.0
  0
SEQEND
  5
2AA7
  8
0
  0
POLYLINE
  5
180D
  8
0
 66
     1
 10
0.0
 20
0.0
 30
0.0
  0
VERTEX
  5
2AA8
  8
0
 10
51.515645592229248
 20
72.929884839155704
 30
0.0
  0
VERTEX
  5
2AA9
  8
0
 10
51.434818160319168
 20
73.260819415825551
 30
0.0
  0
VERTEX
  5
2AAA
  8
0
 10
51.30357647332783
 20
73.920210686294183
 30
0.0
  0
VERTEX
  5
2AAB
  8
0
 10
51.245023580075269
 20
74.304409975318549
 30
0.0
  0
VERTEX
  5
2AAC
  8
0
 10
51.230754616295172
 20
74.413767965789987
 30
0.0
  0
VERTEX
  5
2AAD
  8
0
 10
51.217601676698621
 20
74.522699366434324
 30
0.0
  0
VERTEX
  5
2AAE
  8
0
 10
51.211445527566497
 20
74.576967808164341
 30
0.0
  0
VERTEX
  5
2AAF
  8
0
 10
51.205570135410063
 20
74.631085791954661
 30
0.0
  0
VERTEX
  5
2AB0
  8
0
 10
51.194662209808769
 20
74.73881564941081
 30
0.0
  0
VERTEX
  5
2AB1
  8
0
 10
51.184877697702682
 20
74.845781360901185
 30
0.0
  0
VERTEX
  5
2AB2
  8
0
 10
51.180406160295433
 20
74.898944159049051
 30
0.0
  0
SEQEND
  5
2AB3
  8
0
  0
POLYLINE
  5
1811
  8
0
 66
     1
 10
0.0
 20
0.0
 30
0.0
  0
VERTEX
  5
2AB4
  8
0
 10
66.180406160295433
 20
74.898944159049051
 30
0.0
  0
VERTEX
  5
2AB5
  8
0
 10
66.175929013440424
 20
74.845716562822076
 30
0.0
  0
VERTEX
  5
2AB6
  8
0
 10
66.165927721860783
 20
74.736510325059271
 30
0.0
  0
VERTEX
  5
2AB7
  8
0
 10
66.154426835417723
 20
74.623427989448601
 30
0.0
  0
VERTEX
  5
2AB8
  8
0
 10
66.148109005018284
 20
74.565688107023774
 30
0.0
  0
VERTEX
  5
2AB9
  8
0
 10
66.141489764653215
 20
74.507932246590073
 30
0.0
  0
VERTEX
  5
2ABA
  8
0
 10
66.127381476769756
 20
74.392620696913582
 30
0.0
  0
VERTEX
  5
2ABB
  8
0
 10
66.112169398545234
 20
74.277899035003074
 30
0.0
  0
VERTEX
  5
2ABC
  8
0
 10
66.051524318842382
 20
73.886800708918031
 30
0.0
  0
VERTEX
  5
2ABD
  8
0
 10
65.923190566336672
 20
73.248602264439342
 30
0.0
  0
VERTEX
  5
2ABE
  8
0
 10
65.845166728313103
 20
72.92988483896886
 30
0.0
  0
SEQEND
  5
2ABF
  8
0
  0
LINE
  5
1832
  8
2
 10
61.180406160295433
 20
40.35561040576772
 30
0.0
 11
61.180406160295433
 21
50.35561040576772
 31
0.0
  0
LINE
  5
1833
  8
2
 10
61.180406160295433
 20
50.35561040576772
 30
0.0
 11
56.180406160295433
 21
50.35561040576772
 31
0.0
  0
LINE
  5
1834
  8
2
 10
56.180406160295433
 20
40.35561040576772
 30
0.0
 11
56.180406160295433
 21
50.35561040576772
 31
0.0
  0
LINE
  5
1836
  8
1
 10
58.680406160295441
 20
90.340480411594172
 30
0.0
 11
58.680406160295433
 21
32.370740399941269
 31
0.0
  0
ARC
  5
1839
  8
0
 10
175.96668669893421
 20
40.35561040576772
 30
0.0
 40
90.000000000000114
 50
0.0
 51
18.2865216996016
  0
ARC
  5
183A
  8
0
 10
249.46668669893509
 20
40.355610405767663
 30
0.0
 40
90.000000000000654
 50
161.71347830039841
 51
180.0
  0
ARC
  5
183B
  8
0
 10
200.96668669893589
 20
40.35561040576777
 30
0.0
 40
83.749999999998494
 50
0.0
 51
6.4507049390471707
  0
LINE
  5
183C
  8
2
 10
154.78368669893439
 20
52.345610405767779
 30
0.0
 11
152.71668669893441
 21
53.53899341218272
 31
0.0
  0
LINE
  5
183D
  8
2
 10
152.71668669893441
 20
53.53899341218272
 30
0.0
 11
150.64968669893429
 21
52.345610405767779
 31
0.0
  0
LINE
  5
183E
  8
2
 10
154.78368669893439
 20
40.778610405767772
 30
0.0
 11
154.78368669893439
 21
52.345610405767779
 31
0.0
  0
LINE
  5
183F
  8
2
 10
150.64968669893429
 20
52.345610405767779
 30
0.0
 11
150.64968669893429
 21
40.778610405767772
 31
0.0
  0
LINE
  5
1840
  8
2
 10
155.20668669893439
 20
40.35561040576777
 30
0.0
 11
154.78368669893439
 21
40.778610405767772
 31
0.0
  0
LINE
  5
1841
  8
2
 10
150.64968669893429
 20
40.778610405767772
 30
0.0
 11
150.22668669893429
 21
40.35561040576777
 31
0.0
  0
LINE
  5
1842
  8
2
 10
274.78368669893439
 20
52.345610405767779
 30
0.0
 11
272.71668669893438
 21
53.53899341218272
 31
0.0
  0
LINE
  5
1843
  8
2
 10
272.71668669893438
 20
53.53899341218272
 30
0.0
 11
270.64968669893437
 21
52.345610405767779
 31
0.0
  0
LINE
  5
1844
  8
2
 10
274.78368669893439
 20
40.778610405767772
 30
0.0
 11
274.78368669893439
 21
52.345610405767779
 31
0.0
  0
LINE
  5
1845
  8
2
 10
270.64968669893437
 20
52.345610405767779
 30
0.0
 11
270.64968669893437
 21
40.778610405767772
 31
0.0
  0
LINE
  5
1846
  8
2
 10
275.20668669893439
 20
40.35561040576777
 30
0.0
 11
274.78368669893439
 21
40.778610405767772
 31
0.0
  0
LINE
  5
1847
  8
2
 10
270.64968669893437
 20
40.778610405767772
 30
0.0
 11
270.22668669893437
 21
40.35561040576777
 31
0.0
  0
ARC
  5
1848
  8
0
 10
212.71668669893421
 20
-359.6443895942333
 30
0.0
 40
442.00000000000102
 50
81.956070352154086
 51
97.987175180744657
  0
ARC
  5
1849
  8
0
 10
201.36705824003801
 20
37.314486625813153
 30
0.0
 40
83.749999999999886
 50
8.5492950609526925
 51
29.070039841180101
  0
ARC
  5
184A
  8
0
 10
212.71668669893441
 20
-359.64438959422239
 30
0.0
 40
430.99999999999011
 50
83.511459142297994
 51
96.488540857701892
  0
ARC
  5
184B
  8
0
 10
224.46668669894601
 20
40.355610405767209
 30
0.0
 40
83.75000000001161
 50
176.2447297081074
 51
180.0
  0
ARC
  5
184C
  8
0
 10
214.4070568949403
 20
39.902677076838302
 30
0.0
 40
73.750000000000014
 50
148.83570061054289
 51
175.38171352465071
  0
LINE
  5
1853
  8
0
 10
284.71668669893438
 20
40.35561040576777
 30
0.0
 11
265.96668669893438
 21
40.35561040576777
 31
0.0
  0
LINE
  5
1855
  8
2
 10
150.64968669893429
 20
52.345610405767779
 30
0.0
 11
154.78368669893439
 21
52.345610405767779
 31
0.0
  0
LINE
  5
1856
  8
2
 10
150.64968669893429
 20
40.778610405767772
 30
0.0
 11
154.78368669893439
 21
40.778610405767772
 31
0.0
  0
LINE
  5
1857
  8
2
 10
270.64968669893437
 20
52.345610405767779
 30
0.0
 11
274.78368669893439
 21
52.345610405767779
 31
0.0
  0
LINE
  5
1858
  8
2
 10
270.64968669893437
 20
40.778610405767772
 30
0.0
 11
274.78368669893439
 21
40.778610405767772
 31
0.0
  0
ARC
  5
1859
  8
0
 10
212.71668669893421
 20
-359.64438959422608
 30
0.0
 40
439.2499999999938
 50
83.132578788623192
 51
96.785591934275047
  0
POLYLINE
  5
185C
  8
0
 66
     1
 10
0.0
 20
0.0
 30
0.0
  0
VERTEX
  5
2AC0
  8
0
 10
275.89825110617568
 20
40.35561040576777
 30
0.0
  0
VERTEX
  5
2AC1
  8
0
 10
275.88708998168022
 20
41.736242574932533
 30
0.0
  0
VERTEX
  5
2AC2
  8
0
 10
275.79788823294842
 20
44.494607374008922
 30
0.0
  0
VERTEX
  5
2AC3
  8
0
 10
275.61970611953001
 20
47.247298033032848
 30
0.0
  0
VERTEX
  5
2AC4
  8
0
 10
275.49731913500949
 20
48.620837466096589
 30
0.0
  0
SEQEND
  5
2AC5
  8
0
  0
POLYLINE
  5
185D
  8
0
 66
     1
 10
0.0
 20
0.0
 30
0.0
  0
VERTEX
  5
2AC6
  8
0
 10
274.163563883417
 20
77.972885266798869
 30
0.0
  0
VERTEX
  5
2AC7
  8
0
 10
274.1851347408068
 20
77.974387620057485
 30
0.0
  0
VERTEX
  5
2AC8
  8
0
 10
274.22658650634799
 20
77.977372912927592
 30
0.0
  0
VERTEX
  5
2AC9
  8
0
 10
274.26576708525448
 20
77.98031379333446
 30
0.0
  0
VERTEX
  5
2ACA
  8
0
 10
274.28449903216222
 20
77.981760819904764
 30
0.0
  0
VERTEX
  5
2ACB
  8
0
 10
274.30265523948219
 20
77.983188738034343
 30
0.0
  0
VERTEX
  5
2ACC
  8
0
 10
274.33722998442528
 20
77.985977082514239
 30
0.0
  0
VERTEX
  5
2ACD
  8
0
 10
274.36947051694028
 20
77.988659070664824
 30
0.0
  0
VERTEX
  5
2ACE
  8
0
 10
274.39935612861501
 20
77.991215901121848
 30
0.0
  0
VERTEX
  5
2ACF
  8
0
 10
274.4268661054702
 20
77.993629770378163
 30
0.0
  0
VERTEX
  5
2AD0
  8
0
 10
274.45197961549189
 20
77.995883912893703
 30
0.0
  0
VERTEX
  5
2AD1
  8
0
 10
274.4636311230704
 20
77.996946140476609
 30
0.0
  0
VERTEX
  5
2AD2
  8
0
 10
274.4746755855947
 20
77.997962638551883
 30
0.0
  0
VERTEX
  5
2AD3
  8
0
 10
274.49493256981458
 20
77.999851367925146
 30
0.0
  0
VERTEX
  5
2AD4
  8
0
 10
274.51272861070731
 20
78.001536665920582
 30
0.0
  0
VERTEX
  5
2AD5
  8
0
 10
274.52804109610793
 20
78.003006274470565
 30
0.0
  0
VERTEX
  5
2AD6
  8
0
 10
274.54084402416191
 20
78.004248892418502
 30
0.0
  0
VERTEX
  5
2AD7
  8
0
 10
274.55109059569799
 20
78.005252500767881
 30
0.0
  0
VERTEX
  5
2AD8
  8
0
 10
274.55525194456737
 20
78.005662399698565
 30
0.0
  0
VERTEX
  5
2AD9
  8
0
 10
274.55877238441673
 20
78.006010211575074
 30
0.0
  0
VERTEX
  5
2ADA
  8
0
 10
274.56389161276678
 20
78.006517687269081
 30
0.0
  0
VERTEX
  5
2ADB
  8
0
 10
274.56645032313992
 20
78.006772093911252
 30
0.0
  0
VERTEX
  5
2ADC
  8
0
 10
274.5667700774253
 20
78.006803921875701
 30
0.0
  0
SEQEND
  5
2ADD
  8
0
  0
POLYLINE
  5
1864
  8
0
 66
     1
 10
0.0
 20
0.0
 30
0.0
  0
VERTEX
  5
2ADE
  8
0
 10
275.49731913500949
 20
48.620837466096589
 30
0.0
  0
VERTEX
  5
2ADF
  8
0
 10
275.41190400842049
 20
49.317754137651548
 30
0.0
  0
VERTEX
  5
2AE0
  8
0
 10
275.22387447143097
 20
50.709352165653968
 30
0.0
  0
VERTEX
  5
2AE1
  8
0
 10
275.01294214579542
 20
52.097739348421953
 30
0.0
  0
VERTEX
  5
2AE2
  8
0
 10
274.89889859161087
 20
52.790642462512722
 30
0.0
  0
VERTEX
  5
2AE3
  8
0
 10
274.77914275782382
 20
53.482639173879242
 30
0.0
  0
VERTEX
  5
2AE4
  8
0
 10
274.52251229155172
 20
54.863775141910139
 30
0.0
  0
VERTEX
  5
2AE5
  8
0
 10
274.24308697756931
 20
56.240870775617907
 30
0.0
  0
VERTEX
  5
2AE6
  8
0
 10
273.94090326208362
 20
57.61364962567103
 30
0.0
  0
VERTEX
  5
2AE7
  8
0
 10
273.61600081995232
 20
58.981822831122429
 30
0.0
  0
VERTEX
  5
2AE8
  8
0
 10
273.2686286471544
 20
60.344311621723762
 30
0.0
  0
VERTEX
  5
2AE9
  8
0
 10
273.08658981764842
 20
61.023160336689159
 30
0.0
  0
VERTEX
  5
2AEA
  8
0
 10
272.89899951427708
 20
61.700367983242749
 30
0.0
  0
VERTEX
  5
2AEB
  8
0
 10
272.5072156573965
 20
63.049728227800578
 30
0.0
  0
VERTEX
  5
2AEC
  8
0
 10
272.09337960652363
 20
64.392128682192208
 30
0.0
  0
VERTEX
  5
2AED
  8
0
 10
271.65759419720911
 20
65.727305708491883
 30
0.0
  0
VERTEX
  5
2AEE
  8
0
 10
271.19996257198858
 20
67.054995720503882
 30
0.0
  0
VERTEX
  5
2AEF
  8
0
 10
270.72058817299092
 20
68.37493519517335
 30
0.0
  0
VERTEX
  5
2AF0
  8
0
 10
270.4727798373512
 20
69.031916148813877
 30
0.0
  0
VERTEX
  5
2AF1
  8
0
 10
270.21957472691059
 20
69.686860678137862
 30
0.0
  0
VERTEX
  5
2AF2
  8
0
 10
269.69702622345062
 20
70.990508782652398
 30
0.0
  0
VERTEX
  5
2AF3
  8
0
 10
269.15304688826131
 20
72.285616181147532
 30
0.0
  0
VERTEX
  5
2AF4
  8
0
 10
268.87305328610398
 20
72.929884838065334
 30
0.0
  0
SEQEND
  5
2AF5
  8
0
  0
ARC
  5
1865
  8
0
 10
201.36705824005421
 20
37.314486625823548
 30
0.0
 40
74.910088582625463
 50
30.114361805905158
 51
31.499378722239381
  0
POLYLINE
  5
1866
  8
0
 66
     1
 10
0.0
 20
0.0
 30
0.0
  0
VERTEX
  5
2AF6
  8
0
 10
265.2388328900808
 20
76.454207811762501
 30
0.0
  0
VERTEX
  5
2AF7
  8
0
 10
265.55946307280129
 20
76.458991500298282
 30
0.0
  0
VERTEX
  5
2AF8
  8
0
 10
266.1939876735247
 20
76.484583601255792
 30
0.0
  0
VERTEX
  5
2AF9
  8
0
 10
266.82001264847321
 20
76.530966473539763
 30
0.0
  0
VERTEX
  5
2AFA
  8
0
 10
267.13001096136168
 20
76.561666461860398
 30
0.0
  0
VERTEX
  5
2AFB
  8
0
 10
267.43793250268862
 20
76.597159077129334
 30
0.0
  0
VERTEX
  5
2AFC
  8
0
 10
268.038527413238
 20
76.68035957685521
 30
0.0
  0
VERTEX
  5
2AFD
  8
0
 10
268.61653941696687
 20
76.777063707925493
 30
0.0
  0
VERTEX
  5
2AFE
  8
0
 10
269.17253606256389
 20
76.884241176031935
 30
0.0
  0
VERTEX
  5
2AFF
  8
0
 10
269.70710033202568
 20
76.99887806591056
 30
0.0
  0
VERTEX
  5
2B00
  8
0
 10
270.22081095945049
 20
77.118025853986126
 30
0.0
  0
VERTEX
  5
2B01
  8
0
 10
270.47002077141701
 20
77.178395645397302
 30
0.0
  0
VERTEX
  5
2B02
  8
0
 10
270.71422216196169
 20
77.238831945508934
 30
0.0
  0
VERTEX
  5
2B03
  8
0
 10
271.18784854576398
 20
77.358555036832001
 30
0.0
  0
VERTEX
  5
2B04
  8
0
 10
271.6427431755414
 20
77.474718241212884
 30
0.0
  0
VERTEX
  5
2B05
  8
0
 10
272.07968424599841
 20
77.584883999859983
 30
0.0
  0
VERTEX
  5
2B06
  8
0
 10
272.49872218673841
 20
77.686510409991513
 30
0.0
  0
VERTEX
  5
2B07
  8
0
 10
272.89989655912967
 20
77.777124297855664
 30
0.0
  0
VERTEX
  5
2B08
  8
0
 10
273.09379360063201
 20
77.817544222826257
 30
0.0
  0
VERTEX
  5
2B09
  8
0
 10
273.2832333352805
 20
77.854307510039973
 30
0.0
  0
VERTEX
  5
2B0A
  8
0
 10
273.64874326836627
 20
77.915677194229886
 30
0.0
  0
VERTEX
  5
2B0B
  8
0
 10
273.99642012231078
 20
77.958860241509967
 30
0.0
  0
VERTEX
  5
2B0C
  8
0
 10
274.163563883417
 20
77.972885266798869
 30
0.0
  0
SEQEND
  5
2B0D
  8
0
  0
ARC
  5
1869
  8
0
 10
212.71668669893441
 20
-359.64438959423921
 30
0.0
 40
437.81818181818858
 50
82.98774999827593
 51
96.944725086266473
  0
POLYLINE
  5
186A
  8
0
 66
     1
 10
0.0
 20
0.0
 30
0.0
  0
VERTEX
  5
2B0E
  8
0
 10
268.87305328535751
 20
72.929884839155704
 30
0.0
  0
VERTEX
  5
2B0F
  8
0
 10
268.37995142413251
 20
73.260819415825551
 30
0.0
  0
VERTEX
  5
2B10
  8
0
 10
267.42654057728072
 20
73.920210686294183
 30
0.0
  0
VERTEX
  5
2B11
  8
0
 10
266.90088752477288
 20
74.304409975318606
 30
0.0
  0
VERTEX
  5
2B12
  8
0
 10
266.75729217341592
 20
74.413767965789987
 30
0.0
  0
VERTEX
  5
2B13
  8
0
 10
266.61754618962971
 20
74.522699366434324
 30
0.0
  0
VERTEX
  5
2B14
  8
0
 10
266.54927684873383
 20
74.576967808164397
 30
0.0
  0
VERTEX
  5
2B15
  8
0
 10
266.48216280259538
 20
74.631085791954717
 30
0.0
  0
VERTEX
  5
2B16
  8
0
 10
266.3516612379882
 20
74.73881564941081
 30
0.0
  0
VERTEX
  5
2B17
  8
0
 10
266.2265653383181
 20
74.845781360901185
 30
0.0
  0
VERTEX
  5
2B18
  8
0
 10
266.1662088779288
 20
74.898944159049108
 30
0.0
  0
SEQEND
  5
2B19
  8
0
  0
POLYLINE
  5
186B
  8
0
 66
     1
 10
0.0
 20
0.0
 30
0.0
  0
VERTEX
  5
2B1A
  8
0
 10
268.873053283822
 20
72.929884837046004
 30
0.0
  0
VERTEX
  5
2B1B
  8
0
 10
268.69277448447508
 20
72.758689121199211
 30
0.0
  0
VERTEX
  5
2B1C
  8
0
 10
268.30271404696771
 20
72.409036326112584
 30
0.0
  0
VERTEX
  5
2B1D
  8
0
 10
267.88284226345718
 20
72.05552005748001
 30
0.0
  0
VERTEX
  5
2B1E
  8
0
 10
267.66954491339737
 20
71.882889399290036
 30
0.0
  0
VERTEX
  5
2B1F
  8
0
 10
267.45530015294401
 20
71.713506861463145
 30
0.0
  0
VERTEX
  5
2B20
  8
0
 10
267.02556342083437
 20
71.384589638533214
 30
0.0
  0
VERTEX
  5
2B21
  8
0
 10
266.59648637298483
 20
71.069326868894279
 30
0.0
  0
VERTEX
  5
2B22
  8
0
 10
266.17031131935141
 20
70.768514946947391
 30
0.0
  0
VERTEX
  5
2B23
  8
0
 10
265.74795860488791
 20
70.482486500526363
 30
0.0
  0
VERTEX
  5
2B24
  8
0
 10
265.33053746786283
 20
70.212066241224477
 30
0.0
  0
VERTEX
  5
2B25
  8
0
 10
265.12401116034317
 20
70.083026198134974
 30
0.0
  0
VERTEX
  5
2B26
  8
0
 10
264.91910493133599
 20
69.95828272145269
 30
0.0
  0
VERTEX
  5
2B27
  8
0
 10
264.51460563115239
 20
69.722269054892365
 30
0.0
  0
VERTEX
  5
2B28
  8
0
 10
264.11788601018827
 20
69.505240454291709
 30
0.0
  0
VERTEX
  5
2B29
  8
0
 10
263.72986168355192
 20
69.308559884644808
 30
0.0
  0
VERTEX
  5
2B2A
  8
0
 10
263.35185305108672
 20
69.133841816522761
 30
0.0
  0
VERTEX
  5
2B2B
  8
0
 10
262.98442091094819
 20
68.982366333078915
 30
0.0
  0
VERTEX
  5
2B2C
  8
0
 10
262.80479792985972
 20
68.915748825221669
 30
0.0
  0
VERTEX
  5
2B2D
  8
0
 10
262.62796088482071
 20
68.855436046158218
 30
0.0
  0
VERTEX
  5
2B2E
  8
0
 10
262.28278335514472
 20
68.754428577808255
 30
0.0
  0
VERTEX
  5
2B2F
  8
0
 10
261.94910860417292
 20
68.680809528922111
 30
0.0
  0
VERTEX
  5
2B30
  8
0
 10
261.7866277407208
 20
68.654756884079504
 30
0.0
  0
SEQEND
  5
2B31
  8
0
  0
POLYLINE
  5
186C
  8
0
 66
     1
 10
0.0
 20
0.0
 30
0.0
  0
VERTEX
  5
2B32
  8
0
 10
261.7866277407208
 20
68.654756884079504
 30
0.0
  0
VERTEX
  5
2B33
  8
0
 10
261.76706254623298
 20
68.652012951238191
 30
0.0
  0
VERTEX
  5
2B34
  8
0
 10
261.72946875217201
 20
68.646592029623946
 30
0.0
  0
VERTEX
  5
2B35
  8
0
 10
261.69393913027977
 20
68.641288997673925
 30
0.0
  0
VERTEX
  5
2B36
  8
0
 10
261.67695416070598
 20
68.638692117913877
 30
0.0
  0
VERTEX
  5
2B37
  8
0
 10
261.66049217415508
 20
68.636137053555046
 30
0.0
  0
VERTEX
  5
2B38
  8
0
 10
261.62914645065138
 20
68.631168016868344
 30
0.0
  0
VERTEX
  5
2B39
  8
0
 10
261.59992063944082
 20
68.626412271378797
 30
0.0
  0
VERTEX
  5
2B3A
  8
0
 10
261.57283358194042
 20
68.621898710932612
 30
0.0
  0
VERTEX
  5
2B3B
  8
0
 10
261.54790434077682
 20
68.617654688614763
 30
0.0
  0
VERTEX
  5
2B3C
  8
0
 10
261.52515227085382
 20
68.613705969124169
 30
0.0
  0
VERTEX
  5
2B3D
  8
0
 10
261.5145988237407
 20
68.611849954065462
 30
0.0
  0
VERTEX
  5
2B3E
  8
0
 10
261.5046005216679
 20
68.610077292746325
 30
0.0
  0
VERTEX
  5
2B3F
  8
0
 10
261.4862946274481
 20
68.606795715953524
 30
0.0
  0
VERTEX
  5
2B40
  8
0
 10
261.47024954600113
 20
68.603881106253354
 30
0.0
  0
VERTEX
  5
2B41
  8
0
 10
261.45647289339797
 20
68.601349994205918
 30
0.0
  0
VERTEX
  5
2B42
  8
0
 10
261.44497263067137
 20
68.599216896678556
 30
0.0
  0
VERTEX
  5
2B43
  8
0
 10
261.43575708720192
 20
68.597494297203127
 30
0.0
  0
VERTEX
  5
2B44
  8
0
 10
261.43200882260271
 20
68.596790279546042
 30
0.0
  0
VERTEX
  5
2B45
  8
0
 10
261.42883628214167
 20
68.596192869982758
 30
0.0
  0
VERTEX
  5
2B46
  8
0
 10
261.42422135694648
 20
68.595321350250444
 30
0.0
  0
VERTEX
  5
2B47
  8
0
 10
261.42191357865028
 20
68.594884419408402
 30
0.0
  0
VERTEX
  5
2B48
  8
0
 10
261.42162506538131
 20
68.59482974318513
 30
0.0
  0
SEQEND
  5
2B49
  8
0
  0
POLYLINE
  5
1871
  8
0
 66
     1
 10
0.0
 20
0.0
 30
0.0
  0
VERTEX
  5
2B4A
  8
0
 10
164.01174833248751
 20
68.59482974318513
 30
0.0
  0
VERTEX
  5
2B4B
  8
0
 10
164.0114598873291
 20
68.594884406502203
 30
0.0
  0
VERTEX
  5
2B4C
  8
0
 10
164.00915249558579
 20
68.595321264242045
 30
0.0
  0
VERTEX
  5
2B4D
  8
0
 10
164.00454195472821
 20
68.596191957698522
 30
0.0
  0
VERTEX
  5
2B4E
  8
0
 10
164.00137453931521
 20
68.596788405444215
 30
0.0
  0
VERTEX
  5
2B4F
  8
0
 10
163.99763312300729
 20
68.597491143789554
 30
0.0
  0
VERTEX
  5
2B50
  8
0
 10
163.98843042844919
 20
68.599211371250874
 30
0.0
  0
VERTEX
  5
2B51
  8
0
 10
163.97693791384069
 20
68.601343085243968
 30
0.0
  0
VERTEX
  5
2B52
  8
0
 10
163.96316328397731
 20
68.603873899264102
 30
0.0
  0
VERTEX
  5
2B53
  8
0
 10
163.94712920683969
 20
68.606786610195797
 30
0.0
  0
VERTEX
  5
2B54
  8
0
 10
163.92884921388591
 20
68.610063704915376
 30
0.0
  0
VERTEX
  5
2B55
  8
0
 10
163.91887073999129
 20
68.611832970393095
 30
0.0
  0
VERTEX
  5
2B56
  8
0
 10
163.9083352362324
 20
68.613685983716607
 30
0.0
  0
VERTEX
  5
2B57
  8
0
 10
163.88559889473649
 20
68.617632358756566
 30
0.0
  0
VERTEX
  5
2B58
  8
0
 10
163.8606515320042
 20
68.621879884587941
 30
0.0
  0
VERTEX
  5
2B59
  8
0
 10
163.83352632887019
 20
68.626400150144093
 30
0.0
  0
VERTEX
  5
2B5A
  8
0
 10
163.80426666075309
 20
68.631161634914918
 30
0.0
  0
VERTEX
  5
2B5B
  8
0
 10
163.772893651044
 20
68.636135110522389
 30
0.0
  0
VERTEX
  5
2B5C
  8
0
 10
163.75642117152429
 20
68.638691819887811
 30
0.0
  0
VERTEX
  5
2B5D
  8
0
 10
163.7394281696686
 20
68.641289922825933
 30
0.0
  0
VERTEX
  5
2B5E
  8
0
 10
163.70389093642439
 20
68.646594042098798
 30
0.0
  0
VERTEX
  5
2B5F
  8
0
 10
163.66630257737961
 20
68.652014122849721
 30
0.0
  0
VERTEX
  5
2B60
  8
0
 10
163.6467456571479
 20
68.654756884079504
 30
0.0
  0
SEQEND
  5
2B61
  8
0
  0
LINE
  5
1874
  8
0
 10
159.46668669893441
 20
40.35561040576777
 30
0.0
 11
140.71668669893441
 21
40.35561040576777
 31
0.0
  0
POLYLINE
  5
1876
  8
0
 66
     1
 10
0.0
 20
0.0
 30
0.0
  0
VERTEX
  5
2B62
  8
0
 10
163.6467456571479
 20
68.654756884079504
 30
0.0
  0
VERTEX
  5
2B63
  8
0
 10
163.48499649472359
 20
68.680677010841748
 30
0.0
  0
VERTEX
  5
2B64
  8
0
 10
163.1529112438761
 20
68.753830372896061
 30
0.0
  0
VERTEX
  5
2B65
  8
0
 10
162.80949019547469
 20
68.854110271077332
 30
0.0
  0
VERTEX
  5
2B66
  8
0
 10
162.63359279587249
 20
68.913963590883725
 30
0.0
  0
VERTEX
  5
2B67
  8
0
 10
162.4549493859316
 20
68.980059422695092
 30
0.0
  0
VERTEX
  5
2B68
  8
0
 10
162.0895922604326
 20
69.130310148494743
 30
0.0
  0
VERTEX
  5
2B69
  8
0
 10
161.71380559400831
 20
69.303570925022029
 30
0.0
  0
VERTEX
  5
2B6A
  8
0
 10
161.3280554676042
 20
69.498617848175115
 30
0.0
  0
VERTEX
  5
2B6B
  8
0
 10
160.9332562960432
 20
69.714081362789727
 30
0.0
  0
VERTEX
  5
2B6C
  8
0
 10
160.53079220325441
 20
69.948370489172419
 30
0.0
  0
VERTEX
  5
2B6D
  8
0
 10
160.32693699104129
 20
70.072196637393574
 30
0.0
  0
VERTEX
  5
2B6E
  8
0
 10
160.12147473640439
 20
70.200287802701894
 30
0.0
  0
VERTEX
  5
2B6F
  8
0
 10
159.70619136865199
 20
70.468732808806919
 30
0.0
  0
VERTEX
  5
2B70
  8
0
 10
159.28549761586791
 20
70.753016276646861
 30
0.0
  0
VERTEX
  5
2B71
  8
0
 10
158.86017467718381
 20
71.052575133439802
 30
0.0
  0
VERTEX
  5
2B72
  8
0
 10
158.43218388762659
 20
71.36633933177751
 30
0.0
  0
VERTEX
  5
2B73
  8
0
 10
158.0037703268807
 20
71.693443265337976
 30
0.0
  0
VERTEX
  5
2B74
  8
0
 10
157.79280880507321
 20
71.85975105023175
 30
0.0
  0
VERTEX
  5
2B75
  8
0
 10
157.5879834147035
 20
72.024900569666386
 30
0.0
  0
VERTEX
  5
2B76
  8
0
 10
157.19878577928691
 20
72.350275485661257
 30
0.0
  0
VERTEX
  5
2B77
  8
0
 10
156.8404102481062
 20
72.666805484606755
 30
0.0
  0
VERTEX
  5
2B78
  8
0
 10
156.674158287057
 20
72.82094142928878
 30
0.0
  0
SEQEND
  5
2B79
  8
0
  0
POLYLINE
  5
1878
  8
0
 66
     1
 10
0.0
 20
0.0
 30
0.0
  0
VERTEX
  5
2B7A
  8
0
 10
149.67253205907721
 20
45.19810802786639
 30
0.0
  0
VERTEX
  5
2B7B
  8
0
 10
149.6305689849147
 20
44.392021318844797
 30
0.0
  0
VERTEX
  5
2B7C
  8
0
 10
149.5694998843845
 20
42.778489246366291
 30
0.0
  0
VERTEX
  5
2B7D
  8
0
 10
149.53894389749451
 20
41.163508259232287
 30
0.0
  0
VERTEX
  5
2B7E
  8
0
 10
149.53512229169289
 20
40.35561040576777
 30
0.0
  0
SEQEND
  5
2B7F
  8
0
  0
POLYLINE
  5
1880
  8
0
 66
     1
 10
0.0
 20
0.0
 30
0.0
  0
VERTEX
  5
2B80
  8
0
 10
151.3001499964015
 20
78.067854944878661
 30
0.0
  0
VERTEX
  5
2B81
  8
0
 10
151.30047634139899
 20
78.067823589121133
 30
0.0
  0
VERTEX
  5
2B82
  8
0
 10
151.30308651160649
 20
78.067573088030883
 30
0.0
  0
VERTEX
  5
2B83
  8
0
 10
151.30830541258149
 20
78.067073760560504
 30
0.0
  0
VERTEX
  5
2B84
  8
0
 10
151.31189270026749
 20
78.066731728201546
 30
0.0
  0
VERTEX
  5
2B85
  8
0
 10
151.3161316613506
 20
78.066328808438527
 30
0.0
  0
VERTEX
  5
2B86
  8
0
 10
151.32656399245701
 20
78.065342949057424
 30
0.0
  0
VERTEX
  5
2B87
  8
0
 10
151.33960125305049
 20
78.064122409276877
 30
0.0
  0
VERTEX
  5
2B88
  8
0
 10
151.35524229128981
 20
78.06267492782689
 30
0.0
  0
VERTEX
  5
2B89
  8
0
 10
151.3734458492917
 20
78.061013378906921
 30
0.0
  0
VERTEX
  5
2B8A
  8
0
 10
151.3941601185312
 20
78.059152817670508
 30
0.0
  0
VERTEX
  5
2B8B
  8
0
 10
151.40545035583091
 20
78.058152224642583
 30
0.0
  0
VERTEX
  5
2B8C
  8
0
 10
151.41735827740601
 20
78.057107197991002
 30
0.0
  0
VERTEX
  5
2B8D
  8
0
 10
151.44301427593891
 20
78.054891572877921
 30
0.0
  0
VERTEX
  5
2B8E
  8
0
 10
151.47110265495411
 20
78.0525220564395
 30
0.0
  0
VERTEX
  5
2B8F
  8
0
 10
151.50159837153689
 20
78.050015784541245
 30
0.0
  0
VERTEX
  5
2B90
  8
0
 10
151.53447663384239
 20
78.047390873356605
 30
0.0
  0
VERTEX
  5
2B91
  8
0
 10
151.56971274804539
 20
78.044666375143663
 30
0.0
  0
VERTEX
  5
2B92
  8
0
 10
151.58820727519071
 20
78.043272979074857
 30
0.0
  0
VERTEX
  5
2B93
  8
0
 10
151.60728197992481
 20
78.041862230736953
 30
0.0
  0
VERTEX
  5
2B94
  8
0
 10
151.64715943327019
 20
78.038999218408719
 30
0.0
  0
VERTEX
  5
2B95
  8
0
 10
151.6893199469603
 20
78.036098898923058
 30
0.0
  0
VERTEX
  5
2B96
  8
0
 10
151.71124839535369
 20
78.034641686312341
 30
0.0
  0
SEQEND
  5
2B97
  8
0
  0
ARC
  5
1881
  8
0
 10
214.40705689495431
 20
39.902677076829093
 30
0.0
 40
64.910088582661828
 50
145.6491536312389
 51
147.3084853024877
  0
POLYLINE
  5
1882
  8
0
 66
     1
 10
0.0
 20
0.0
 30
0.0
  0
VERTEX
  5
2B98
  8
0
 10
159.77932478888749
 20
74.961634345361915
 30
0.0
  0
VERTEX
  5
2B99
  8
0
 10
159.7118814345481
 20
74.905800806385912
 30
0.0
  0
VERTEX
  5
2B9A
  8
0
 10
159.5719393514162
 20
74.793250375804575
 30
0.0
  0
VERTEX
  5
2B9B
  8
0
 10
159.42563809563831
 20
74.679537226830163
 30
0.0
  0
VERTEX
  5
2B9C
  8
0
 10
159.3502439929521
 20
74.622251369929756
 30
0.0
  0
VERTEX
  5
2B9D
  8
0
 10
159.27342853669481
 20
74.564683812667397
 30
0.0
  0
VERTEX
  5
2B9E
  8
0
 10
159.115753330605
 20
74.448720514677404
 30
0.0
  0
VERTEX
  5
2B9F
  8
0
 10
158.95304687812231
 20
74.331687734265472
 30
0.0
  0
VERTEX
  5
2BA0
  8
0
 10
158.35004181847501
 20
73.914499090540119
 30
0.0
  0
VERTEX
  5
2BA1
  8
0
 10
157.24320481766961
 20
73.186171761057096
 30
0.0
  0
VERTEX
  5
2BA2
  8
0
 10
156.67415828633011
 20
72.820941430322193
 30
0.0
  0
SEQEND
  5
2BA3
  8
0
  0
POLYLINE
  5
1883
  8
0
 66
     1
 10
0.0
 20
0.0
 30
0.0
  0
VERTEX
  5
2BA4
  8
0
 10
156.6741582859409
 20
72.820941429812535
 30
0.0
  0
VERTEX
  5
2BA5
  8
0
 10
156.3454849836219
 20
72.096163620419304
 30
0.0
  0
VERTEX
  5
2BA6
  8
0
 10
155.7103376227374
 20
70.637134344502613
 30
0.0
  0
VERTEX
  5
2BA7
  8
0
 10
155.10495251511509
 20
69.165847430250494
 30
0.0
  0
VERTEX
  5
2BA8
  8
0
 10
154.8134816795488
 20
68.425747673667672
 30
0.0
  0
VERTEX
  5
2BA9
  8
0
 10
154.5295242586275
 20
67.682751945735561
 30
0.0
  0
VERTEX
  5
2BAA
  8
0
 10
153.98424584531011
 20
66.188297452815107
 30
0.0
  0
VERTEX
  5
2BAB
  8
0
 10
153.4693085572404
 20
64.682934023703453
 30
0.0
  0
VERTEX
  5
2BAC
  8
0
 10
152.98490188319619
 20
63.167112209672773
 30
0.0
  0
VERTEX
  5
2BAD
  8
0
 10
152.5312134691099
 20
61.641282965099037
 30
0.0
  0
VERTEX
  5
2BAE
  8
0
 10
152.1084291166373
 20
60.10589753097139
 30
0.0
  0
VERTEX
  5
2BAF
  8
0
 10
151.90868353595511
 20
59.334762297303023
 30
0.0
  0
VERTEX
  5
2BB0
  8
0
 10
151.71673284528009
 20
58.56140728326676
 30
0.0
  0
VERTEX
  5
2BB1
  8
0
 10
151.3563925469019
 20
57.008649852926219
 30
0.0
  0
VERTEX
  5
2BB2
  8
0
 10
151.0278588820031
 20
55.449547223328011
 30
0.0
  0
VERTEX
  5
2BB3
  8
0
 10
150.73122657988071
 20
53.884729704575932
 30
0.0
  0
VERTEX
  5
2BB4
  8
0
 10
150.46655466369671
 20
52.314689932903953
 30
0.0
  0
VERTEX
  5
2BB5
  8
0
 10
150.23390014282211
 20
50.73992093313165
 30
0.0
  0
VERTEX
  5
2BB6
  8
0
 10
150.12959672728499
 20
49.950917106169179
 30
0.0
  0
VERTEX
  5
2BB7
  8
0
 10
150.03331825290951
 20
49.160915944501482
 30
0.0
  0
VERTEX
  5
2BB8
  8
0
 10
149.86486280036129
 20
47.578168259087818
 30
0.0
  0
VERTEX
  5
2BB9
  8
0
 10
149.72858659411239
 20
45.99217108803753
 30
0.0
  0
VERTEX
  5
2BBA
  8
0
 10
149.67253205908349
 20
45.198108027865999
 30
0.0
  0
SEQEND
  5
2BBB
  8
0
  0
POLYLINE
  5
1886
  8
0
 66
     1
 10
0.0
 20
0.0
 30
0.0
  0
VERTEX
  5
2BBC
  8
0
 10
151.71124839535381
 20
78.034641686312455
 30
0.0
  0
VERTEX
  5
2BBD
  8
0
 10
151.88668465355789
 20
78.020438326016745
 30
0.0
  0
VERTEX
  5
2BBE
  8
0
 10
152.2514649409747
 20
77.976001394264301
 30
0.0
  0
VERTEX
  5
2BBF
  8
0
 10
152.63484354717281
 20
77.912373803771573
 30
0.0
  0
VERTEX
  5
2BC0
  8
0
 10
152.83353308277589
 20
77.874177038427604
 30
0.0
  0
VERTEX
  5
2BC1
  8
0
 10
153.03690582475261
 20
77.832159376505331
 30
0.0
  0
VERTEX
  5
2BC2
  8
0
 10
153.45775715613561
 20
77.737975813385731
 30
0.0
  0
VERTEX
  5
2BC3
  8
0
 10
153.89752075628709
 20
77.632483717297248
 30
0.0
  0
VERTEX
  5
2BC4
  8
0
 10
154.35633509736559
 20
77.518408397798851
 30
0.0
  0
VERTEX
  5
2BC5
  8
0
 10
154.8343410721881
 20
77.398556139522327
 30
0.0
  0
VERTEX
  5
2BC6
  8
0
 10
155.3302253509296
 20
77.276171627240899
 30
0.0
  0
VERTEX
  5
2BC7
  8
0
 10
155.584531519861
 20
77.215031585600116
 30
0.0
  0
VERTEX
  5
2BC8
  8
0
 10
155.84312076450189
 20
77.154404031784622
 30
0.0
  0
VERTEX
  5
2BC9
  8
0
 10
156.3732708563652
 20
77.036113344207195
 30
0.0
  0
VERTEX
  5
2BCA
  8
0
 10
156.92091226711511
 20
76.924134865741564
 30
0.0
  0
VERTEX
  5
2BCB
  8
0
 10
157.48625842036901
 20
76.821252521604322
 30
0.0
  0
VERTEX
  5
2BCC
  8
0
 10
158.06949308771661
 20
76.730156297780056
 30
0.0
  0
VERTEX
  5
2BCD
  8
0
 10
158.66539718896999
 20
76.653994587943146
 30
0.0
  0
VERTEX
  5
2BCE
  8
0
 10
158.9662908019977
 20
76.622278541483013
 30
0.0
  0
VERTEX
  5
2BCF
  8
0
 10
159.26923906094169
 20
76.594997162451989
 30
0.0
  0
VERTEX
  5
2BD0
  8
0
 10
159.88159485892729
 20
76.554206892154923
 30
0.0
  0
VERTEX
  5
2BD1
  8
0
 10
160.50307132608381
 20
76.532393982185511
 30
0.0
  0
VERTEX
  5
2BD2
  8
0
 10
160.81742565247399
 20
76.528774645420924
 30
0.0
  0
SEQEND
  5
2BD3
  8
0
  0
LINE
  5
188F
  8
2
 10
155.21668669893441
 20
40.35561040576777
 30
0.0
 11
155.21668669893441
 21
50.35561040576777
 31
0.0
  0
LINE
  5
1890
  8
2
 10
155.21668669893441
 20
50.35561040576777
 30
0.0
 11
150.21668669893441
 21
50.35561040576777
 31
0.0
  0
LINE
  5
1891
  8
2
 10
150.21668669893441
 20
40.35561040576777
 30
0.0
 11
150.21668669893441
 21
50.35561040576777
 31
0.0
  0
LINE
  5
1892
  8
2
 10
275.21668669893438
 20
40.35561040576777
 30
0.0
 11
275.21668669893438
 21
50.35561040576777
 31
0.0
  0
LINE
  5
1893
  8
2
 10
275.21668669893438
 20
50.35561040576777
 30
0.0
 11
270.21668669893438
 21
50.35561040576777
 31
0.0
  0
LINE
  5
1894
  8
2
 10
270.21668669893438
 20
40.35561040576777
 30
0.0
 11
270.21668669893438
 21
50.35561040576777
 31
0.0
  0
LINE
  5
1895
  8
1
 10
152.71668669893441
 20
63.547154027608308
 30
0.0
 11
152.71668669893441
 21
32.416446865976361
 31
0.0
  0
LINE
  5
1896
  8
1
 10
272.71668669893438
 20
63.547154027608308
 30
0.0
 11
272.71668669893438
 21
32.416446865976361
 31
0.0
  0
LINE
  5
26B6
  8
0
 10
66.157709554336321
 20
50.013773681106329
 30
0.0
 11
66.176655229408681
 21
40.35561040576772
 31
0.0
  0
LINE
  5
26B7
  8
0
 10
65.845166728313103
 20
72.92988483896886
 30
0.0
 11
66.157709554336321
 21
50.013773681106329
 31
0.0
  0
LINE
  5
26B8
  8
0
 10
51.203102766254538
 20
50.013773681106329
 30
0.0
 11
51.184157091182179
 21
40.35561040576772
 31
0.0
  0
LINE
  5
26B9
  8
0
 10
51.515645592277757
 20
72.92988483896886
 30
0.0
 11
51.203102766254538
 21
50.013773681106329
 31
0.0
  0
LINE
  5
26BA
  8
2
 10
54.439391483257168
 20
40.35561040576772
 30
0.0
 11
54.439391483257182
 21
54.303006208180697
 31
0.0
  0
LINE
  5
26BB
  8
2
 10
55.439391483257168
 20
55.303006208180712
 30
0.0
 11
54.439391483257182
 21
54.303006208180697
 31
0.0
  0
LINE
  5
26BC
  8
2
 10
62.921420837333699
 20
40.35561040576772
 30
0.0
 11
62.921420837333692
 21
54.303006208180697
 31
0.0
  0
LINE
  5
26BD
  8
2
 10
61.921420837333692
 20
55.303006208180712
 30
0.0
 11
62.921420837333692
 21
54.303006208180697
 31
0.0
  0
LINE
  5
26BE
  8
2
 10
55.439391483257168
 20
55.303006208180712
 30
0.0
 11
61.921420837333692
 21
55.303006208180712
 31
0.0
  0
LINE
  5
274A
  8
2
 10
148.47567202189609
 20
40.35561040576777
 30
0.0
 11
148.47567202189609
 21
54.303006208180761
 31
0.0
  0
LINE
  5
274B
  8
2
 10
149.47567202189609
 20
55.303006208180761
 30
0.0
 11
148.47567202189609
 21
54.303006208180761
 31
0.0
  0
LINE
  5
274C
  8
2
 10
156.95770137597259
 20
40.35561040576777
 30
0.0
 11
156.95770137597259
 21
54.303006208180761
 31
0.0
  0
LINE
  5
274D
  8
2
 10
155.95770137597259
 20
55.303006208180761
 30
0.0
 11
156.95770137597259
 21
54.303006208180761
 31
0.0
  0
LINE
  5
274E
  8
2
 10
149.47567202189609
 20
55.303006208180761
 30
0.0
 11
155.95770137597259
 21
55.303006208180761
 31
0.0
  0
LINE
  5
275A
  8
2
 10
268.47567202189612
 20
40.35561040576777
 30
0.0
 11
268.47567202189612
 21
54.303006208180761
 31
0.0
  0
LINE
  5
275B
  8
2
 10
269.47567202189612
 20
55.303006208180761
 30
0.0
 11
268.47567202189612
 21
54.303006208180761
 31
0.0
  0
LINE
  5
275C
  8
2
 10
276.9577013759727
 20
40.35561040576777
 30
0.0
 11
276.9577013759727
 21
54.303006208180761
 31
0.0
  0
LINE
  5
275D
  8
2
 10
275.95770137597259
 20
55.303006208180761
 30
0.0
 11
276.9577013759727
 21
54.303006208180761
 31
0.0
  0
LINE
  5
275E
  8
2
 10
269.47567202189612
 20
55.303006208180761
 30
0.0
 11
275.95770137597259
 21
55.303006208180761
 31
0.0
  0
TEXT
  5
28C8
  8
0
 62
     3
 10
0.0
 20
0.0
 30
0.0
 40
10.0
  1
AGRC140
  7
STANDARD1
  0
ENDSEC
  0
EOF
