  0
SECTION
  2
HEADER
  9
$ACADVER
  1
AC1009
  9
$INSBASE
 10
0.0
 20
0.0
 30
0.0
  9
$EXTMIN
 10
-0.0204638472032742
 20
-2.960436562073669
 30
0.0
  9
$EXTMAX
 10
336.22219896931489
 20
211.1166441078158
 30
0.0
  9
$LIMMIN
 10
0.0
 20
0.0
  9
$LIMMAX
 10
375.0
 20
270.0
  9
$ORTHOMODE
 70
     1
  9
$REGENMODE
 70
     1
  9
$FILLMODE
 70
     1
  9
$QTEXTMODE
 70
     0
  9
$MIRRTEXT
 70
     0
  9
$DRAGMODE
 70
     2
  9
$LTSCALE
 40
10.0
  9
$OSMODE
 70
  3071
  9
$ATTMODE
 70
     1
  9
$TEXTSIZE
 40
0.2
  9
$TRACEWID
 40
0.05
  9
$TEXTSTYLE
  7
STANDARD
  9
$CLAYER
  8
0
  9
$CELTYPE
  6
BYLAYER
  9
$CECOLOR
 62
   256
  9
$DIMSCALE
 40
1.0
  9
$DIMASZ
 40
2.5
  9
$DIMEXO
 40
2.0
  9
$DIMDLI
 40
0.38
  9
$DIMRND
 40
0.0
  9
$DIMDLE
 40
0.0
  9
$DIMEXE
 40
2.0
  9
$DIMTP
 40
0.0
  9
$DIMTM
 40
0.0
  9
$DIMTXT
 40
3.0
  9
$DIMCEN
 40
0.0
  9
$DIMTSZ
 40
0.0
  9
$DIMTOL
 70
     0
  9
$DIMLIM
 70
     0
  9
$DIMTIH
 70
     0
  9
$DIMTOH
 70
     0
  9
$DIMSE1
 70
     0
  9
$DIMSE2
 70
     0
  9
$DIMTAD
 70
     1
  9
$DIMZIN
 70
     0
  9
$DIMBLK
  1

  9
$DIMASO
 70
     0
  9
$DIMSHO
 70
     0
  9
$DIMPOST
  1

  9
$DIMAPOST
  1

  9
$DIMALT
 70
     0
  9
$DIMALTD
 70
     2
  9
$DIMALTF
 40
25.399999999999999
  9
$DIMLFAC
 40
1.0
  9
$DIMTOFL
 70
     1
  9
$DIMTVP
 40
1.6000000000000001
  9
$DIMTIX
 70
     1
  9
$DIMSOXD
 70
     0
  9
$DIMSAH
 70
     0
  9
$DIMBLK1
  1

  9
$DIMBLK2
  1

  9
$DIMSTYLE
  2
STANDARD
  9
$DIMCLRD
 70
     0
  9
$DIMCLRE
 70
     0
  9
$DIMCLRT
 70
     0
  9
$DIMTFAC
 40
1.0
  9
$DIMGAP
 40
0.09
  9
$LUNITS
 70
     2
  9
$LUPREC
 70
     4
  9
$SKETCHINC
 40
0.1
  9
$FILLETRAD
 40
0.0
  9
$AUNITS
 70
     0
  9
$AUPREC
 70
     4
  9
$MENU
  1
E:\r13\win\SUPPORT\ACAD
  9
$ELEVATION
 40
0.0
  9
$PELEVATION
 40
0.0
  9
$THICKNESS
 40
0.0
  9
$LIMCHECK
 70
     0
  9
$BLIPMODE
 70
     0
  9
$CHAMFERA
 40
0.0
  9
$CHAMFERB
 40
0.0
  9
$SKPOLY
 70
     0
  9
$TDCREATE
 40
2449840.6291782409
  9
$TDUPDATE
 40
2456597.5001700688
  9
$TDINDWG
 40
0.0000878125
  9
$TDUSRTIMER
 40
0.0000878125
  9
$USRTIMER
 70
     1
  9
$ANGBASE
 50
0.0
  9
$ANGDIR
 70
     0
  9
$PDMODE
 70
     0
  9
$PDSIZE
 40
0.0
  9
$PLINEWID
 40
0.0
  9
$COORDS
 70
     1
  9
$SPLFRAME
 70
     0
  9
$SPLINETYPE
 70
     6
  9
$SPLINESEGS
 70
     8
  9
$ATTDIA
 70
     0
  9
$ATTREQ
 70
     1
  9
$HANDLING
 70
     1
  9
$HANDSEED
  5
29D
  9
$SURFTAB1
 70
     6
  9
$SURFTAB2
 70
     6
  9
$SURFTYPE
 70
     6
  9
$SURFU
 70
     6
  9
$SURFV
 70
     6
  9
$UCSNAME
  2

  9
$UCSORG
 10
0.0
 20
0.0
 30
0.0
  9
$UCSXDIR
 10
1.0
 20
0.0
 30
0.0
  9
$UCSYDIR
 10
0.0
 20
1.0
 30
0.0
  9
$PUCSNAME
  2

  9
$PUCSORG
 10
0.0
 20
0.0
 30
0.0
  9
$PUCSXDIR
 10
1.0
 20
0.0
 30
0.0
  9
$PUCSYDIR
 10
0.0
 20
1.0
 30
0.0
  9
$USERI1
 70
     0
  9
$USERI2
 70
     1
  9
$USERI3
 70
     1
  9
$USERI4
 70
     0
  9
$USERI5
 70
     0
  9
$USERR1
 40
0.0
  9
$USERR2
 40
0.0
  9
$USERR3
 40
0.0
  9
$USERR4
 40
0.0
  9
$USERR5
 40
0.0
  9
$WORLDVIEW
 70
     1
  9
$SHADEDGE
 70
     3
  9
$SHADEDIF
 70
    70
  9
$TILEMODE
 70
     1
  9
$MAXACTVP
 70
    16
  9
$PLIMCHECK
 70
     0
  9
$PEXTMIN
 10
1.0000000000000000E+020
 20
1.0000000000000000E+020
 30
1.0000000000000000E+020
  9
$PEXTMAX
 10
-1.0000000000000000E+020
 20
-1.0000000000000000E+020
 30
-1.0000000000000000E+020
  9
$PLIMMIN
 10
0.0
 20
0.0
  9
$PLIMMAX
 10
12.0
 20
9.0
  9
$UNITMODE
 70
     0
  9
$VISRETAIN
 70
     0
  9
$PLINEGEN
 70
     0
  9
$PSLTSCALE
 70
     0
  0
ENDSEC
  0
SECTION
  2
TABLES
  0
TABLE
  2
VPORT
 70
     1
  0
VPORT
  2
*ACTIVE
 70
     0
 10
0.0
 20
0.0
 11
1.0
 21
1.0
 12
195.04380321732449
 22
133.5127261426681
 13
0.0
 23
0.0
 14
10.0
 24
10.0
 15
10.0
 25
10.0
 16
0.0
 26
0.0
 36
1.0
 17
0.0
 27
0.0
 37
0.0
 40
275.42274993631997
 41
1.831871345029239
 42
50.0
 43
0.0
 44
0.0
 50
0.0
 51
0.0
 71
     0
 72
   500
 73
     1
 74
     0
 75
     0
 76
     0
 77
     0
 78
     2
  0
ENDTAB
  0
TABLE
  2
LTYPE
 70
     4
  0
LTYPE
  2
CONTINUOUS
 70
     0
  3
Solid Line
 72
    65
 73
     0
 40
0.0
  0
LTYPE
  2
CENTER
 70
     0
  3
____ _ ____ _ ____ _ ____ _ ____ _ ____ _ ____
 72
    65
 73
     4
 40
2.0
 49
1.25
 49
-0.25
 49
0.25
 49
-0.25
  0
LTYPE
  2
HIDDEN
 70
     0
  3
_ _ _ _ _ _ _ _ _ _ _ _ _ _ _ _ _ _ _ _ _ _ _
 72
    65
 73
     2
 40
0.375
 49
0.25
 49
-0.125
  0
LTYPE
  2
PHANTOM2
 70
     0
  3
___ _ _ ___ _ _ ___ _ _ ___ _ _
 72
    65
 73
     6
 40
1.25
 49
0.625
 49
-0.125
 49
0.125
 49
-0.125
 49
0.125
 49
-0.125
  0
ENDTAB
  0
TABLE
  2
LAYER
 70
     3
  0
LAYER
  2
0
 70
     0
 62
     7
  6
CONTINUOUS
  0
LAYER
  2
1
 70
     0
 62
     1
  6
CENTER
  0
LAYER
  2
2
 70
     0
 62
     2
  6
HIDDEN
  0
ENDTAB
  0
TABLE
  2
STYLE
 70
     2
  0
STYLE
  2
STANDARD
 70
     0
 40
0.0
 41
1.0
 50
0.0
 71
     0
 42
0.2
  3
TXT
  4
BIGFONT
  0
STYLE
  2
STANDARD1
 70
     0
 40
0.0
 41
1.0
 50
0.0
 71
     0
 42
3.0
  3
txt
  4

  0
ENDTAB
  0
TABLE
  2
VIEW
 70
     1
  0
VIEW
  2
ALL
 70
     0
 40
270.0
 10
220.99159663865549
 20
135.0
 41
0.0
 11
0.0
 21
0.0
 31
1.0
 12
0.0
 22
0.0
 32
0.0
 42
0.0
 43
0.0
 44
0.0
 50
0.0
 71
     0
  0
ENDTAB
  0
TABLE
  2
UCS
 70
     0
  0
ENDTAB
  0
TABLE
  2
APPID
 70
     3
  0
APPID
  2
ACAD
 70
     0
  0
APPID
  2
ACAD_MLEADERVER
 70
     0
  0
APPID
  2
ACAD_NAV_VCDISPLAY
 70
     0
  0
ENDTAB
  0
TABLE
  2
DIMSTYLE
 70
     1
  0
DIMSTYLE
  2
STANDARD
 70
     0
  3

  4

  5

  6

  7

 40
1.0
 41
0.18
 42
0.0625
 43
0.38
 44
0.18
 45
0.0
 46
0.0
 47
0.0
 48
0.0
140
0.18
141
0.09
142
0.0
143
25.399999999999999
144
1.0
145
0.0
146
1.0
147
0.09
 71
     0
 72
     0
 73
     1
 74
     1
 75
     0
 76
     0
 77
     0
 78
     0
170
     0
171
     2
172
     0
173
     0
174
     0
175
     0
176
     0
177
     0
178
     0
  0
ENDTAB
  0
ENDSEC
  0
SECTION
  2
BLOCKS
  0
BLOCK
  8
0
  2
$MODEL_SPACE
 70
     0
 10
0.0
 20
0.0
 30
0.0
  3
$MODEL_SPACE
  1

  0
ENDBLK
  5
11A
  8
0
  0
BLOCK
 67
     1
  8
0
  2
$PAPER_SPACE
 70
     0
 10
0.0
 20
0.0
 30
0.0
  3
$PAPER_SPACE
  1

  0
ENDBLK
  5
118
 67
     1
  8
0
  0
ENDSEC
  0
SECTION
  2
ENTITIES
  0
LINE
  5
35
  8
2
 10
113.55164735734979
 20
121.3129496402877
 30
0.0
 11
263.55164735734991
 21
121.3129496402877
 31
0.0
  0
LINE
  5
36
  8
0
 10
263.55164735734979
 20
118.3129496402877
 30
0.0
 11
263.55164735734979
 21
136.31294964028771
 31
0.0
  0
LINE
  5
37
  8
0
 10
113.55164735734979
 20
136.31294964028771
 30
0.0
 11
113.55164735734979
 21
118.3129496402877
 31
0.0
  0
LINE
  5
38
  8
0
 10
113.55164735734979
 20
128.31294964028771
 30
0.0
 11
263.55164735734979
 21
128.31294964028771
 31
0.0
  0
LINE
  5
39
  8
0
 10
113.55164735734979
 20
118.3129496402877
 30
0.0
 11
263.55164735734979
 21
118.3129496402877
 31
0.0
  0
LINE
  5
3A
  8
0
 10
113.55164735734979
 20
134.0129496402875
 30
0.0
 11
263.55164735734991
 21
134.0129496402875
 31
0.0
  0
LINE
  5
3B
  8
0
 10
113.55164735734979
 20
136.31294964028771
 30
0.0
 11
263.55164735734991
 21
136.31294964028771
 31
0.0
  0
LINE
  5
3C
  8
1
 10
61.780272335999037
 20
141.31294964028771
 30
0.0
 11
61.780272335999037
 21
113.3129496402877
 31
0.0
  0
LINE
  5
3D
  8
0
 10
53.280272335999037
 20
121.3129496402877
 30
0.0
 11
70.280272335999058
 21
121.3129496402877
 31
0.0
  0
LINE
  5
3E
  8
0
 10
71.78027233599903
 20
134.0129496402875
 30
0.0
 11
71.780272335999001
 21
128.31294964028771
 31
0.0
  0
LINE
  5
3F
  8
0
 10
51.780272335999037
 20
134.0129496402875
 30
0.0
 11
51.780272335999037
 21
128.3129496402876
 31
0.0
  0
LINE
  5
40
  8
0
 10
65.5802723359987
 20
136.31294964028771
 30
0.0
 11
65.580272335998714
 21
134.0129496402875
 31
0.0
  0
LINE
  5
41
  8
0
 10
65.580272335998714
 20
134.0129496402875
 30
0.0
 11
71.78027233599903
 21
134.0129496402875
 31
0.0
  0
LINE
  5
42
  8
0
 10
57.980272335999423
 20
136.31294964028771
 30
0.0
 11
57.980272335999423
 21
134.0129496402875
 31
0.0
  0
LINE
  5
43
  8
0
 10
57.980272335999388
 20
134.0129496402875
 30
0.0
 11
51.780272335999094
 21
134.0129496402875
 31
0.0
  0
LINE
  5
44
  8
0
 10
57.980272335999423
 20
136.31294964028771
 30
0.0
 11
65.5802723359987
 21
136.31294964028771
 31
0.0
  0
LINE
  5
45
  8
0
 10
53.780272335999094
 20
118.3129496402877
 30
0.0
 11
69.780272335999086
 21
118.3129496402877
 31
0.0
  0
LINE
  5
46
  8
0
 10
70.28027233599903
 20
126.3129496402877
 30
0.0
 11
70.280272335999058
 21
120.3129496402877
 31
0.0
  0
LINE
  5
47
  8
0
 10
53.280272335999072
 20
126.3129496402877
 30
0.0
 11
53.280272335999037
 21
120.3129496402877
 31
0.0
  0
LINE
  5
48
  8
0
 10
51.780272335999037
 20
128.3129496402876
 30
0.0
 11
57.28027233599903
 21
128.31294964028771
 31
0.0
  0
LINE
  5
49
  8
0
 10
51.780272335999058
 20
126.3129496402877
 30
0.0
 11
51.780272335999094
 21
120.3129496402877
 31
0.0
  0
LINE
  5
4A
  8
0
 10
71.780272335999086
 20
126.3129496402877
 30
0.0
 11
71.780272335999086
 21
120.3129496402877
 31
0.0
  0
LINE
  5
4B
  8
0
 10
53.780272335999058
 20
126.8129496402877
 30
0.0
 11
57.280272335999008
 21
126.8129496402877
 31
0.0
  0
LINE
  5
4C
  8
0
 10
53.780272335999037
 20
119.8129496402877
 30
0.0
 11
69.780272335999058
 21
119.8129496402877
 31
0.0
  0
ARC
  5
4D
  8
0
 10
53.780272335999058
 20
126.3129496402877
 30
0.0
 40
0.5
 50
90.0
 51
180.00000000000011
  0
ARC
  5
4E
  8
0
 10
53.780272335999037
 20
120.3129496402877
 30
0.0
 40
0.5
 50
180.0
 51
269.99999999999989
  0
ARC
  5
4F
  8
0
 10
69.780272335999058
 20
120.3129496402877
 30
0.0
 40
0.5
 50
269.99999999999989
 51
0.0000000000001272
  0
ARC
  5
50
  8
0
 10
69.780272335999015
 20
126.3129496402877
 30
0.0
 40
0.5
 50
0.0000000000001527
 51
89.999999999999915
  0
ARC
  5
51
  8
0
 10
69.780272335999086
 20
126.3129496402877
 30
0.0
 40
2.0
 50
359.99999999999949
 51
90.0
  0
ARC
  5
52
  8
0
 10
69.780272335999086
 20
120.3129496402877
 30
0.0
 40
2.0
 50
270.0
 51
359.9999999999996
  0
ARC
  5
53
  8
0
 10
53.780272335999094
 20
120.3129496402877
 30
0.0
 40
2.0
 50
180.00000000000051
 51
269.99999999999989
  0
ARC
  5
54
  8
0
 10
53.780272335999058
 20
126.3129496402877
 30
0.0
 40
2.0
 50
90.0
 51
180.0000000000006
  0
LINE
  5
55
  8
0
 10
66.78027233599903
 20
126.8129496402877
 30
0.0
 11
66.78027233599903
 21
128.31294964028771
 31
0.0
  0
LINE
  5
56
  8
0
 10
56.780272335999037
 20
126.8129496402877
 30
0.0
 11
56.780272335999037
 21
128.31294964028771
 31
0.0
  0
LINE
  5
57
  8
0
 10
66.280272335999044
 20
126.8129496402877
 30
0.0
 11
66.280272335999044
 21
128.31294964028771
 31
0.0
  0
LINE
  5
58
  8
0
 10
57.28027233599903
 20
126.8129496402877
 30
0.0
 11
57.28027233599903
 21
128.31294964028771
 31
0.0
  0
LINE
  5
59
  8
0
 10
66.280272335999044
 20
128.31294964028771
 30
0.0
 11
71.780272335999001
 21
128.31294964028771
 31
0.0
  0
LINE
  5
5A
  8
0
 10
66.280272335999086
 20
126.8129496402877
 30
0.0
 11
69.780272335999015
 21
126.8129496402877
 31
0.0
  0
LINE
  5
5B
  8
0
 10
113.55164735734979
 20
191.1166441078158
 30
0.0
 11
113.55164735734979
 21
211.1166441078158
 31
0.0
  0
LINE
  5
5C
  8
0
 10
113.55164735734979
 20
191.1166441078158
 30
0.0
 11
263.55164735734979
 21
191.1166441078158
 31
0.0
  0
LINE
  5
5D
  8
0
 10
113.55164735734979
 20
211.1166441078158
 30
0.0
 11
263.55164735734979
 21
211.1166441078158
 31
0.0
  0
LINE
  5
5E
  8
0
 10
263.55164735734979
 20
191.1166441078158
 30
0.0
 11
263.55164735734979
 21
211.1166441078158
 31
0.0
  0
LINE
  5
5F
  8
1
 10
103.55164735734979
 20
201.1166441078158
 30
0.0
 11
273.55164735734979
 21
201.1166441078158
 31
0.0
  0
LINE
  5
60
  8
0
 10
113.55164735734979
 20
204.91664410781581
 30
0.0
 11
263.55164735734979
 21
204.91664410781581
 31
0.0
  0
LINE
  5
61
  8
0
 10
113.55164735734979
 20
197.31664410781579
 30
0.0
 11
263.55164735734979
 21
197.3166441078157
 31
0.0
  0
LINE
  5
62
  8
0
 10
321.72219896931489
 20
126.8129496402877
 30
0.0
 11
318.22219896931489
 21
126.8129496402877
 31
0.0
  0
LINE
  5
63
  8
0
 10
321.72219896931489
 20
128.31294964028771
 30
0.0
 11
316.22219896931489
 21
128.31294964028771
 31
0.0
  0
LINE
  5
64
  8
0
 10
330.72219896931489
 20
126.8129496402877
 30
0.0
 11
330.72219896931489
 21
128.31294964028771
 31
0.0
  0
LINE
  5
65
  8
0
 10
321.72219896931489
 20
126.8129496402877
 30
0.0
 11
321.72219896931489
 21
128.31294964028771
 31
0.0
  0
LINE
  5
66
  8
0
 10
331.22219896931489
 20
126.8129496402877
 30
0.0
 11
331.22219896931489
 21
128.31294964028771
 31
0.0
  0
LINE
  5
67
  8
0
 10
321.22219896931489
 20
126.8129496402877
 30
0.0
 11
321.22219896931489
 21
128.31294964028771
 31
0.0
  0
ARC
  5
68
  8
0
 10
334.22219896931489
 20
126.3129496402877
 30
0.0
 40
2.0
 50
359.99999999999949
 51
90.000000000000028
  0
ARC
  5
69
  8
0
 10
334.22219896931489
 20
120.3129496402877
 30
0.0
 40
2.0
 50
270.00000000000011
 51
359.9999999999996
  0
ARC
  5
6A
  8
0
 10
318.22219896931489
 20
120.3129496402877
 30
0.0
 40
2.0
 50
180.00000000000051
 51
270.00000000000011
  0
ARC
  5
6B
  8
0
 10
318.22219896931489
 20
126.3129496402877
 30
0.0
 40
2.0
 50
90.000000000000028
 51
180.0000000000006
  0
ARC
  5
6C
  8
0
 10
318.22219896931489
 20
126.3129496402877
 30
0.0
 40
0.5
 50
90.000000000000114
 51
179.9999999999998
  0
ARC
  5
6D
  8
0
 10
318.22219896931489
 20
120.3129496402877
 30
0.0
 40
0.5
 50
179.99999999999989
 51
270.00000000000023
  0
ARC
  5
6E
  8
0
 10
334.22219896931489
 20
120.3129496402877
 30
0.0
 40
0.5
 50
270.00000000000011
 51
0.0000000000000254
  0
ARC
  5
6F
  8
0
 10
334.22219896931489
 20
126.3129496402877
 30
0.0
 40
0.5
 50
360.0
 51
90.000000000000028
  0
LINE
  5
70
  8
0
 10
334.22219896931489
 20
119.8129496402877
 30
0.0
 11
318.22219896931489
 21
119.8129496402877
 31
0.0
  0
LINE
  5
71
  8
0
 10
334.22219896931489
 20
126.8129496402877
 30
0.0
 11
330.72219896931489
 21
126.8129496402877
 31
0.0
  0
LINE
  5
72
  8
0
 10
316.22219896931489
 20
126.3129496402877
 30
0.0
 11
316.22219896931489
 21
120.3129496402877
 31
0.0
  0
LINE
  5
73
  8
0
 10
336.22219896931489
 20
126.3129496402877
 30
0.0
 11
336.22219896931489
 21
120.3129496402877
 31
0.0
  0
LINE
  5
74
  8
0
 10
336.22219896931489
 20
128.3129496402876
 30
0.0
 11
330.72219896931489
 21
128.31294964028771
 31
0.0
  0
LINE
  5
75
  8
0
 10
334.72219896931489
 20
126.3129496402877
 30
0.0
 11
334.72219896931489
 21
120.3129496402877
 31
0.0
  0
LINE
  5
76
  8
0
 10
317.72219896931489
 20
126.3129496402877
 30
0.0
 11
317.72219896931489
 21
120.3129496402877
 31
0.0
  0
LINE
  5
77
  8
0
 10
334.22219896931489
 20
118.3129496402877
 30
0.0
 11
318.22219896931489
 21
118.3129496402877
 31
0.0
  0
LINE
  5
78
  8
0
 10
330.0221989693145
 20
136.31294964028771
 30
0.0
 11
322.42219896931528
 21
136.31294964028771
 31
0.0
  0
LINE
  5
79
  8
0
 10
330.02219896931462
 20
134.0129496402875
 30
0.0
 11
336.22219896931489
 21
134.0129496402875
 31
0.0
  0
LINE
  5
7A
  8
0
 10
330.0221989693145
 20
136.31294964028771
 30
0.0
 11
330.0221989693145
 21
134.0129496402875
 31
0.0
  0
LINE
  5
7B
  8
0
 10
322.42219896931522
 20
134.0129496402875
 30
0.0
 11
316.22219896931489
 21
134.0129496402875
 31
0.0
  0
LINE
  5
7C
  8
0
 10
322.42219896931528
 20
136.31294964028771
 30
0.0
 11
322.42219896931522
 21
134.0129496402875
 31
0.0
  0
LINE
  5
7D
  8
0
 10
336.22219896931489
 20
134.0129496402875
 30
0.0
 11
336.22219896931489
 21
128.3129496402876
 31
0.0
  0
LINE
  5
7E
  8
0
 10
316.22219896931489
 20
134.0129496402875
 30
0.0
 11
316.22219896931489
 21
128.31294964028771
 31
0.0
  0
LINE
  5
7F
  8
0
 10
334.72219896931489
 20
121.3129496402877
 30
0.0
 11
317.72219896931489
 21
121.3129496402877
 31
0.0
  0
LINE
  5
80
  8
1
 10
326.22219896931489
 20
141.31294964028771
 30
0.0
 11
326.22219896931489
 21
113.3129496402877
 31
0.0
  0
LINE
  5
81
  8
1
 10
103.55164735734979
 20
58.94540625189638
 30
0.0
 11
273.55164735734979
 21
58.94540625189638
 31
0.0
  0
LINE
  5
82
  8
0
 10
263.55164735734979
 20
68.945406251896387
 30
0.0
 11
263.55164735734979
 21
48.94540625189638
 31
0.0
  0
LINE
  5
83
  8
0
 10
113.55164735734979
 20
48.94540625189638
 30
0.0
 11
263.55164735734979
 21
48.94540625189638
 31
0.0
  0
LINE
  5
84
  8
0
 10
113.55164735734979
 20
68.945406251896387
 30
0.0
 11
263.55164735734979
 21
68.945406251896387
 31
0.0
  0
LINE
  5
85
  8
0
 10
113.55164735734979
 20
68.945406251896387
 30
0.0
 11
113.55164735734979
 21
48.945406251896408
 31
0.0
  0
TEXT
  5
20C
  8
0
 62
     3
 10
0.0
 20
0.0
 30
0.0
 40
10.0
  1
AGC40
  7
STANDARD1
  0
ENDSEC
  0
EOF
