  0
SECTION
  2
HEADER
  9
$ACADVER
  1
AC1009
  9
$INSBASE
 10
0.0
 20
0.0
 30
0.0
  9
$EXTMIN
 10
-0.0204638472032742
 20
-2.960436562073669
 30
0.0
  9
$EXTMAX
 10
330.32302237870181
 20
206.11664410781671
 30
0.0
  9
$LIMMIN
 10
0.0
 20
0.0
  9
$LIMMAX
 10
375.0
 20
270.0
  9
$ORTHOMODE
 70
     1
  9
$REGENMODE
 70
     1
  9
$FILLMODE
 70
     1
  9
$QTEXTMODE
 70
     0
  9
$MIRRTEXT
 70
     0
  9
$DRAGMODE
 70
     2
  9
$LTSCALE
 40
10.0
  9
$OSMODE
 70
  3071
  9
$ATTMODE
 70
     1
  9
$TEXTSIZE
 40
0.2
  9
$TRACEWID
 40
0.05
  9
$TEXTSTYLE
  7
STANDARD
  9
$CLAYER
  8
0
  9
$CELTYPE
  6
BYLAYER
  9
$CECOLOR
 62
   256
  9
$DIMSCALE
 40
1.0
  9
$DIMASZ
 40
3.0
  9
$DIMEXO
 40
2.0
  9
$DIMDLI
 40
0.38
  9
$DIMRND
 40
0.0
  9
$DIMDLE
 40
0.0
  9
$DIMEXE
 40
2.0
  9
$DIMTP
 40
0.0
  9
$DIMTM
 40
0.0
  9
$DIMTXT
 40
3.0
  9
$DIMCEN
 40
0.0
  9
$DIMTSZ
 40
0.0
  9
$DIMTOL
 70
     0
  9
$DIMLIM
 70
     0
  9
$DIMTIH
 70
     0
  9
$DIMTOH
 70
     0
  9
$DIMSE1
 70
     0
  9
$DIMSE2
 70
     0
  9
$DIMTAD
 70
     1
  9
$DIMZIN
 70
     0
  9
$DIMBLK
  1

  9
$DIMASO
 70
     0
  9
$DIMSHO
 70
     0
  9
$DIMPOST
  1

  9
$DIMAPOST
  1

  9
$DIMALT
 70
     0
  9
$DIMALTD
 70
     2
  9
$DIMALTF
 40
25.399999999999999
  9
$DIMLFAC
 40
1.0
  9
$DIMTOFL
 70
     1
  9
$DIMTVP
 40
1.6000000000000001
  9
$DIMTIX
 70
     1
  9
$DIMSOXD
 70
     0
  9
$DIMSAH
 70
     0
  9
$DIMBLK1
  1

  9
$DIMBLK2
  1

  9
$DIMSTYLE
  2
STANDARD
  9
$DIMCLRD
 70
     0
  9
$DIMCLRE
 70
     0
  9
$DIMCLRT
 70
     0
  9
$DIMTFAC
 40
1.0
  9
$DIMGAP
 40
0.09
  9
$LUNITS
 70
     2
  9
$LUPREC
 70
     4
  9
$SKETCHINC
 40
0.1
  9
$FILLETRAD
 40
0.0
  9
$AUNITS
 70
     0
  9
$AUPREC
 70
     4
  9
$MENU
  1
E:\r13\win\SUPPORT\ACAD
  9
$ELEVATION
 40
0.0
  9
$PELEVATION
 40
0.0
  9
$THICKNESS
 40
0.0
  9
$LIMCHECK
 70
     0
  9
$BLIPMODE
 70
     0
  9
$CHAMFERA
 40
0.0
  9
$CHAMFERB
 40
0.0
  9
$SKPOLY
 70
     0
  9
$TDCREATE
 40
2449840.6291782409
  9
$TDUPDATE
 40
2456597.4998051622
  9
$TDINDWG
 40
0.0553515046
  9
$TDUSRTIMER
 40
0.0553515046
  9
$USRTIMER
 70
     1
  9
$ANGBASE
 50
0.0
  9
$ANGDIR
 70
     0
  9
$PDMODE
 70
     0
  9
$PDSIZE
 40
0.0
  9
$PLINEWID
 40
0.0
  9
$COORDS
 70
     1
  9
$SPLFRAME
 70
     0
  9
$SPLINETYPE
 70
     6
  9
$SPLINESEGS
 70
     8
  9
$ATTDIA
 70
     0
  9
$ATTREQ
 70
     1
  9
$HANDLING
 70
     1
  9
$HANDSEED
  5
9C0
  9
$SURFTAB1
 70
     6
  9
$SURFTAB2
 70
     6
  9
$SURFTYPE
 70
     6
  9
$SURFU
 70
     6
  9
$SURFV
 70
     6
  9
$UCSNAME
  2

  9
$UCSORG
 10
0.0
 20
0.0
 30
0.0
  9
$UCSXDIR
 10
1.0
 20
0.0
 30
0.0
  9
$UCSYDIR
 10
0.0
 20
1.0
 30
0.0
  9
$PUCSNAME
  2

  9
$PUCSORG
 10
0.0
 20
0.0
 30
0.0
  9
$PUCSXDIR
 10
1.0
 20
0.0
 30
0.0
  9
$PUCSYDIR
 10
0.0
 20
1.0
 30
0.0
  9
$USERI1
 70
     0
  9
$USERI2
 70
     1
  9
$USERI3
 70
     1
  9
$USERI4
 70
     0
  9
$USERI5
 70
     0
  9
$USERR1
 40
0.0
  9
$USERR2
 40
0.0
  9
$USERR3
 40
0.0
  9
$USERR4
 40
0.0
  9
$USERR5
 40
0.0
  9
$WORLDVIEW
 70
     1
  9
$SHADEDGE
 70
     3
  9
$SHADEDIF
 70
    70
  9
$TILEMODE
 70
     1
  9
$MAXACTVP
 70
    16
  9
$PLIMCHECK
 70
     0
  9
$PEXTMIN
 10
1.0000000000000000E+020
 20
1.0000000000000000E+020
 30
1.0000000000000000E+020
  9
$PEXTMAX
 10
-1.0000000000000000E+020
 20
-1.0000000000000000E+020
 30
-1.0000000000000000E+020
  9
$PLIMMIN
 10
0.0
 20
0.0
  9
$PLIMMAX
 10
12.0
 20
9.0
  9
$UNITMODE
 70
     0
  9
$VISRETAIN
 70
     0
  9
$PLINEGEN
 70
     0
  9
$PSLTSCALE
 70
     0
  0
ENDSEC
  0
SECTION
  2
TABLES
  0
TABLE
  2
VPORT
 70
     1
  0
VPORT
  2
*ACTIVE
 70
     0
 10
0.0
 20
0.0
 11
1.0
 21
1.0
 12
195.04380321732449
 22
133.5127261426681
 13
0.0
 23
0.0
 14
10.0
 24
10.0
 15
10.0
 25
10.0
 16
0.0
 26
0.0
 36
1.0
 17
0.0
 27
0.0
 37
0.0
 40
275.42274993631997
 41
1.831871345029239
 42
50.0
 43
0.0
 44
0.0
 50
0.0
 51
0.0
 71
     0
 72
   500
 73
     1
 74
     0
 75
     0
 76
     0
 77
     0
 78
     2
  0
ENDTAB
  0
TABLE
  2
LTYPE
 70
     3
  0
LTYPE
  2
CONTINUOUS
 70
     0
  3
Solid Line
 72
    65
 73
     0
 40
0.0
  0
LTYPE
  2
CENTER
 70
     0
  3
____ _ ____ _ ____ _ ____ _ ____ _ ____ _ ____
 72
    65
 73
     4
 40
2.0
 49
1.25
 49
-0.25
 49
0.25
 49
-0.25
  0
LTYPE
  2
PHANTOM2
 70
     0
  3
___ _ _ ___ _ _ ___ _ _ ___ _ _
 72
    65
 73
     6
 40
1.25
 49
0.625
 49
-0.125
 49
0.125
 49
-0.125
 49
0.125
 49
-0.125
  0
ENDTAB
  0
TABLE
  2
LAYER
 70
     3
  0
LAYER
  2
0
 70
     0
 62
     7
  6
CONTINUOUS
  0
LAYER
  2
1
 70
     0
 62
     1
  6
CENTER
  0
LAYER
  2
11
 70
     0
 62
     3
  6
CONTINUOUS
  0
ENDTAB
  0
TABLE
  2
STYLE
 70
     2
  0
STYLE
  2
STANDARD
 70
     0
 40
0.0
 41
1.0
 50
0.0
 71
     0
 42
0.2
  3
TXT
  4
BIGFONT
  0
STYLE
  2
STANDARD1
 70
     0
 40
0.0
 41
1.0
 50
0.0
 71
     0
 42
3.0
  3
txt
  4

  0
ENDTAB
  0
TABLE
  2
VIEW
 70
     1
  0
VIEW
  2
ALL
 70
     0
 40
270.0
 10
220.99159663865549
 20
135.0
 41
0.0
 11
0.0
 21
0.0
 31
1.0
 12
0.0
 22
0.0
 32
0.0
 42
0.0
 43
0.0
 44
0.0
 50
0.0
 71
     0
  0
ENDTAB
  0
TABLE
  2
UCS
 70
     0
  0
ENDTAB
  0
TABLE
  2
APPID
 70
     3
  0
APPID
  2
ACAD
 70
     0
  0
APPID
  2
ACAD_MLEADERVER
 70
     0
  0
APPID
  2
ACAD_NAV_VCDISPLAY
 70
     0
  0
ENDTAB
  0
TABLE
  2
DIMSTYLE
 70
     1
  0
DIMSTYLE
  2
STANDARD
 70
     0
  3

  4

  5

  6

  7

 40
1.0
 41
0.18
 42
0.0625
 43
0.38
 44
0.18
 45
0.0
 46
0.0
 47
0.0
 48
0.0
140
0.18
141
0.09
142
0.0
143
25.399999999999999
144
1.0
145
0.0
146
1.0
147
0.09
 71
     0
 72
     0
 73
     1
 74
     1
 75
     0
 76
     0
 77
     0
 78
     0
170
     0
171
     2
172
     0
173
     0
174
     0
175
     0
176
     0
177
     0
178
     0
  0
ENDTAB
  0
ENDSEC
  0
SECTION
  2
BLOCKS
  0
BLOCK
  8
0
  2
$MODEL_SPACE
 70
     0
 10
0.0
 20
0.0
 30
0.0
  3
$MODEL_SPACE
  1

  0
ENDBLK
  5
11A
  8
0
  0
BLOCK
 67
     1
  8
0
  2
$PAPER_SPACE
 70
     0
 10
0.0
 20
0.0
 30
0.0
  3
$PAPER_SPACE
  1

  0
ENDBLK
  5
118
 67
     1
  8
0
  0
BLOCK
  8
0
  2
STDGX5
 70
     0
 10
0.0
 20
0.0
 30
0.0
  3
STDGX5
  1

  0
ENDBLK
  5
142
  8
0
  0
ENDSEC
  0
SECTION
  2
ENTITIES
  0
LINE
  5
5F
  8
1
 10
111.05164735734979
 20
191.1166441078158
 30
0.0
 11
266.05164735734979
 21
191.1166441078158
 31
0.0
  0
INSERT
  5
152
  8
0
  2
STDGX5
 10
568.27962683527176
 20
74.729447430155972
 30
0.0
 41
0.1000000000000227
 42
0.1000000000000227
 43
0.1000000000000227
  0
INSERT
  5
153
  8
0
  2
STDGX5
 10
568.27962683527176
 20
74.729447430155972
 30
0.0
 41
0.1000000000000227
 42
0.1000000000000227
 43
0.1000000000000227
  0
INSERT
  5
154
  8
0
  2
STDGX5
 10
595.77962683527176
 20
74.729447430155972
 30
0.0
 41
0.1000000000000227
 42
0.1000000000000227
 43
0.1000000000000227
  0
INSERT
  5
155
  8
0
  2
STDGX5
 10
595.77962683527176
 20
74.729447430155972
 30
0.0
 41
0.1000000000000227
 42
0.1000000000000227
 43
0.1000000000000227
  0
INSERT
  5
156
  8
11
  2
STDGX5
 10
571.17620267980908
 20
81.564582554859015
 30
0.0
 41
0.1000000000000227
 42
0.1000000000000227
 43
0.1000000000000227
  0
INSERT
  5
157
  8
11
  2
STDGX5
 10
574.92471254143061
 20
77.964582527198715
 30
0.0
 41
0.1000000000000227
 42
0.1000000000000227
 43
0.1000000000000227
  0
INSERT
  5
158
  8
11
  2
STDGX5
 10
568.27962683527176
 20
74.729447430155972
 30
0.0
 41
0.1000000000000227
 42
0.1000000000000227
 43
0.1000000000000227
  0
INSERT
  5
159
  8
11
  2
STDGX5
 10
658.33984258232613
 20
99.336615957240454
 30
0.0
 41
0.1000000000000227
 42
0.1000000000000227
 43
0.1000000000000227
  0
INSERT
  5
15A
  8
11
  2
STDGX5
 10
662.08835244394766
 20
95.736615929580154
 30
0.0
 41
0.1000000000000227
 42
0.1000000000000227
 43
0.1000000000000227
  0
INSERT
  5
15B
  8
11
  2
STDGX5
 10
655.44326673778892
 20
92.501480832537396
 30
0.0
 41
0.1000000000000227
 42
0.1000000000000227
 43
0.1000000000000227
  0
INSERT
  5
15C
  8
11
  2
STDGX5
 10
736.84376724334652
 20
102.3523501538955
 30
0.0
 41
0.1000000000000227
 42
0.1000000000000227
 43
0.1000000000000227
  0
INSERT
  5
15D
  8
11
  2
STDGX5
 10
740.59227710496805
 20
98.752350126235271
 30
0.0
 41
0.1000000000000227
 42
0.1000000000000227
 43
0.1000000000000227
  0
INSERT
  5
15E
  8
11
  2
STDGX5
 10
733.9471913988092
 20
95.517215029192528
 30
0.0
 41
0.1000000000000227
 42
0.1000000000000227
 43
0.1000000000000227
  0
INSERT
  5
15F
  8
11
  2
STDGX5
 10
590.90635480734556
 20
83.176317241731667
 30
0.0
 41
0.1000000000000227
 42
0.1000000000000227
 43
0.1000000000000227
  0
INSERT
  5
160
  8
11
  2
STDGX5
 10
594.65486466896732
 20
79.576317214071366
 30
0.0
 41
0.1000000000000227
 42
0.1000000000000227
 43
0.1000000000000227
  0
INSERT
  5
161
  8
11
  2
STDGX5
 10
588.00977896280835
 20
76.341182117028623
 30
0.0
 41
0.1000000000000227
 42
0.1000000000000227
 43
0.1000000000000227
  0
INSERT
  5
162
  8
11
  2
STDGX5
 10
678.06999470986273
 20
100.94835064411311
 30
0.0
 41
0.1000000000000227
 42
0.1000000000000227
 43
0.1000000000000227
  0
INSERT
  5
163
  8
11
  2
STDGX5
 10
681.81850457148437
 20
97.348350616452805
 30
0.0
 41
0.1000000000000227
 42
0.1000000000000227
 43
0.1000000000000227
  0
INSERT
  5
164
  8
11
  2
STDGX5
 10
675.17341886532552
 20
94.113215519410048
 30
0.0
 41
0.1000000000000227
 42
0.1000000000000227
 43
0.1000000000000227
  0
INSERT
  5
165
  8
11
  2
STDGX5
 10
756.57391937088323
 20
103.96408484076819
 30
0.0
 41
0.1000000000000227
 42
0.1000000000000227
 43
0.1000000000000227
  0
INSERT
  5
166
  8
11
  2
STDGX5
 10
760.32242923250476
 20
100.36408481310789
 30
0.0
 41
0.1000000000000227
 42
0.1000000000000227
 43
0.1000000000000227
  0
INSERT
  5
167
  8
11
  2
STDGX5
 10
753.67734352634602
 20
97.128949716065179
 30
0.0
 41
0.1000000000000227
 42
0.1000000000000227
 43
0.1000000000000227
  0
INSERT
  5
168
  8
11
  2
STDGX5
 10
618.40635480734556
 20
85.676321561973353
 30
0.0
 41
0.1000000000000227
 42
0.1000000000000227
 43
0.1000000000000227
  0
INSERT
  5
169
  8
11
  2
STDGX5
 10
622.15486466896732
 20
82.076321534313067
 30
0.0
 41
0.1000000000000227
 42
0.1000000000000227
 43
0.1000000000000227
  0
INSERT
  5
16A
  8
11
  2
STDGX5
 10
615.50977896280847
 20
78.841186437270323
 30
0.0
 41
0.1000000000000227
 42
0.1000000000000227
 43
0.1000000000000227
  0
INSERT
  5
16B
  8
11
  2
STDGX5
 10
705.56999470986273
 20
103.44835496435481
 30
0.0
 41
0.1000000000000227
 42
0.1000000000000227
 43
0.1000000000000227
  0
INSERT
  5
16C
  8
11
  2
STDGX5
 10
709.31850457148425
 20
99.848354936694506
 30
0.0
 41
0.1000000000000227
 42
0.1000000000000227
 43
0.1000000000000227
  0
INSERT
  5
16D
  8
11
  2
STDGX5
 10
702.67341886532552
 20
96.613219839651748
 30
0.0
 41
0.1000000000000227
 42
0.1000000000000227
 43
0.1000000000000227
  0
INSERT
  5
16E
  8
11
  2
STDGX5
 10
784.07391937088323
 20
106.46408916100989
 30
0.0
 41
0.1000000000000227
 42
0.1000000000000227
 43
0.1000000000000227
  0
INSERT
  5
16F
  8
11
  2
STDGX5
 10
787.82242923250476
 20
102.86408913334959
 30
0.0
 41
0.1000000000000227
 42
0.1000000000000227
 43
0.1000000000000227
  0
INSERT
  5
170
  8
11
  2
STDGX5
 10
781.17734352634602
 20
99.628954036306894
 30
0.0
 41
0.1000000000000227
 42
0.1000000000000227
 43
0.1000000000000227
  0
INSERT
  5
171
  8
11
  2
STDGX5
 10
618.40635480734556
 20
85.676321561973353
 30
0.0
 41
0.1000000000000227
 42
0.1000000000000227
 43
0.1000000000000227
  0
INSERT
  5
172
  8
11
  2
STDGX5
 10
622.15486466896732
 20
82.076321534313067
 30
0.0
 41
0.1000000000000227
 42
0.1000000000000227
 43
0.1000000000000227
  0
INSERT
  5
173
  8
11
  2
STDGX5
 10
615.50977896280847
 20
78.841186437270323
 30
0.0
 41
0.1000000000000227
 42
0.1000000000000227
 43
0.1000000000000227
  0
INSERT
  5
174
  8
11
  2
STDGX5
 10
705.56999470986273
 20
103.44835496435481
 30
0.0
 41
0.1000000000000227
 42
0.1000000000000227
 43
0.1000000000000227
  0
INSERT
  5
175
  8
11
  2
STDGX5
 10
709.31850457148425
 20
99.848354936694506
 30
0.0
 41
0.1000000000000227
 42
0.1000000000000227
 43
0.1000000000000227
  0
INSERT
  5
176
  8
11
  2
STDGX5
 10
702.67341886532552
 20
96.613219839651748
 30
0.0
 41
0.1000000000000227
 42
0.1000000000000227
 43
0.1000000000000227
  0
INSERT
  5
177
  8
11
  2
STDGX5
 10
784.07391937088323
 20
106.46408916100989
 30
0.0
 41
0.1000000000000227
 42
0.1000000000000227
 43
0.1000000000000227
  0
INSERT
  5
178
  8
11
  2
STDGX5
 10
787.82242923250476
 20
102.86408913334959
 30
0.0
 41
0.1000000000000227
 42
0.1000000000000227
 43
0.1000000000000227
  0
INSERT
  5
179
  8
11
  2
STDGX5
 10
781.17734352634602
 20
99.628954036306894
 30
0.0
 41
0.1000000000000227
 42
0.1000000000000227
 43
0.1000000000000227
  0
INSERT
  5
17A
  8
11
  2
STDGX5
 10
590.68575210249253
 20
82.597745803101958
 30
0.0
 41
0.1000000000000227
 42
0.1000000000000227
 43
0.1000000000000227
  0
INSERT
  5
17B
  8
11
  2
STDGX5
 10
594.43426196411406
 20
78.997745775441658
 30
0.0
 41
0.1000000000000227
 42
0.1000000000000227
 43
0.1000000000000227
  0
INSERT
  5
17C
  8
11
  2
STDGX5
 10
587.78917625795532
 20
75.762610678398914
 30
0.0
 41
0.1000000000000227
 42
0.1000000000000227
 43
0.1000000000000227
  0
INSERT
  5
17D
  8
11
  2
STDGX5
 10
677.84939200500946
 20
100.3697792054834
 30
0.0
 41
0.1000000000000227
 42
0.1000000000000227
 43
0.1000000000000227
  0
INSERT
  5
17E
  8
11
  2
STDGX5
 10
681.59790186663122
 20
96.769779177823096
 30
0.0
 41
0.1000000000000227
 42
0.1000000000000227
 43
0.1000000000000227
  0
INSERT
  5
17F
  8
11
  2
STDGX5
 10
674.95281616047237
 20
93.534644080780339
 30
0.0
 41
0.1000000000000227
 42
0.1000000000000227
 43
0.1000000000000227
  0
INSERT
  5
180
  8
11
  2
STDGX5
 10
756.35331666602985
 20
103.3855134021385
 30
0.0
 41
0.1000000000000227
 42
0.1000000000000227
 43
0.1000000000000227
  0
INSERT
  5
181
  8
11
  2
STDGX5
 10
760.10182652765161
 20
99.785513374478214
 30
0.0
 41
0.1000000000000227
 42
0.1000000000000227
 43
0.1000000000000227
  0
INSERT
  5
182
  8
11
  2
STDGX5
 10
753.45674082149264
 20
96.550378277435485
 30
0.0
 41
0.1000000000000227
 42
0.1000000000000227
 43
0.1000000000000227
  0
INSERT
  5
183
  8
11
  2
STDGX5
 10
618.18575210249253
 20
85.097750123343644
 30
0.0
 41
0.1000000000000227
 42
0.1000000000000227
 43
0.1000000000000227
  0
INSERT
  5
184
  8
11
  2
STDGX5
 10
621.93426196411417
 20
81.497750095683344
 30
0.0
 41
0.1000000000000227
 42
0.1000000000000227
 43
0.1000000000000227
  0
INSERT
  5
185
  8
11
  2
STDGX5
 10
615.28917625795532
 20
78.262614998640601
 30
0.0
 41
0.1000000000000227
 42
0.1000000000000227
 43
0.1000000000000227
  0
INSERT
  5
186
  8
11
  2
STDGX5
 10
705.34939200500958
 20
102.869783525725
 30
0.0
 41
0.1000000000000227
 42
0.1000000000000227
 43
0.1000000000000227
  0
INSERT
  5
187
  8
11
  2
STDGX5
 10
709.0979018666311
 20
99.269783498064783
 30
0.0
 41
0.1000000000000227
 42
0.1000000000000227
 43
0.1000000000000227
  0
INSERT
  5
188
  8
11
  2
STDGX5
 10
702.45281616047225
 20
96.034648401022054
 30
0.0
 41
0.1000000000000227
 42
0.1000000000000227
 43
0.1000000000000227
  0
INSERT
  5
189
  8
11
  2
STDGX5
 10
783.85331666602985
 20
105.8855177223802
 30
0.0
 41
0.1000000000000227
 42
0.1000000000000227
 43
0.1000000000000227
  0
INSERT
  5
18A
  8
11
  2
STDGX5
 10
787.60182652765161
 20
102.2855176947199
 30
0.0
 41
0.1000000000000227
 42
0.1000000000000227
 43
0.1000000000000227
  0
INSERT
  5
18B
  8
11
  2
STDGX5
 10
780.95674082149276
 20
99.050382597677157
 30
0.0
 41
0.1000000000000227
 42
0.1000000000000227
 43
0.1000000000000227
  0
INSERT
  5
18C
  8
11
  2
STDGX5
 10
618.18575210249253
 20
85.097750123343644
 30
0.0
 41
0.1000000000000227
 42
0.1000000000000227
 43
0.1000000000000227
  0
INSERT
  5
18D
  8
11
  2
STDGX5
 10
621.93426196411417
 20
81.497750095683344
 30
0.0
 41
0.1000000000000227
 42
0.1000000000000227
 43
0.1000000000000227
  0
INSERT
  5
18E
  8
11
  2
STDGX5
 10
615.28917625795532
 20
78.262614998640601
 30
0.0
 41
0.1000000000000227
 42
0.1000000000000227
 43
0.1000000000000227
  0
INSERT
  5
18F
  8
11
  2
STDGX5
 10
705.34939200500958
 20
102.869783525725
 30
0.0
 41
0.1000000000000227
 42
0.1000000000000227
 43
0.1000000000000227
  0
INSERT
  5
190
  8
11
  2
STDGX5
 10
709.0979018666311
 20
99.269783498064783
 30
0.0
 41
0.1000000000000227
 42
0.1000000000000227
 43
0.1000000000000227
  0
INSERT
  5
191
  8
11
  2
STDGX5
 10
702.45281616047225
 20
96.034648401022054
 30
0.0
 41
0.1000000000000227
 42
0.1000000000000227
 43
0.1000000000000227
  0
INSERT
  5
192
  8
11
  2
STDGX5
 10
783.85331666602985
 20
105.8855177223802
 30
0.0
 41
0.1000000000000227
 42
0.1000000000000227
 43
0.1000000000000227
  0
INSERT
  5
193
  8
11
  2
STDGX5
 10
787.60182652765161
 20
102.2855176947199
 30
0.0
 41
0.1000000000000227
 42
0.1000000000000227
 43
0.1000000000000227
  0
INSERT
  5
194
  8
11
  2
STDGX5
 10
780.95674082149276
 20
99.050382597677157
 30
0.0
 41
0.1000000000000227
 42
0.1000000000000227
 43
0.1000000000000227
  0
INSERT
  5
195
  8
11
  2
STDGX5
 10
618.18575210249253
 20
85.097750123343644
 30
0.0
 41
0.1000000000000227
 42
0.1000000000000227
 43
0.1000000000000227
  0
INSERT
  5
196
  8
11
  2
STDGX5
 10
621.93426196411417
 20
81.497750095683344
 30
0.0
 41
0.1000000000000227
 42
0.1000000000000227
 43
0.1000000000000227
  0
INSERT
  5
197
  8
11
  2
STDGX5
 10
615.28917625795532
 20
78.262614998640601
 30
0.0
 41
0.1000000000000227
 42
0.1000000000000227
 43
0.1000000000000227
  0
INSERT
  5
198
  8
11
  2
STDGX5
 10
705.34939200500958
 20
102.869783525725
 30
0.0
 41
0.1000000000000227
 42
0.1000000000000227
 43
0.1000000000000227
  0
INSERT
  5
199
  8
11
  2
STDGX5
 10
709.0979018666311
 20
99.269783498064783
 30
0.0
 41
0.1000000000000227
 42
0.1000000000000227
 43
0.1000000000000227
  0
INSERT
  5
19A
  8
11
  2
STDGX5
 10
702.45281616047225
 20
96.034648401022054
 30
0.0
 41
0.1000000000000227
 42
0.1000000000000227
 43
0.1000000000000227
  0
INSERT
  5
19B
  8
11
  2
STDGX5
 10
783.85331666602985
 20
105.8855177223802
 30
0.0
 41
0.1000000000000227
 42
0.1000000000000227
 43
0.1000000000000227
  0
INSERT
  5
19C
  8
11
  2
STDGX5
 10
787.60182652765161
 20
102.2855176947199
 30
0.0
 41
0.1000000000000227
 42
0.1000000000000227
 43
0.1000000000000227
  0
INSERT
  5
19D
  8
11
  2
STDGX5
 10
780.95674082149276
 20
99.050382597677157
 30
0.0
 41
0.1000000000000227
 42
0.1000000000000227
 43
0.1000000000000227
  0
INSERT
  5
19E
  8
11
  2
STDGX5
 10
590.87877947615686
 20
83.314072353651156
 30
0.0
 41
0.1000000000000227
 42
0.1000000000000227
 43
0.1000000000000227
  0
INSERT
  5
19F
  8
11
  2
STDGX5
 10
594.62728933777862
 20
79.714072325990855
 30
0.0
 41
0.1000000000000227
 42
0.1000000000000227
 43
0.1000000000000227
  0
INSERT
  5
1A0
  8
11
  2
STDGX5
 10
587.98220363161965
 20
76.478937228948112
 30
0.0
 41
0.1000000000000227
 42
0.1000000000000227
 43
0.1000000000000227
  0
INSERT
  5
1A1
  8
11
  2
STDGX5
 10
678.04241937867403
 20
101.08610575603259
 30
0.0
 41
0.1000000000000227
 42
0.1000000000000227
 43
0.1000000000000227
  0
INSERT
  5
1A2
  8
11
  2
STDGX5
 10
681.79092924029567
 20
97.486105728372294
 30
0.0
 41
0.1000000000000227
 42
0.1000000000000227
 43
0.1000000000000227
  0
INSERT
  5
1A3
  8
11
  2
STDGX5
 10
675.14584353413693
 20
94.250970631329551
 30
0.0
 41
0.1000000000000227
 42
0.1000000000000227
 43
0.1000000000000227
  0
INSERT
  5
1A4
  8
11
  2
STDGX5
 10
756.54634403969453
 20
104.1018399526877
 30
0.0
 41
0.1000000000000227
 42
0.1000000000000227
 43
0.1000000000000227
  0
INSERT
  5
1A5
  8
11
  2
STDGX5
 10
760.29485390131606
 20
100.5018399250274
 30
0.0
 41
0.1000000000000227
 42
0.1000000000000227
 43
0.1000000000000227
  0
INSERT
  5
1A6
  8
11
  2
STDGX5
 10
753.64976819515732
 20
97.266704827984682
 30
0.0
 41
0.1000000000000227
 42
0.1000000000000227
 43
0.1000000000000227
  0
INSERT
  5
1A7
  8
11
  2
STDGX5
 10
618.37877947615698
 20
85.814076673892828
 30
0.0
 41
0.1000000000000227
 42
0.1000000000000227
 43
0.1000000000000227
  0
INSERT
  5
1A8
  8
11
  2
STDGX5
 10
622.12728933777862
 20
82.214076646232556
 30
0.0
 41
0.1000000000000227
 42
0.1000000000000227
 43
0.1000000000000227
  0
INSERT
  5
1A9
  8
11
  2
STDGX5
 10
615.48220363161965
 20
78.978941549189813
 30
0.0
 41
0.1000000000000227
 42
0.1000000000000227
 43
0.1000000000000227
  0
INSERT
  5
1AA
  8
11
  2
STDGX5
 10
705.54241937867414
 20
103.5861100762742
 30
0.0
 41
0.1000000000000227
 42
0.1000000000000227
 43
0.1000000000000227
  0
INSERT
  5
1AB
  8
11
  2
STDGX5
 10
709.29092924029567
 20
99.98611004861398
 30
0.0
 41
0.1000000000000227
 42
0.1000000000000227
 43
0.1000000000000227
  0
INSERT
  5
1AC
  8
11
  2
STDGX5
 10
702.64584353413693
 20
96.750974951571251
 30
0.0
 41
0.1000000000000227
 42
0.1000000000000227
 43
0.1000000000000227
  0
INSERT
  5
1AD
  8
11
  2
STDGX5
 10
784.04634403969453
 20
106.6018442729294
 30
0.0
 41
0.1000000000000227
 42
0.1000000000000227
 43
0.1000000000000227
  0
INSERT
  5
1AE
  8
11
  2
STDGX5
 10
787.79485390131617
 20
103.0018442452691
 30
0.0
 41
0.1000000000000227
 42
0.1000000000000227
 43
0.1000000000000227
  0
INSERT
  5
1AF
  8
11
  2
STDGX5
 10
781.14976819515732
 20
99.766709148226369
 30
0.0
 41
0.1000000000000227
 42
0.1000000000000227
 43
0.1000000000000227
  0
INSERT
  5
1B0
  8
11
  2
STDGX5
 10
618.37877947615698
 20
85.814076673892828
 30
0.0
 41
0.1000000000000227
 42
0.1000000000000227
 43
0.1000000000000227
  0
INSERT
  5
1B1
  8
11
  2
STDGX5
 10
622.12728933777862
 20
82.214076646232556
 30
0.0
 41
0.1000000000000227
 42
0.1000000000000227
 43
0.1000000000000227
  0
INSERT
  5
1B2
  8
11
  2
STDGX5
 10
615.48220363161965
 20
78.978941549189813
 30
0.0
 41
0.1000000000000227
 42
0.1000000000000227
 43
0.1000000000000227
  0
INSERT
  5
1B3
  8
11
  2
STDGX5
 10
705.54241937867414
 20
103.5861100762742
 30
0.0
 41
0.1000000000000227
 42
0.1000000000000227
 43
0.1000000000000227
  0
INSERT
  5
1B4
  8
11
  2
STDGX5
 10
709.29092924029567
 20
99.98611004861398
 30
0.0
 41
0.1000000000000227
 42
0.1000000000000227
 43
0.1000000000000227
  0
INSERT
  5
1B5
  8
11
  2
STDGX5
 10
702.64584353413693
 20
96.750974951571251
 30
0.0
 41
0.1000000000000227
 42
0.1000000000000227
 43
0.1000000000000227
  0
INSERT
  5
1B6
  8
11
  2
STDGX5
 10
784.04634403969453
 20
106.6018442729294
 30
0.0
 41
0.1000000000000227
 42
0.1000000000000227
 43
0.1000000000000227
  0
INSERT
  5
1B7
  8
11
  2
STDGX5
 10
787.79485390131617
 20
103.0018442452691
 30
0.0
 41
0.1000000000000227
 42
0.1000000000000227
 43
0.1000000000000227
  0
INSERT
  5
1B8
  8
11
  2
STDGX5
 10
781.14976819515732
 20
99.766709148226369
 30
0.0
 41
0.1000000000000227
 42
0.1000000000000227
 43
0.1000000000000227
  0
INSERT
  5
1B9
  8
11
  2
STDGX5
 10
618.37877947615698
 20
85.814076673892828
 30
0.0
 41
0.1000000000000227
 42
0.1000000000000227
 43
0.1000000000000227
  0
INSERT
  5
1BA
  8
11
  2
STDGX5
 10
622.12728933777862
 20
82.214076646232556
 30
0.0
 41
0.1000000000000227
 42
0.1000000000000227
 43
0.1000000000000227
  0
INSERT
  5
1BB
  8
11
  2
STDGX5
 10
615.48220363161965
 20
78.978941549189813
 30
0.0
 41
0.1000000000000227
 42
0.1000000000000227
 43
0.1000000000000227
  0
INSERT
  5
1BC
  8
11
  2
STDGX5
 10
705.54241937867414
 20
103.5861100762742
 30
0.0
 41
0.1000000000000227
 42
0.1000000000000227
 43
0.1000000000000227
  0
INSERT
  5
1BD
  8
11
  2
STDGX5
 10
709.29092924029567
 20
99.98611004861398
 30
0.0
 41
0.1000000000000227
 42
0.1000000000000227
 43
0.1000000000000227
  0
INSERT
  5
1BE
  8
11
  2
STDGX5
 10
702.64584353413693
 20
96.750974951571251
 30
0.0
 41
0.1000000000000227
 42
0.1000000000000227
 43
0.1000000000000227
  0
INSERT
  5
1BF
  8
11
  2
STDGX5
 10
784.04634403969453
 20
106.6018442729294
 30
0.0
 41
0.1000000000000227
 42
0.1000000000000227
 43
0.1000000000000227
  0
INSERT
  5
1C0
  8
11
  2
STDGX5
 10
787.79485390131617
 20
103.0018442452691
 30
0.0
 41
0.1000000000000227
 42
0.1000000000000227
 43
0.1000000000000227
  0
INSERT
  5
1C1
  8
11
  2
STDGX5
 10
781.14976819515732
 20
99.766709148226369
 30
0.0
 41
0.1000000000000227
 42
0.1000000000000227
 43
0.1000000000000227
  0
INSERT
  5
1C2
  8
11
  2
STDGX5
 10
618.37877947615698
 20
85.814076673892828
 30
0.0
 41
0.1000000000000227
 42
0.1000000000000227
 43
0.1000000000000227
  0
INSERT
  5
1C3
  8
11
  2
STDGX5
 10
622.12728933777862
 20
82.214076646232556
 30
0.0
 41
0.1000000000000227
 42
0.1000000000000227
 43
0.1000000000000227
  0
INSERT
  5
1C4
  8
11
  2
STDGX5
 10
615.48220363161965
 20
78.978941549189813
 30
0.0
 41
0.1000000000000227
 42
0.1000000000000227
 43
0.1000000000000227
  0
INSERT
  5
1C5
  8
11
  2
STDGX5
 10
705.54241937867414
 20
103.5861100762742
 30
0.0
 41
0.1000000000000227
 42
0.1000000000000227
 43
0.1000000000000227
  0
INSERT
  5
1C6
  8
11
  2
STDGX5
 10
709.29092924029567
 20
99.98611004861398
 30
0.0
 41
0.1000000000000227
 42
0.1000000000000227
 43
0.1000000000000227
  0
INSERT
  5
1C7
  8
11
  2
STDGX5
 10
702.64584353413693
 20
96.750974951571251
 30
0.0
 41
0.1000000000000227
 42
0.1000000000000227
 43
0.1000000000000227
  0
INSERT
  5
1C8
  8
11
  2
STDGX5
 10
784.04634403969453
 20
106.6018442729294
 30
0.0
 41
0.1000000000000227
 42
0.1000000000000227
 43
0.1000000000000227
  0
INSERT
  5
1C9
  8
11
  2
STDGX5
 10
787.79485390131617
 20
103.0018442452691
 30
0.0
 41
0.1000000000000227
 42
0.1000000000000227
 43
0.1000000000000227
  0
INSERT
  5
1CA
  8
11
  2
STDGX5
 10
781.14976819515732
 20
99.766709148226369
 30
0.0
 41
0.1000000000000227
 42
0.1000000000000227
 43
0.1000000000000227
  0
INSERT
  5
1CB
  8
11
  2
STDGX5
 10
591.12695745685505
 20
82.845705004557033
 30
0.0
 41
0.1000000000000227
 42
0.1000000000000227
 43
0.1000000000000227
  0
INSERT
  5
1CC
  8
11
  2
STDGX5
 10
594.87546731847681
 20
79.245704976896747
 30
0.0
 41
0.1000000000000227
 42
0.1000000000000227
 43
0.1000000000000227
  0
INSERT
  5
1CD
  8
11
  2
STDGX5
 10
588.23038161231796
 20
76.010569879853989
 30
0.0
 41
0.1000000000000227
 42
0.1000000000000227
 43
0.1000000000000227
  0
INSERT
  5
1CE
  8
11
  2
STDGX5
 10
678.29059735937221
 20
100.6177384069384
 30
0.0
 41
0.1000000000000227
 42
0.1000000000000227
 43
0.1000000000000227
  0
INSERT
  5
1CF
  8
11
  2
STDGX5
 10
682.03910722099386
 20
97.017738379278171
 30
0.0
 41
0.1000000000000227
 42
0.1000000000000227
 43
0.1000000000000227
  0
INSERT
  5
1D0
  8
11
  2
STDGX5
 10
675.39402151483489
 20
93.782603282235428
 30
0.0
 41
0.1000000000000227
 42
0.1000000000000227
 43
0.1000000000000227
  0
INSERT
  5
1D1
  8
11
  2
STDGX5
 10
756.79452202039272
 20
103.6334726035936
 30
0.0
 41
0.1000000000000227
 42
0.1000000000000227
 43
0.1000000000000227
  0
INSERT
  5
1D2
  8
11
  2
STDGX5
 10
760.54303188201425
 20
100.0334725759333
 30
0.0
 41
0.1000000000000227
 42
0.1000000000000227
 43
0.1000000000000227
  0
INSERT
  5
1D3
  8
11
  2
STDGX5
 10
753.89794617585551
 20
96.798337478890545
 30
0.0
 41
0.1000000000000227
 42
0.1000000000000227
 43
0.1000000000000227
  0
INSERT
  5
1D4
  8
11
  2
STDGX5
 10
618.62695745685517
 20
85.345709324798705
 30
0.0
 41
0.1000000000000227
 42
0.1000000000000227
 43
0.1000000000000227
  0
INSERT
  5
1D5
  8
11
  2
STDGX5
 10
622.37546731847669
 20
81.745709297138418
 30
0.0
 41
0.1000000000000227
 42
0.1000000000000227
 43
0.1000000000000227
  0
INSERT
  5
1D6
  8
11
  2
STDGX5
 10
615.73038161231807
 20
78.510574200095689
 30
0.0
 41
0.1000000000000227
 42
0.1000000000000227
 43
0.1000000000000227
  0
INSERT
  5
1D7
  8
11
  2
STDGX5
 10
705.7905973593721
 20
103.1177427271801
 30
0.0
 41
0.1000000000000227
 42
0.1000000000000227
 43
0.1000000000000227
  0
INSERT
  5
1D8
  8
11
  2
STDGX5
 10
709.53910722099386
 20
99.517742699519857
 30
0.0
 41
0.1000000000000227
 42
0.1000000000000227
 43
0.1000000000000227
  0
INSERT
  5
1D9
  8
11
  2
STDGX5
 10
702.894021514835
 20
96.282607602477114
 30
0.0
 41
0.1000000000000227
 42
0.1000000000000227
 43
0.1000000000000227
  0
INSERT
  5
1DA
  8
11
  2
STDGX5
 10
784.29452202039272
 20
106.1334769238353
 30
0.0
 41
0.1000000000000227
 42
0.1000000000000227
 43
0.1000000000000227
  0
INSERT
  5
1DB
  8
11
  2
STDGX5
 10
788.04303188201436
 20
102.533476896175
 30
0.0
 41
0.1000000000000227
 42
0.1000000000000227
 43
0.1000000000000227
  0
INSERT
  5
1DC
  8
11
  2
STDGX5
 10
781.39794617585551
 20
99.298341799132245
 30
0.0
 41
0.1000000000000227
 42
0.1000000000000227
 43
0.1000000000000227
  0
INSERT
  5
1DD
  8
11
  2
STDGX5
 10
590.79605342724722
 20
82.818153982173129
 30
0.0
 41
0.1000000000000227
 42
0.1000000000000227
 43
0.1000000000000227
  0
INSERT
  5
1DE
  8
11
  2
STDGX5
 10
594.54456328886874
 20
79.218153954512843
 30
0.0
 41
0.1000000000000227
 42
0.1000000000000227
 43
0.1000000000000227
  0
INSERT
  5
1DF
  8
11
  2
STDGX5
 10
587.89947758270989
 20
75.9830188574701
 30
0.0
 41
0.1000000000000227
 42
0.1000000000000227
 43
0.1000000000000227
  0
INSERT
  5
1E0
  8
11
  2
STDGX5
 10
677.95969332976415
 20
100.5901873845545
 30
0.0
 41
0.1000000000000227
 42
0.1000000000000227
 43
0.1000000000000227
  0
INSERT
  5
1E1
  8
11
  2
STDGX5
 10
681.70820319138591
 20
96.990187356894282
 30
0.0
 41
0.1000000000000227
 42
0.1000000000000227
 43
0.1000000000000227
  0
INSERT
  5
1E2
  8
11
  2
STDGX5
 10
675.06311748522705
 20
93.755052259851524
 30
0.0
 41
0.1000000000000227
 42
0.1000000000000227
 43
0.1000000000000227
  0
INSERT
  5
1E3
  8
11
  2
STDGX5
 10
756.46361799078466
 20
103.6059215812097
 30
0.0
 41
0.1000000000000227
 42
0.1000000000000227
 43
0.1000000000000227
  0
INSERT
  5
1E4
  8
11
  2
STDGX5
 10
760.21212785240641
 20
100.0059215535494
 30
0.0
 41
0.1000000000000227
 42
0.1000000000000227
 43
0.1000000000000227
  0
INSERT
  5
1E5
  8
11
  2
STDGX5
 10
753.56704214624756
 20
96.770786456506656
 30
0.0
 41
0.1000000000000227
 42
0.1000000000000227
 43
0.1000000000000227
  0
INSERT
  5
1E6
  8
11
  2
STDGX5
 10
618.29605342724722
 20
85.318158302414815
 30
0.0
 41
0.1000000000000227
 42
0.1000000000000227
 43
0.1000000000000227
  0
INSERT
  5
1E7
  8
11
  2
STDGX5
 10
622.04456328886874
 20
81.718158274754529
 30
0.0
 41
0.1000000000000227
 42
0.1000000000000227
 43
0.1000000000000227
  0
INSERT
  5
1E8
  8
11
  2
STDGX5
 10
615.39947758271001
 20
78.483023177711786
 30
0.0
 41
0.1000000000000227
 42
0.1000000000000227
 43
0.1000000000000227
  0
INSERT
  5
1E9
  8
11
  2
STDGX5
 10
705.45969332976426
 20
103.0901917047962
 30
0.0
 41
0.1000000000000227
 42
0.1000000000000227
 43
0.1000000000000227
  0
INSERT
  5
1EA
  8
11
  2
STDGX5
 10
709.20820319138602
 20
99.490191677135968
 30
0.0
 41
0.1000000000000227
 42
0.1000000000000227
 43
0.1000000000000227
  0
INSERT
  5
1EB
  8
11
  2
STDGX5
 10
702.56311748522705
 20
96.255056580093225
 30
0.0
 41
0.1000000000000227
 42
0.1000000000000227
 43
0.1000000000000227
  0
INSERT
  5
1EC
  8
11
  2
STDGX5
 10
783.96361799078477
 20
106.1059259014514
 30
0.0
 41
0.1000000000000227
 42
0.1000000000000227
 43
0.1000000000000227
  0
INSERT
  5
1ED
  8
11
  2
STDGX5
 10
787.71212785240641
 20
102.5059258737911
 30
0.0
 41
0.1000000000000227
 42
0.1000000000000227
 43
0.1000000000000227
  0
INSERT
  5
1EE
  8
11
  2
STDGX5
 10
781.06704214624745
 20
99.270790776748342
 30
0.0
 41
0.1000000000000227
 42
0.1000000000000227
 43
0.1000000000000227
  0
INSERT
  5
1EF
  8
11
  2
STDGX5
 10
618.29605342724722
 20
85.318158302414815
 30
0.0
 41
0.1000000000000227
 42
0.1000000000000227
 43
0.1000000000000227
  0
INSERT
  5
1F0
  8
11
  2
STDGX5
 10
622.04456328886874
 20
81.718158274754529
 30
0.0
 41
0.1000000000000227
 42
0.1000000000000227
 43
0.1000000000000227
  0
INSERT
  5
1F1
  8
11
  2
STDGX5
 10
615.39947758271001
 20
78.483023177711786
 30
0.0
 41
0.1000000000000227
 42
0.1000000000000227
 43
0.1000000000000227
  0
INSERT
  5
1F2
  8
11
  2
STDGX5
 10
705.45969332976426
 20
103.0901917047962
 30
0.0
 41
0.1000000000000227
 42
0.1000000000000227
 43
0.1000000000000227
  0
INSERT
  5
1F3
  8
11
  2
STDGX5
 10
709.20820319138602
 20
99.490191677135968
 30
0.0
 41
0.1000000000000227
 42
0.1000000000000227
 43
0.1000000000000227
  0
INSERT
  5
1F4
  8
11
  2
STDGX5
 10
702.56311748522705
 20
96.255056580093225
 30
0.0
 41
0.1000000000000227
 42
0.1000000000000227
 43
0.1000000000000227
  0
INSERT
  5
1F5
  8
11
  2
STDGX5
 10
783.96361799078477
 20
106.1059259014514
 30
0.0
 41
0.1000000000000227
 42
0.1000000000000227
 43
0.1000000000000227
  0
INSERT
  5
1F6
  8
11
  2
STDGX5
 10
787.71212785240641
 20
102.5059258737911
 30
0.0
 41
0.1000000000000227
 42
0.1000000000000227
 43
0.1000000000000227
  0
INSERT
  5
1F7
  8
11
  2
STDGX5
 10
781.06704214624745
 20
99.270790776748342
 30
0.0
 41
0.1000000000000227
 42
0.1000000000000227
 43
0.1000000000000227
  0
INSERT
  5
1F8
  8
11
  2
STDGX5
 10
618.29605342724722
 20
85.318158302414815
 30
0.0
 41
0.1000000000000227
 42
0.1000000000000227
 43
0.1000000000000227
  0
INSERT
  5
1F9
  8
11
  2
STDGX5
 10
622.04456328886874
 20
81.718158274754529
 30
0.0
 41
0.1000000000000227
 42
0.1000000000000227
 43
0.1000000000000227
  0
INSERT
  5
1FA
  8
11
  2
STDGX5
 10
615.39947758271001
 20
78.483023177711786
 30
0.0
 41
0.1000000000000227
 42
0.1000000000000227
 43
0.1000000000000227
  0
INSERT
  5
1FB
  8
11
  2
STDGX5
 10
705.45969332976426
 20
103.0901917047962
 30
0.0
 41
0.1000000000000227
 42
0.1000000000000227
 43
0.1000000000000227
  0
INSERT
  5
1FC
  8
11
  2
STDGX5
 10
709.20820319138602
 20
99.490191677135968
 30
0.0
 41
0.1000000000000227
 42
0.1000000000000227
 43
0.1000000000000227
  0
INSERT
  5
1FD
  8
11
  2
STDGX5
 10
702.56311748522705
 20
96.255056580093225
 30
0.0
 41
0.1000000000000227
 42
0.1000000000000227
 43
0.1000000000000227
  0
INSERT
  5
1FE
  8
11
  2
STDGX5
 10
783.96361799078477
 20
106.1059259014514
 30
0.0
 41
0.1000000000000227
 42
0.1000000000000227
 43
0.1000000000000227
  0
INSERT
  5
1FF
  8
11
  2
STDGX5
 10
787.71212785240641
 20
102.5059258737911
 30
0.0
 41
0.1000000000000227
 42
0.1000000000000227
 43
0.1000000000000227
  0
INSERT
  5
200
  8
11
  2
STDGX5
 10
781.06704214624745
 20
99.270790776748342
 30
0.0
 41
0.1000000000000227
 42
0.1000000000000227
 43
0.1000000000000227
  0
INSERT
  5
201
  8
11
  2
STDGX5
 10
645.79605342724722
 20
87.818162622656516
 30
0.0
 41
0.1000000000000227
 42
0.1000000000000227
 43
0.1000000000000227
  0
INSERT
  5
202
  8
11
  2
STDGX5
 10
649.54456328886886
 20
84.21816259499623
 30
0.0
 41
0.1000000000000227
 42
0.1000000000000227
 43
0.1000000000000227
  0
INSERT
  5
203
  8
11
  2
STDGX5
 10
642.89947758270989
 20
80.983027497953486
 30
0.0
 41
0.1000000000000227
 42
0.1000000000000227
 43
0.1000000000000227
  0
INSERT
  5
204
  8
11
  2
STDGX5
 10
732.95969332976438
 20
105.5901960250379
 30
0.0
 41
0.1000000000000227
 42
0.1000000000000227
 43
0.1000000000000227
  0
INSERT
  5
205
  8
11
  2
STDGX5
 10
736.70820319138591
 20
101.9901959973776
 30
0.0
 41
0.1000000000000227
 42
0.1000000000000227
 43
0.1000000000000227
  0
INSERT
  5
206
  8
11
  2
STDGX5
 10
730.06311748522705
 20
98.755060900334911
 30
0.0
 41
0.1000000000000227
 42
0.1000000000000227
 43
0.1000000000000227
  0
INSERT
  5
207
  8
11
  2
STDGX5
 10
811.46361799078466
 20
108.6059302216931
 30
0.0
 41
0.1000000000000227
 42
0.1000000000000227
 43
0.1000000000000227
  0
INSERT
  5
208
  8
11
  2
STDGX5
 10
815.2121278524063
 20
105.0059301940328
 30
0.0
 41
0.1000000000000227
 42
0.1000000000000227
 43
0.1000000000000227
  0
INSERT
  5
209
  8
11
  2
STDGX5
 10
808.56704214624745
 20
101.77079509699
 30
0.0
 41
0.1000000000000227
 42
0.1000000000000227
 43
0.1000000000000227
  0
INSERT
  5
20A
  8
11
  2
STDGX5
 10
618.29605342724722
 20
100.3181539821731
 30
0.0
 41
0.1000000000000227
 42
0.1000000000000227
 43
0.1000000000000227
  0
INSERT
  5
20B
  8
11
  2
STDGX5
 10
622.04456328886874
 20
96.718153954512843
 30
0.0
 41
0.1000000000000227
 42
0.1000000000000227
 43
0.1000000000000227
  0
INSERT
  5
20C
  8
11
  2
STDGX5
 10
615.39947758271001
 20
93.483018857470114
 30
0.0
 41
0.1000000000000227
 42
0.1000000000000227
 43
0.1000000000000227
  0
INSERT
  5
20D
  8
11
  2
STDGX5
 10
705.45969332976426
 20
118.0901873845545
 30
0.0
 41
0.1000000000000227
 42
0.1000000000000227
 43
0.1000000000000227
  0
INSERT
  5
20E
  8
11
  2
STDGX5
 10
709.20820319138602
 20
114.4901873568942
 30
0.0
 41
0.1000000000000227
 42
0.1000000000000227
 43
0.1000000000000227
  0
INSERT
  5
20F
  8
11
  2
STDGX5
 10
702.56311748522705
 20
111.2550522598515
 30
0.0
 41
0.1000000000000227
 42
0.1000000000000227
 43
0.1000000000000227
  0
INSERT
  5
210
  8
11
  2
STDGX5
 10
783.96361799078477
 20
121.1059215812097
 30
0.0
 41
0.1000000000000227
 42
0.1000000000000227
 43
0.1000000000000227
  0
INSERT
  5
211
  8
11
  2
STDGX5
 10
787.71212785240641
 20
117.5059215535494
 30
0.0
 41
0.1000000000000227
 42
0.1000000000000227
 43
0.1000000000000227
  0
INSERT
  5
212
  8
11
  2
STDGX5
 10
781.06704214624745
 20
114.2707864565066
 30
0.0
 41
0.1000000000000227
 42
0.1000000000000227
 43
0.1000000000000227
  0
INSERT
  5
213
  8
11
  2
STDGX5
 10
645.79605342724722
 20
102.8181583024148
 30
0.0
 41
0.1000000000000227
 42
0.1000000000000227
 43
0.1000000000000227
  0
INSERT
  5
214
  8
11
  2
STDGX5
 10
649.54456328886886
 20
99.218158274754529
 30
0.0
 41
0.1000000000000227
 42
0.1000000000000227
 43
0.1000000000000227
  0
INSERT
  5
215
  8
11
  2
STDGX5
 10
642.89947758270989
 20
95.983023177711786
 30
0.0
 41
0.1000000000000227
 42
0.1000000000000227
 43
0.1000000000000227
  0
INSERT
  5
216
  8
11
  2
STDGX5
 10
732.95969332976438
 20
120.5901917047963
 30
0.0
 41
0.1000000000000227
 42
0.1000000000000227
 43
0.1000000000000227
  0
INSERT
  5
217
  8
11
  2
STDGX5
 10
736.70820319138591
 20
116.990191677136
 30
0.0
 41
0.1000000000000227
 42
0.1000000000000227
 43
0.1000000000000227
  0
INSERT
  5
218
  8
11
  2
STDGX5
 10
730.06311748522705
 20
113.7550565800932
 30
0.0
 41
0.1000000000000227
 42
0.1000000000000227
 43
0.1000000000000227
  0
INSERT
  5
219
  8
11
  2
STDGX5
 10
811.46361799078466
 20
123.6059259014514
 30
0.0
 41
0.1000000000000227
 42
0.1000000000000227
 43
0.1000000000000227
  0
INSERT
  5
21A
  8
11
  2
STDGX5
 10
815.2121278524063
 20
120.0059258737911
 30
0.0
 41
0.1000000000000227
 42
0.1000000000000227
 43
0.1000000000000227
  0
INSERT
  5
21B
  8
11
  2
STDGX5
 10
808.56704214624745
 20
116.7707907767483
 30
0.0
 41
0.1000000000000227
 42
0.1000000000000227
 43
0.1000000000000227
  0
INSERT
  5
21C
  8
11
  2
STDGX5
 10
618.29605342724722
 20
85.318158302414815
 30
0.0
 41
0.1000000000000227
 42
0.1000000000000227
 43
0.1000000000000227
  0
INSERT
  5
21D
  8
11
  2
STDGX5
 10
622.04456328886874
 20
81.718158274754529
 30
0.0
 41
0.1000000000000227
 42
0.1000000000000227
 43
0.1000000000000227
  0
INSERT
  5
21E
  8
11
  2
STDGX5
 10
615.39947758271001
 20
78.483023177711786
 30
0.0
 41
0.1000000000000227
 42
0.1000000000000227
 43
0.1000000000000227
  0
INSERT
  5
21F
  8
11
  2
STDGX5
 10
705.45969332976426
 20
103.0901917047962
 30
0.0
 41
0.1000000000000227
 42
0.1000000000000227
 43
0.1000000000000227
  0
INSERT
  5
220
  8
11
  2
STDGX5
 10
709.20820319138602
 20
99.490191677135968
 30
0.0
 41
0.1000000000000227
 42
0.1000000000000227
 43
0.1000000000000227
  0
INSERT
  5
221
  8
11
  2
STDGX5
 10
702.56311748522705
 20
96.255056580093225
 30
0.0
 41
0.1000000000000227
 42
0.1000000000000227
 43
0.1000000000000227
  0
INSERT
  5
222
  8
11
  2
STDGX5
 10
783.96361799078477
 20
106.1059259014514
 30
0.0
 41
0.1000000000000227
 42
0.1000000000000227
 43
0.1000000000000227
  0
INSERT
  5
223
  8
11
  2
STDGX5
 10
787.71212785240641
 20
102.5059258737911
 30
0.0
 41
0.1000000000000227
 42
0.1000000000000227
 43
0.1000000000000227
  0
INSERT
  5
224
  8
11
  2
STDGX5
 10
781.06704214624745
 20
99.270790776748342
 30
0.0
 41
0.1000000000000227
 42
0.1000000000000227
 43
0.1000000000000227
  0
INSERT
  5
225
  8
11
  2
STDGX5
 10
645.79605342724722
 20
87.818162622656516
 30
0.0
 41
0.1000000000000227
 42
0.1000000000000227
 43
0.1000000000000227
  0
INSERT
  5
226
  8
11
  2
STDGX5
 10
649.54456328886886
 20
84.21816259499623
 30
0.0
 41
0.1000000000000227
 42
0.1000000000000227
 43
0.1000000000000227
  0
INSERT
  5
227
  8
11
  2
STDGX5
 10
642.89947758270989
 20
80.983027497953486
 30
0.0
 41
0.1000000000000227
 42
0.1000000000000227
 43
0.1000000000000227
  0
INSERT
  5
228
  8
11
  2
STDGX5
 10
732.95969332976438
 20
105.5901960250379
 30
0.0
 41
0.1000000000000227
 42
0.1000000000000227
 43
0.1000000000000227
  0
INSERT
  5
229
  8
11
  2
STDGX5
 10
736.70820319138591
 20
101.9901959973776
 30
0.0
 41
0.1000000000000227
 42
0.1000000000000227
 43
0.1000000000000227
  0
INSERT
  5
22A
  8
11
  2
STDGX5
 10
730.06311748522705
 20
98.755060900334911
 30
0.0
 41
0.1000000000000227
 42
0.1000000000000227
 43
0.1000000000000227
  0
INSERT
  5
22B
  8
11
  2
STDGX5
 10
811.46361799078466
 20
108.6059302216931
 30
0.0
 41
0.1000000000000227
 42
0.1000000000000227
 43
0.1000000000000227
  0
INSERT
  5
22C
  8
11
  2
STDGX5
 10
815.2121278524063
 20
105.0059301940328
 30
0.0
 41
0.1000000000000227
 42
0.1000000000000227
 43
0.1000000000000227
  0
INSERT
  5
22D
  8
11
  2
STDGX5
 10
808.56704214624745
 20
101.77079509699
 30
0.0
 41
0.1000000000000227
 42
0.1000000000000227
 43
0.1000000000000227
  0
INSERT
  5
22E
  8
11
  2
STDGX5
 10
590.87877947615686
 20
82.79060295978924
 30
0.0
 41
0.1000000000000227
 42
0.1000000000000227
 43
0.1000000000000227
  0
INSERT
  5
22F
  8
11
  2
STDGX5
 10
594.62728933777862
 20
79.190602932128925
 30
0.0
 41
0.1000000000000227
 42
0.1000000000000227
 43
0.1000000000000227
  0
INSERT
  5
230
  8
11
  2
STDGX5
 10
587.98220363161965
 20
75.955467835086196
 30
0.0
 41
0.1000000000000227
 42
0.1000000000000227
 43
0.1000000000000227
  0
INSERT
  5
231
  8
11
  2
STDGX5
 10
678.04241937867403
 20
100.56263636217059
 30
0.0
 41
0.1000000000000227
 42
0.1000000000000227
 43
0.1000000000000227
  0
INSERT
  5
232
  8
11
  2
STDGX5
 10
681.79092924029567
 20
96.962636334510393
 30
0.0
 41
0.1000000000000227
 42
0.1000000000000227
 43
0.1000000000000227
  0
INSERT
  5
233
  8
11
  2
STDGX5
 10
675.14584353413693
 20
93.727501237467635
 30
0.0
 41
0.1000000000000227
 42
0.1000000000000227
 43
0.1000000000000227
  0
INSERT
  5
234
  8
11
  2
STDGX5
 10
756.54634403969453
 20
103.5783705588258
 30
0.0
 41
0.1000000000000227
 42
0.1000000000000227
 43
0.1000000000000227
  0
INSERT
  5
235
  8
11
  2
STDGX5
 10
760.29485390131606
 20
99.978370531165496
 30
0.0
 41
0.1000000000000227
 42
0.1000000000000227
 43
0.1000000000000227
  0
INSERT
  5
236
  8
11
  2
STDGX5
 10
753.64976819515732
 20
96.743235434122766
 30
0.0
 41
0.1000000000000227
 42
0.1000000000000227
 43
0.1000000000000227
  0
INSERT
  5
237
  8
11
  2
STDGX5
 10
618.37877947615698
 20
85.290607280030926
 30
0.0
 41
0.1000000000000227
 42
0.1000000000000227
 43
0.1000000000000227
  0
INSERT
  5
238
  8
11
  2
STDGX5
 10
622.12728933777862
 20
81.690607252370654
 30
0.0
 41
0.1000000000000227
 42
0.1000000000000227
 43
0.1000000000000227
  0
INSERT
  5
239
  8
11
  2
STDGX5
 10
615.48220363161965
 20
78.455472155327897
 30
0.0
 41
0.1000000000000227
 42
0.1000000000000227
 43
0.1000000000000227
  0
INSERT
  5
23A
  8
11
  2
STDGX5
 10
705.54241937867414
 20
103.06264068241229
 30
0.0
 41
0.1000000000000227
 42
0.1000000000000227
 43
0.1000000000000227
  0
INSERT
  5
23B
  8
11
  2
STDGX5
 10
709.29092924029567
 20
99.462640654752065
 30
0.0
 41
0.1000000000000227
 42
0.1000000000000227
 43
0.1000000000000227
  0
INSERT
  5
23C
  8
11
  2
STDGX5
 10
702.64584353413693
 20
96.227505557709335
 30
0.0
 41
0.1000000000000227
 42
0.1000000000000227
 43
0.1000000000000227
  0
INSERT
  5
23D
  8
11
  2
STDGX5
 10
784.04634403969453
 20
106.0783748790675
 30
0.0
 41
0.1000000000000227
 42
0.1000000000000227
 43
0.1000000000000227
  0
INSERT
  5
23E
  8
11
  2
STDGX5
 10
787.79485390131617
 20
102.4783748514072
 30
0.0
 41
0.1000000000000227
 42
0.1000000000000227
 43
0.1000000000000227
  0
INSERT
  5
23F
  8
11
  2
STDGX5
 10
781.14976819515732
 20
99.243239754364453
 30
0.0
 41
0.1000000000000227
 42
0.1000000000000227
 43
0.1000000000000227
  0
INSERT
  5
240
  8
11
  2
STDGX5
 10
618.37877947615698
 20
85.290607280030926
 30
0.0
 41
0.1000000000000227
 42
0.1000000000000227
 43
0.1000000000000227
  0
INSERT
  5
241
  8
11
  2
STDGX5
 10
622.12728933777862
 20
81.690607252370654
 30
0.0
 41
0.1000000000000227
 42
0.1000000000000227
 43
0.1000000000000227
  0
INSERT
  5
242
  8
11
  2
STDGX5
 10
615.48220363161965
 20
78.455472155327897
 30
0.0
 41
0.1000000000000227
 42
0.1000000000000227
 43
0.1000000000000227
  0
INSERT
  5
243
  8
11
  2
STDGX5
 10
705.54241937867414
 20
103.06264068241229
 30
0.0
 41
0.1000000000000227
 42
0.1000000000000227
 43
0.1000000000000227
  0
INSERT
  5
244
  8
11
  2
STDGX5
 10
709.29092924029567
 20
99.462640654752065
 30
0.0
 41
0.1000000000000227
 42
0.1000000000000227
 43
0.1000000000000227
  0
INSERT
  5
245
  8
11
  2
STDGX5
 10
702.64584353413693
 20
96.227505557709335
 30
0.0
 41
0.1000000000000227
 42
0.1000000000000227
 43
0.1000000000000227
  0
INSERT
  5
246
  8
11
  2
STDGX5
 10
784.04634403969453
 20
106.0783748790675
 30
0.0
 41
0.1000000000000227
 42
0.1000000000000227
 43
0.1000000000000227
  0
INSERT
  5
247
  8
11
  2
STDGX5
 10
787.79485390131617
 20
102.4783748514072
 30
0.0
 41
0.1000000000000227
 42
0.1000000000000227
 43
0.1000000000000227
  0
INSERT
  5
248
  8
11
  2
STDGX5
 10
781.14976819515732
 20
99.243239754364453
 30
0.0
 41
0.1000000000000227
 42
0.1000000000000227
 43
0.1000000000000227
  0
INSERT
  5
249
  8
11
  2
STDGX5
 10
618.37877947615698
 20
85.290607280030926
 30
0.0
 41
0.1000000000000227
 42
0.1000000000000227
 43
0.1000000000000227
  0
INSERT
  5
24A
  8
11
  2
STDGX5
 10
622.12728933777862
 20
81.690607252370654
 30
0.0
 41
0.1000000000000227
 42
0.1000000000000227
 43
0.1000000000000227
  0
INSERT
  5
24B
  8
11
  2
STDGX5
 10
615.48220363161965
 20
78.455472155327897
 30
0.0
 41
0.1000000000000227
 42
0.1000000000000227
 43
0.1000000000000227
  0
INSERT
  5
24C
  8
11
  2
STDGX5
 10
705.54241937867414
 20
103.06264068241229
 30
0.0
 41
0.1000000000000227
 42
0.1000000000000227
 43
0.1000000000000227
  0
INSERT
  5
24D
  8
11
  2
STDGX5
 10
709.29092924029567
 20
99.462640654752065
 30
0.0
 41
0.1000000000000227
 42
0.1000000000000227
 43
0.1000000000000227
  0
INSERT
  5
24E
  8
11
  2
STDGX5
 10
702.64584353413693
 20
96.227505557709335
 30
0.0
 41
0.1000000000000227
 42
0.1000000000000227
 43
0.1000000000000227
  0
INSERT
  5
24F
  8
11
  2
STDGX5
 10
784.04634403969453
 20
106.0783748790675
 30
0.0
 41
0.1000000000000227
 42
0.1000000000000227
 43
0.1000000000000227
  0
INSERT
  5
250
  8
11
  2
STDGX5
 10
787.79485390131617
 20
102.4783748514072
 30
0.0
 41
0.1000000000000227
 42
0.1000000000000227
 43
0.1000000000000227
  0
INSERT
  5
251
  8
11
  2
STDGX5
 10
781.14976819515732
 20
99.243239754364453
 30
0.0
 41
0.1000000000000227
 42
0.1000000000000227
 43
0.1000000000000227
  0
INSERT
  5
252
  8
11
  2
STDGX5
 10
618.37877947615698
 20
85.290607280030926
 30
0.0
 41
0.1000000000000227
 42
0.1000000000000227
 43
0.1000000000000227
  0
INSERT
  5
253
  8
11
  2
STDGX5
 10
622.12728933777862
 20
81.690607252370654
 30
0.0
 41
0.1000000000000227
 42
0.1000000000000227
 43
0.1000000000000227
  0
INSERT
  5
254
  8
11
  2
STDGX5
 10
615.48220363161965
 20
78.455472155327897
 30
0.0
 41
0.1000000000000227
 42
0.1000000000000227
 43
0.1000000000000227
  0
INSERT
  5
255
  8
11
  2
STDGX5
 10
705.54241937867414
 20
103.06264068241229
 30
0.0
 41
0.1000000000000227
 42
0.1000000000000227
 43
0.1000000000000227
  0
INSERT
  5
256
  8
11
  2
STDGX5
 10
709.29092924029567
 20
99.462640654752065
 30
0.0
 41
0.1000000000000227
 42
0.1000000000000227
 43
0.1000000000000227
  0
INSERT
  5
257
  8
11
  2
STDGX5
 10
702.64584353413693
 20
96.227505557709335
 30
0.0
 41
0.1000000000000227
 42
0.1000000000000227
 43
0.1000000000000227
  0
INSERT
  5
258
  8
11
  2
STDGX5
 10
784.04634403969453
 20
106.0783748790675
 30
0.0
 41
0.1000000000000227
 42
0.1000000000000227
 43
0.1000000000000227
  0
INSERT
  5
259
  8
11
  2
STDGX5
 10
787.79485390131617
 20
102.4783748514072
 30
0.0
 41
0.1000000000000227
 42
0.1000000000000227
 43
0.1000000000000227
  0
INSERT
  5
25A
  8
11
  2
STDGX5
 10
781.14976819515732
 20
99.243239754364453
 30
0.0
 41
0.1000000000000227
 42
0.1000000000000227
 43
0.1000000000000227
  0
INSERT
  5
25B
  8
11
  2
STDGX5
 10
645.87877947615686
 20
87.790611600272626
 30
0.0
 41
0.1000000000000227
 42
0.1000000000000227
 43
0.1000000000000227
  0
INSERT
  5
25C
  8
11
  2
STDGX5
 10
649.62728933777862
 20
84.190611572612326
 30
0.0
 41
0.1000000000000227
 42
0.1000000000000227
 43
0.1000000000000227
  0
INSERT
  5
25D
  8
11
  2
STDGX5
 10
642.98220363161965
 20
80.955476475569583
 30
0.0
 41
0.1000000000000227
 42
0.1000000000000227
 43
0.1000000000000227
  0
INSERT
  5
25E
  8
11
  2
STDGX5
 10
733.04241937867414
 20
105.56264500265399
 30
0.0
 41
0.1000000000000227
 42
0.1000000000000227
 43
0.1000000000000227
  0
INSERT
  5
25F
  8
11
  2
STDGX5
 10
736.79092924029567
 20
101.96264497499369
 30
0.0
 41
0.1000000000000227
 42
0.1000000000000227
 43
0.1000000000000227
  0
INSERT
  5
260
  8
11
  2
STDGX5
 10
730.14584353413693
 20
98.727509877950993
 30
0.0
 41
0.1000000000000227
 42
0.1000000000000227
 43
0.1000000000000227
  0
INSERT
  5
261
  8
11
  2
STDGX5
 10
811.54634403969453
 20
108.5783791993092
 30
0.0
 41
0.1000000000000227
 42
0.1000000000000227
 43
0.1000000000000227
  0
INSERT
  5
262
  8
11
  2
STDGX5
 10
815.29485390131606
 20
104.9783791716489
 30
0.0
 41
0.1000000000000227
 42
0.1000000000000227
 43
0.1000000000000227
  0
INSERT
  5
263
  8
11
  2
STDGX5
 10
808.64976819515732
 20
101.7432440746061
 30
0.0
 41
0.1000000000000227
 42
0.1000000000000227
 43
0.1000000000000227
  0
INSERT
  5
264
  8
11
  2
STDGX5
 10
618.37877947615698
 20
85.290607280030926
 30
0.0
 41
0.1000000000000227
 42
0.1000000000000227
 43
0.1000000000000227
  0
INSERT
  5
265
  8
11
  2
STDGX5
 10
622.12728933777862
 20
81.690607252370654
 30
0.0
 41
0.1000000000000227
 42
0.1000000000000227
 43
0.1000000000000227
  0
INSERT
  5
266
  8
11
  2
STDGX5
 10
615.48220363161965
 20
78.455472155327897
 30
0.0
 41
0.1000000000000227
 42
0.1000000000000227
 43
0.1000000000000227
  0
INSERT
  5
267
  8
11
  2
STDGX5
 10
705.54241937867414
 20
103.06264068241229
 30
0.0
 41
0.1000000000000227
 42
0.1000000000000227
 43
0.1000000000000227
  0
INSERT
  5
268
  8
11
  2
STDGX5
 10
709.29092924029567
 20
99.462640654752065
 30
0.0
 41
0.1000000000000227
 42
0.1000000000000227
 43
0.1000000000000227
  0
INSERT
  5
269
  8
11
  2
STDGX5
 10
702.64584353413693
 20
96.227505557709335
 30
0.0
 41
0.1000000000000227
 42
0.1000000000000227
 43
0.1000000000000227
  0
INSERT
  5
26A
  8
11
  2
STDGX5
 10
784.04634403969453
 20
106.0783748790675
 30
0.0
 41
0.1000000000000227
 42
0.1000000000000227
 43
0.1000000000000227
  0
INSERT
  5
26B
  8
11
  2
STDGX5
 10
787.79485390131617
 20
102.4783748514072
 30
0.0
 41
0.1000000000000227
 42
0.1000000000000227
 43
0.1000000000000227
  0
INSERT
  5
26C
  8
11
  2
STDGX5
 10
781.14976819515732
 20
99.243239754364453
 30
0.0
 41
0.1000000000000227
 42
0.1000000000000227
 43
0.1000000000000227
  0
INSERT
  5
26D
  8
11
  2
STDGX5
 10
645.87877947615686
 20
87.790611600272626
 30
0.0
 41
0.1000000000000227
 42
0.1000000000000227
 43
0.1000000000000227
  0
INSERT
  5
26E
  8
11
  2
STDGX5
 10
649.62728933777862
 20
84.190611572612326
 30
0.0
 41
0.1000000000000227
 42
0.1000000000000227
 43
0.1000000000000227
  0
INSERT
  5
26F
  8
11
  2
STDGX5
 10
642.98220363161965
 20
80.955476475569583
 30
0.0
 41
0.1000000000000227
 42
0.1000000000000227
 43
0.1000000000000227
  0
INSERT
  5
270
  8
11
  2
STDGX5
 10
733.04241937867414
 20
105.56264500265399
 30
0.0
 41
0.1000000000000227
 42
0.1000000000000227
 43
0.1000000000000227
  0
INSERT
  5
271
  8
11
  2
STDGX5
 10
736.79092924029567
 20
101.96264497499369
 30
0.0
 41
0.1000000000000227
 42
0.1000000000000227
 43
0.1000000000000227
  0
INSERT
  5
272
  8
11
  2
STDGX5
 10
730.14584353413693
 20
98.727509877950993
 30
0.0
 41
0.1000000000000227
 42
0.1000000000000227
 43
0.1000000000000227
  0
INSERT
  5
273
  8
11
  2
STDGX5
 10
811.54634403969453
 20
108.5783791993092
 30
0.0
 41
0.1000000000000227
 42
0.1000000000000227
 43
0.1000000000000227
  0
INSERT
  5
274
  8
11
  2
STDGX5
 10
815.29485390131606
 20
104.9783791716489
 30
0.0
 41
0.1000000000000227
 42
0.1000000000000227
 43
0.1000000000000227
  0
INSERT
  5
275
  8
11
  2
STDGX5
 10
808.64976819515732
 20
101.7432440746061
 30
0.0
 41
0.1000000000000227
 42
0.1000000000000227
 43
0.1000000000000227
  0
INSERT
  5
276
  8
11
  2
STDGX5
 10
645.87877947615686
 20
87.790611600272626
 30
0.0
 41
0.1000000000000227
 42
0.1000000000000227
 43
0.1000000000000227
  0
INSERT
  5
277
  8
11
  2
STDGX5
 10
649.62728933777862
 20
84.190611572612326
 30
0.0
 41
0.1000000000000227
 42
0.1000000000000227
 43
0.1000000000000227
  0
INSERT
  5
278
  8
11
  2
STDGX5
 10
642.98220363161965
 20
80.955476475569583
 30
0.0
 41
0.1000000000000227
 42
0.1000000000000227
 43
0.1000000000000227
  0
INSERT
  5
279
  8
11
  2
STDGX5
 10
733.04241937867414
 20
105.56264500265399
 30
0.0
 41
0.1000000000000227
 42
0.1000000000000227
 43
0.1000000000000227
  0
INSERT
  5
27A
  8
11
  2
STDGX5
 10
736.79092924029567
 20
101.96264497499369
 30
0.0
 41
0.1000000000000227
 42
0.1000000000000227
 43
0.1000000000000227
  0
INSERT
  5
27B
  8
11
  2
STDGX5
 10
730.14584353413693
 20
98.727509877950993
 30
0.0
 41
0.1000000000000227
 42
0.1000000000000227
 43
0.1000000000000227
  0
INSERT
  5
27C
  8
11
  2
STDGX5
 10
811.54634403969453
 20
108.5783791993092
 30
0.0
 41
0.1000000000000227
 42
0.1000000000000227
 43
0.1000000000000227
  0
INSERT
  5
27D
  8
11
  2
STDGX5
 10
815.29485390131606
 20
104.9783791716489
 30
0.0
 41
0.1000000000000227
 42
0.1000000000000227
 43
0.1000000000000227
  0
INSERT
  5
27E
  8
11
  2
STDGX5
 10
808.64976819515732
 20
101.7432440746061
 30
0.0
 41
0.1000000000000227
 42
0.1000000000000227
 43
0.1000000000000227
  0
INSERT
  5
27F
  8
11
  2
STDGX5
 10
645.87877947615686
 20
87.790611600272626
 30
0.0
 41
0.1000000000000227
 42
0.1000000000000227
 43
0.1000000000000227
  0
INSERT
  5
280
  8
11
  2
STDGX5
 10
649.62728933777862
 20
84.190611572612326
 30
0.0
 41
0.1000000000000227
 42
0.1000000000000227
 43
0.1000000000000227
  0
INSERT
  5
281
  8
11
  2
STDGX5
 10
642.98220363161965
 20
80.955476475569583
 30
0.0
 41
0.1000000000000227
 42
0.1000000000000227
 43
0.1000000000000227
  0
INSERT
  5
282
  8
11
  2
STDGX5
 10
733.04241937867414
 20
105.56264500265399
 30
0.0
 41
0.1000000000000227
 42
0.1000000000000227
 43
0.1000000000000227
  0
INSERT
  5
283
  8
11
  2
STDGX5
 10
736.79092924029567
 20
101.96264497499369
 30
0.0
 41
0.1000000000000227
 42
0.1000000000000227
 43
0.1000000000000227
  0
INSERT
  5
284
  8
11
  2
STDGX5
 10
730.14584353413693
 20
98.727509877950993
 30
0.0
 41
0.1000000000000227
 42
0.1000000000000227
 43
0.1000000000000227
  0
INSERT
  5
285
  8
11
  2
STDGX5
 10
811.54634403969453
 20
108.5783791993092
 30
0.0
 41
0.1000000000000227
 42
0.1000000000000227
 43
0.1000000000000227
  0
INSERT
  5
286
  8
11
  2
STDGX5
 10
815.29485390131606
 20
104.9783791716489
 30
0.0
 41
0.1000000000000227
 42
0.1000000000000227
 43
0.1000000000000227
  0
INSERT
  5
287
  8
11
  2
STDGX5
 10
808.64976819515732
 20
101.7432440746061
 30
0.0
 41
0.1000000000000227
 42
0.1000000000000227
 43
0.1000000000000227
  0
INSERT
  5
288
  8
11
  2
STDGX5
 10
673.37877947615686
 20
90.290615920514327
 30
0.0
 41
0.1000000000000227
 42
0.1000000000000227
 43
0.1000000000000227
  0
INSERT
  5
289
  8
11
  2
STDGX5
 10
677.12728933777862
 20
86.690615892854026
 30
0.0
 41
0.1000000000000227
 42
0.1000000000000227
 43
0.1000000000000227
  0
INSERT
  5
28A
  8
11
  2
STDGX5
 10
670.48220363161977
 20
83.455480795811255
 30
0.0
 41
0.1000000000000227
 42
0.1000000000000227
 43
0.1000000000000227
  0
INSERT
  5
28B
  8
11
  2
STDGX5
 10
760.54241937867414
 20
108.06264932289569
 30
0.0
 41
0.1000000000000227
 42
0.1000000000000227
 43
0.1000000000000227
  0
INSERT
  5
28C
  8
11
  2
STDGX5
 10
764.29092924029578
 20
104.46264929523539
 30
0.0
 41
0.1000000000000227
 42
0.1000000000000227
 43
0.1000000000000227
  0
INSERT
  5
28D
  8
11
  2
STDGX5
 10
757.64584353413693
 20
101.22751419819269
 30
0.0
 41
0.1000000000000227
 42
0.1000000000000227
 43
0.1000000000000227
  0
INSERT
  5
28E
  8
11
  2
STDGX5
 10
839.04634403969465
 20
111.0783835195508
 30
0.0
 41
0.1000000000000227
 42
0.1000000000000227
 43
0.1000000000000227
  0
INSERT
  5
28F
  8
11
  2
STDGX5
 10
842.79485390131606
 20
107.4783834918906
 30
0.0
 41
0.1000000000000227
 42
0.1000000000000227
 43
0.1000000000000227
  0
INSERT
  5
290
  8
11
  2
STDGX5
 10
836.14976819515721
 20
104.2432483948478
 30
0.0
 41
0.1000000000000227
 42
0.1000000000000227
 43
0.1000000000000227
  0
INSERT
  5
291
  8
11
  2
STDGX5
 10
645.87877947615686
 20
102.7906072800309
 30
0.0
 41
0.1000000000000227
 42
0.1000000000000227
 43
0.1000000000000227
  0
INSERT
  5
292
  8
11
  2
STDGX5
 10
649.62728933777862
 20
99.190607252370654
 30
0.0
 41
0.1000000000000227
 42
0.1000000000000227
 43
0.1000000000000227
  0
INSERT
  5
293
  8
11
  2
STDGX5
 10
642.98220363161965
 20
95.955472155327897
 30
0.0
 41
0.1000000000000227
 42
0.1000000000000227
 43
0.1000000000000227
  0
INSERT
  5
294
  8
11
  2
STDGX5
 10
733.04241937867414
 20
120.56264068241229
 30
0.0
 41
0.1000000000000227
 42
0.1000000000000227
 43
0.1000000000000227
  0
INSERT
  5
295
  8
11
  2
STDGX5
 10
736.79092924029567
 20
116.96264065475209
 30
0.0
 41
0.1000000000000227
 42
0.1000000000000227
 43
0.1000000000000227
  0
INSERT
  5
296
  8
11
  2
STDGX5
 10
730.14584353413693
 20
113.72750555770931
 30
0.0
 41
0.1000000000000227
 42
0.1000000000000227
 43
0.1000000000000227
  0
INSERT
  5
297
  8
11
  2
STDGX5
 10
811.54634403969453
 20
123.5783748790675
 30
0.0
 41
0.1000000000000227
 42
0.1000000000000227
 43
0.1000000000000227
  0
INSERT
  5
298
  8
11
  2
STDGX5
 10
815.29485390131606
 20
119.9783748514072
 30
0.0
 41
0.1000000000000227
 42
0.1000000000000227
 43
0.1000000000000227
  0
INSERT
  5
299
  8
11
  2
STDGX5
 10
808.64976819515732
 20
116.7432397543644
 30
0.0
 41
0.1000000000000227
 42
0.1000000000000227
 43
0.1000000000000227
  0
INSERT
  5
29A
  8
11
  2
STDGX5
 10
673.37877947615686
 20
105.2906116002726
 30
0.0
 41
0.1000000000000227
 42
0.1000000000000227
 43
0.1000000000000227
  0
INSERT
  5
29B
  8
11
  2
STDGX5
 10
677.12728933777862
 20
101.6906115726123
 30
0.0
 41
0.1000000000000227
 42
0.1000000000000227
 43
0.1000000000000227
  0
INSERT
  5
29C
  8
11
  2
STDGX5
 10
670.48220363161977
 20
98.455476475569583
 30
0.0
 41
0.1000000000000227
 42
0.1000000000000227
 43
0.1000000000000227
  0
INSERT
  5
29D
  8
11
  2
STDGX5
 10
760.54241937867414
 20
123.06264500265399
 30
0.0
 41
0.1000000000000227
 42
0.1000000000000227
 43
0.1000000000000227
  0
INSERT
  5
29E
  8
11
  2
STDGX5
 10
764.29092924029578
 20
119.46264497499369
 30
0.0
 41
0.1000000000000227
 42
0.1000000000000227
 43
0.1000000000000227
  0
INSERT
  5
29F
  8
11
  2
STDGX5
 10
757.64584353413693
 20
116.22750987795099
 30
0.0
 41
0.1000000000000227
 42
0.1000000000000227
 43
0.1000000000000227
  0
INSERT
  5
2A0
  8
11
  2
STDGX5
 10
839.04634403969465
 20
126.0783791993091
 30
0.0
 41
0.1000000000000227
 42
0.1000000000000227
 43
0.1000000000000227
  0
INSERT
  5
2A1
  8
11
  2
STDGX5
 10
842.79485390131606
 20
122.4783791716489
 30
0.0
 41
0.1000000000000227
 42
0.1000000000000227
 43
0.1000000000000227
  0
INSERT
  5
2A2
  8
11
  2
STDGX5
 10
836.14976819515721
 20
119.2432440746061
 30
0.0
 41
0.1000000000000227
 42
0.1000000000000227
 43
0.1000000000000227
  0
INSERT
  5
2A3
  8
11
  2
STDGX5
 10
645.87877947615686
 20
87.790611600272626
 30
0.0
 41
0.1000000000000227
 42
0.1000000000000227
 43
0.1000000000000227
  0
INSERT
  5
2A4
  8
11
  2
STDGX5
 10
649.62728933777862
 20
84.190611572612326
 30
0.0
 41
0.1000000000000227
 42
0.1000000000000227
 43
0.1000000000000227
  0
INSERT
  5
2A5
  8
11
  2
STDGX5
 10
642.98220363161965
 20
80.955476475569583
 30
0.0
 41
0.1000000000000227
 42
0.1000000000000227
 43
0.1000000000000227
  0
INSERT
  5
2A6
  8
11
  2
STDGX5
 10
733.04241937867414
 20
105.56264500265399
 30
0.0
 41
0.1000000000000227
 42
0.1000000000000227
 43
0.1000000000000227
  0
INSERT
  5
2A7
  8
11
  2
STDGX5
 10
736.79092924029567
 20
101.96264497499369
 30
0.0
 41
0.1000000000000227
 42
0.1000000000000227
 43
0.1000000000000227
  0
INSERT
  5
2A8
  8
11
  2
STDGX5
 10
730.14584353413693
 20
98.727509877950993
 30
0.0
 41
0.1000000000000227
 42
0.1000000000000227
 43
0.1000000000000227
  0
INSERT
  5
2A9
  8
11
  2
STDGX5
 10
811.54634403969453
 20
108.5783791993092
 30
0.0
 41
0.1000000000000227
 42
0.1000000000000227
 43
0.1000000000000227
  0
INSERT
  5
2AA
  8
11
  2
STDGX5
 10
815.29485390131606
 20
104.9783791716489
 30
0.0
 41
0.1000000000000227
 42
0.1000000000000227
 43
0.1000000000000227
  0
INSERT
  5
2AB
  8
11
  2
STDGX5
 10
808.64976819515732
 20
101.7432440746061
 30
0.0
 41
0.1000000000000227
 42
0.1000000000000227
 43
0.1000000000000227
  0
INSERT
  5
2AC
  8
11
  2
STDGX5
 10
673.37877947615686
 20
90.290615920514327
 30
0.0
 41
0.1000000000000227
 42
0.1000000000000227
 43
0.1000000000000227
  0
INSERT
  5
2AD
  8
11
  2
STDGX5
 10
677.12728933777862
 20
86.690615892854026
 30
0.0
 41
0.1000000000000227
 42
0.1000000000000227
 43
0.1000000000000227
  0
INSERT
  5
2AE
  8
11
  2
STDGX5
 10
670.48220363161977
 20
83.455480795811255
 30
0.0
 41
0.1000000000000227
 42
0.1000000000000227
 43
0.1000000000000227
  0
INSERT
  5
2AF
  8
11
  2
STDGX5
 10
760.54241937867414
 20
108.06264932289569
 30
0.0
 41
0.1000000000000227
 42
0.1000000000000227
 43
0.1000000000000227
  0
INSERT
  5
2B0
  8
11
  2
STDGX5
 10
764.29092924029578
 20
104.46264929523539
 30
0.0
 41
0.1000000000000227
 42
0.1000000000000227
 43
0.1000000000000227
  0
INSERT
  5
2B1
  8
11
  2
STDGX5
 10
757.64584353413693
 20
101.22751419819269
 30
0.0
 41
0.1000000000000227
 42
0.1000000000000227
 43
0.1000000000000227
  0
INSERT
  5
2B2
  8
11
  2
STDGX5
 10
839.04634403969465
 20
111.0783835195508
 30
0.0
 41
0.1000000000000227
 42
0.1000000000000227
 43
0.1000000000000227
  0
INSERT
  5
2B3
  8
11
  2
STDGX5
 10
842.79485390131606
 20
107.4783834918906
 30
0.0
 41
0.1000000000000227
 42
0.1000000000000227
 43
0.1000000000000227
  0
INSERT
  5
2B4
  8
11
  2
STDGX5
 10
836.14976819515721
 20
104.2432483948478
 30
0.0
 41
0.1000000000000227
 42
0.1000000000000227
 43
0.1000000000000227
  0
INSERT
  5
2B5
  8
11
  2
STDGX5
 10
590.79605342724722
 20
82.37733765546291
 30
0.0
 41
0.1000000000000227
 42
0.1000000000000227
 43
0.1000000000000227
  0
INSERT
  5
2B6
  8
11
  2
STDGX5
 10
594.54456328886874
 20
78.777337627802609
 30
0.0
 41
0.1000000000000227
 42
0.1000000000000227
 43
0.1000000000000227
  0
INSERT
  5
2B7
  8
11
  2
STDGX5
 10
587.89947758270989
 20
75.542202530759866
 30
0.0
 41
0.1000000000000227
 42
0.1000000000000227
 43
0.1000000000000227
  0
INSERT
  5
2B8
  8
11
  2
STDGX5
 10
677.95969332976415
 20
100.14937105784431
 30
0.0
 41
0.1000000000000227
 42
0.1000000000000227
 43
0.1000000000000227
  0
INSERT
  5
2B9
  8
11
  2
STDGX5
 10
681.70820319138591
 20
96.549371030184034
 30
0.0
 41
0.1000000000000227
 42
0.1000000000000227
 43
0.1000000000000227
  0
INSERT
  5
2BA
  8
11
  2
STDGX5
 10
675.06311748522705
 20
93.314235933141305
 30
0.0
 41
0.1000000000000227
 42
0.1000000000000227
 43
0.1000000000000227
  0
INSERT
  5
2BB
  8
11
  2
STDGX5
 10
756.46361799078466
 20
103.16510525449939
 30
0.0
 41
0.1000000000000227
 42
0.1000000000000227
 43
0.1000000000000227
  0
INSERT
  5
2BC
  8
11
  2
STDGX5
 10
760.21212785240641
 20
99.565105226839165
 30
0.0
 41
0.1000000000000227
 42
0.1000000000000227
 43
0.1000000000000227
  0
INSERT
  5
2BD
  8
11
  2
STDGX5
 10
753.56704214624756
 20
96.329970129796436
 30
0.0
 41
0.1000000000000227
 42
0.1000000000000227
 43
0.1000000000000227
  0
INSERT
  5
2BE
  8
11
  2
STDGX5
 10
618.29605342724722
 20
84.877341975704596
 30
0.0
 41
0.1000000000000227
 42
0.1000000000000227
 43
0.1000000000000227
  0
INSERT
  5
2BF
  8
11
  2
STDGX5
 10
622.04456328886874
 20
81.277341948044295
 30
0.0
 41
0.1000000000000227
 42
0.1000000000000227
 43
0.1000000000000227
  0
INSERT
  5
2C0
  8
11
  2
STDGX5
 10
615.39947758271001
 20
78.042206851001566
 30
0.0
 41
0.1000000000000227
 42
0.1000000000000227
 43
0.1000000000000227
  0
INSERT
  5
2C1
  8
11
  2
STDGX5
 10
705.45969332976426
 20
102.64937537808601
 30
0.0
 41
0.1000000000000227
 42
0.1000000000000227
 43
0.1000000000000227
  0
INSERT
  5
2C2
  8
11
  2
STDGX5
 10
709.20820319138602
 20
99.049375350425734
 30
0.0
 41
0.1000000000000227
 42
0.1000000000000227
 43
0.1000000000000227
  0
INSERT
  5
2C3
  8
11
  2
STDGX5
 10
702.56311748522705
 20
95.814240253382977
 30
0.0
 41
0.1000000000000227
 42
0.1000000000000227
 43
0.1000000000000227
  0
INSERT
  5
2C4
  8
11
  2
STDGX5
 10
783.96361799078477
 20
105.66510957474109
 30
0.0
 41
0.1000000000000227
 42
0.1000000000000227
 43
0.1000000000000227
  0
INSERT
  5
2C5
  8
11
  2
STDGX5
 10
787.71212785240641
 20
102.06510954708079
 30
0.0
 41
0.1000000000000227
 42
0.1000000000000227
 43
0.1000000000000227
  0
INSERT
  5
2C6
  8
11
  2
STDGX5
 10
781.06704214624745
 20
98.829974450038122
 30
0.0
 41
0.1000000000000227
 42
0.1000000000000227
 43
0.1000000000000227
  0
INSERT
  5
2C7
  8
11
  2
STDGX5
 10
618.29605342724722
 20
84.877341975704596
 30
0.0
 41
0.1000000000000227
 42
0.1000000000000227
 43
0.1000000000000227
  0
INSERT
  5
2C8
  8
11
  2
STDGX5
 10
622.04456328886874
 20
81.277341948044295
 30
0.0
 41
0.1000000000000227
 42
0.1000000000000227
 43
0.1000000000000227
  0
INSERT
  5
2C9
  8
11
  2
STDGX5
 10
615.39947758271001
 20
78.042206851001566
 30
0.0
 41
0.1000000000000227
 42
0.1000000000000227
 43
0.1000000000000227
  0
INSERT
  5
2CA
  8
11
  2
STDGX5
 10
705.45969332976426
 20
102.64937537808601
 30
0.0
 41
0.1000000000000227
 42
0.1000000000000227
 43
0.1000000000000227
  0
INSERT
  5
2CB
  8
11
  2
STDGX5
 10
709.20820319138602
 20
99.049375350425734
 30
0.0
 41
0.1000000000000227
 42
0.1000000000000227
 43
0.1000000000000227
  0
INSERT
  5
2CC
  8
11
  2
STDGX5
 10
702.56311748522705
 20
95.814240253382977
 30
0.0
 41
0.1000000000000227
 42
0.1000000000000227
 43
0.1000000000000227
  0
INSERT
  5
2CD
  8
11
  2
STDGX5
 10
783.96361799078477
 20
105.66510957474109
 30
0.0
 41
0.1000000000000227
 42
0.1000000000000227
 43
0.1000000000000227
  0
INSERT
  5
2CE
  8
11
  2
STDGX5
 10
787.71212785240641
 20
102.06510954708079
 30
0.0
 41
0.1000000000000227
 42
0.1000000000000227
 43
0.1000000000000227
  0
INSERT
  5
2CF
  8
11
  2
STDGX5
 10
781.06704214624745
 20
98.829974450038122
 30
0.0
 41
0.1000000000000227
 42
0.1000000000000227
 43
0.1000000000000227
  0
INSERT
  5
2D0
  8
11
  2
STDGX5
 10
618.29605342724722
 20
84.877341975704596
 30
0.0
 41
0.1000000000000227
 42
0.1000000000000227
 43
0.1000000000000227
  0
INSERT
  5
2D1
  8
11
  2
STDGX5
 10
622.04456328886874
 20
81.277341948044295
 30
0.0
 41
0.1000000000000227
 42
0.1000000000000227
 43
0.1000000000000227
  0
INSERT
  5
2D2
  8
11
  2
STDGX5
 10
615.39947758271001
 20
78.042206851001566
 30
0.0
 41
0.1000000000000227
 42
0.1000000000000227
 43
0.1000000000000227
  0
INSERT
  5
2D3
  8
11
  2
STDGX5
 10
705.45969332976426
 20
102.64937537808601
 30
0.0
 41
0.1000000000000227
 42
0.1000000000000227
 43
0.1000000000000227
  0
INSERT
  5
2D4
  8
11
  2
STDGX5
 10
709.20820319138602
 20
99.049375350425734
 30
0.0
 41
0.1000000000000227
 42
0.1000000000000227
 43
0.1000000000000227
  0
INSERT
  5
2D5
  8
11
  2
STDGX5
 10
702.56311748522705
 20
95.814240253382977
 30
0.0
 41
0.1000000000000227
 42
0.1000000000000227
 43
0.1000000000000227
  0
INSERT
  5
2D6
  8
11
  2
STDGX5
 10
783.96361799078477
 20
105.66510957474109
 30
0.0
 41
0.1000000000000227
 42
0.1000000000000227
 43
0.1000000000000227
  0
INSERT
  5
2D7
  8
11
  2
STDGX5
 10
787.71212785240641
 20
102.06510954708079
 30
0.0
 41
0.1000000000000227
 42
0.1000000000000227
 43
0.1000000000000227
  0
INSERT
  5
2D8
  8
11
  2
STDGX5
 10
781.06704214624745
 20
98.829974450038122
 30
0.0
 41
0.1000000000000227
 42
0.1000000000000227
 43
0.1000000000000227
  0
INSERT
  5
2D9
  8
11
  2
STDGX5
 10
618.29605342724722
 20
84.877341975704596
 30
0.0
 41
0.1000000000000227
 42
0.1000000000000227
 43
0.1000000000000227
  0
INSERT
  5
2DA
  8
11
  2
STDGX5
 10
622.04456328886874
 20
81.277341948044295
 30
0.0
 41
0.1000000000000227
 42
0.1000000000000227
 43
0.1000000000000227
  0
INSERT
  5
2DB
  8
11
  2
STDGX5
 10
615.39947758271001
 20
78.042206851001566
 30
0.0
 41
0.1000000000000227
 42
0.1000000000000227
 43
0.1000000000000227
  0
INSERT
  5
2DC
  8
11
  2
STDGX5
 10
705.45969332976426
 20
102.64937537808601
 30
0.0
 41
0.1000000000000227
 42
0.1000000000000227
 43
0.1000000000000227
  0
INSERT
  5
2DD
  8
11
  2
STDGX5
 10
709.20820319138602
 20
99.049375350425734
 30
0.0
 41
0.1000000000000227
 42
0.1000000000000227
 43
0.1000000000000227
  0
INSERT
  5
2DE
  8
11
  2
STDGX5
 10
702.56311748522705
 20
95.814240253382977
 30
0.0
 41
0.1000000000000227
 42
0.1000000000000227
 43
0.1000000000000227
  0
INSERT
  5
2DF
  8
11
  2
STDGX5
 10
783.96361799078477
 20
105.66510957474109
 30
0.0
 41
0.1000000000000227
 42
0.1000000000000227
 43
0.1000000000000227
  0
INSERT
  5
2E0
  8
11
  2
STDGX5
 10
787.71212785240641
 20
102.06510954708079
 30
0.0
 41
0.1000000000000227
 42
0.1000000000000227
 43
0.1000000000000227
  0
INSERT
  5
2E1
  8
11
  2
STDGX5
 10
781.06704214624745
 20
98.829974450038122
 30
0.0
 41
0.1000000000000227
 42
0.1000000000000227
 43
0.1000000000000227
  0
INSERT
  5
2E2
  8
11
  2
STDGX5
 10
618.29605342724722
 20
84.877341975704596
 30
0.0
 41
0.1000000000000227
 42
0.1000000000000227
 43
0.1000000000000227
  0
INSERT
  5
2E3
  8
11
  2
STDGX5
 10
622.04456328886874
 20
81.277341948044295
 30
0.0
 41
0.1000000000000227
 42
0.1000000000000227
 43
0.1000000000000227
  0
INSERT
  5
2E4
  8
11
  2
STDGX5
 10
615.39947758271001
 20
78.042206851001566
 30
0.0
 41
0.1000000000000227
 42
0.1000000000000227
 43
0.1000000000000227
  0
INSERT
  5
2E5
  8
11
  2
STDGX5
 10
705.45969332976426
 20
102.64937537808601
 30
0.0
 41
0.1000000000000227
 42
0.1000000000000227
 43
0.1000000000000227
  0
INSERT
  5
2E6
  8
11
  2
STDGX5
 10
709.20820319138602
 20
99.049375350425734
 30
0.0
 41
0.1000000000000227
 42
0.1000000000000227
 43
0.1000000000000227
  0
INSERT
  5
2E7
  8
11
  2
STDGX5
 10
702.56311748522705
 20
95.814240253382977
 30
0.0
 41
0.1000000000000227
 42
0.1000000000000227
 43
0.1000000000000227
  0
INSERT
  5
2E8
  8
11
  2
STDGX5
 10
783.96361799078477
 20
105.66510957474109
 30
0.0
 41
0.1000000000000227
 42
0.1000000000000227
 43
0.1000000000000227
  0
INSERT
  5
2E9
  8
11
  2
STDGX5
 10
787.71212785240641
 20
102.06510954708079
 30
0.0
 41
0.1000000000000227
 42
0.1000000000000227
 43
0.1000000000000227
  0
INSERT
  5
2EA
  8
11
  2
STDGX5
 10
781.06704214624745
 20
98.829974450038122
 30
0.0
 41
0.1000000000000227
 42
0.1000000000000227
 43
0.1000000000000227
  0
INSERT
  5
2EB
  8
11
  2
STDGX5
 10
645.79605342724722
 20
87.377346295946296
 30
0.0
 41
0.1000000000000227
 42
0.1000000000000227
 43
0.1000000000000227
  0
INSERT
  5
2EC
  8
11
  2
STDGX5
 10
649.54456328886886
 20
83.777346268285996
 30
0.0
 41
0.1000000000000227
 42
0.1000000000000227
 43
0.1000000000000227
  0
INSERT
  5
2ED
  8
11
  2
STDGX5
 10
642.89947758270989
 20
80.542211171243267
 30
0.0
 41
0.1000000000000227
 42
0.1000000000000227
 43
0.1000000000000227
  0
INSERT
  5
2EE
  8
11
  2
STDGX5
 10
732.95969332976438
 20
105.14937969832771
 30
0.0
 41
0.1000000000000227
 42
0.1000000000000227
 43
0.1000000000000227
  0
INSERT
  5
2EF
  8
11
  2
STDGX5
 10
736.70820319138591
 20
101.54937967066741
 30
0.0
 41
0.1000000000000227
 42
0.1000000000000227
 43
0.1000000000000227
  0
INSERT
  5
2F0
  8
11
  2
STDGX5
 10
730.06311748522705
 20
98.314244573624677
 30
0.0
 41
0.1000000000000227
 42
0.1000000000000227
 43
0.1000000000000227
  0
INSERT
  5
2F1
  8
11
  2
STDGX5
 10
811.46361799078466
 20
108.1651138949828
 30
0.0
 41
0.1000000000000227
 42
0.1000000000000227
 43
0.1000000000000227
  0
INSERT
  5
2F2
  8
11
  2
STDGX5
 10
815.2121278524063
 20
104.56511386732249
 30
0.0
 41
0.1000000000000227
 42
0.1000000000000227
 43
0.1000000000000227
  0
INSERT
  5
2F3
  8
11
  2
STDGX5
 10
808.56704214624745
 20
101.32997877027979
 30
0.0
 41
0.1000000000000227
 42
0.1000000000000227
 43
0.1000000000000227
  0
INSERT
  5
2F4
  8
11
  2
STDGX5
 10
618.29605342724722
 20
84.877341975704596
 30
0.0
 41
0.1000000000000227
 42
0.1000000000000227
 43
0.1000000000000227
  0
INSERT
  5
2F5
  8
11
  2
STDGX5
 10
622.04456328886874
 20
81.277341948044295
 30
0.0
 41
0.1000000000000227
 42
0.1000000000000227
 43
0.1000000000000227
  0
INSERT
  5
2F6
  8
11
  2
STDGX5
 10
615.39947758271001
 20
78.042206851001566
 30
0.0
 41
0.1000000000000227
 42
0.1000000000000227
 43
0.1000000000000227
  0
INSERT
  5
2F7
  8
11
  2
STDGX5
 10
705.45969332976426
 20
102.64937537808601
 30
0.0
 41
0.1000000000000227
 42
0.1000000000000227
 43
0.1000000000000227
  0
INSERT
  5
2F8
  8
11
  2
STDGX5
 10
709.20820319138602
 20
99.049375350425734
 30
0.0
 41
0.1000000000000227
 42
0.1000000000000227
 43
0.1000000000000227
  0
INSERT
  5
2F9
  8
11
  2
STDGX5
 10
702.56311748522705
 20
95.814240253382977
 30
0.0
 41
0.1000000000000227
 42
0.1000000000000227
 43
0.1000000000000227
  0
INSERT
  5
2FA
  8
11
  2
STDGX5
 10
783.96361799078477
 20
105.66510957474109
 30
0.0
 41
0.1000000000000227
 42
0.1000000000000227
 43
0.1000000000000227
  0
INSERT
  5
2FB
  8
11
  2
STDGX5
 10
787.71212785240641
 20
102.06510954708079
 30
0.0
 41
0.1000000000000227
 42
0.1000000000000227
 43
0.1000000000000227
  0
INSERT
  5
2FC
  8
11
  2
STDGX5
 10
781.06704214624745
 20
98.829974450038122
 30
0.0
 41
0.1000000000000227
 42
0.1000000000000227
 43
0.1000000000000227
  0
INSERT
  5
2FD
  8
11
  2
STDGX5
 10
645.79605342724722
 20
87.377346295946296
 30
0.0
 41
0.1000000000000227
 42
0.1000000000000227
 43
0.1000000000000227
  0
INSERT
  5
2FE
  8
11
  2
STDGX5
 10
649.54456328886886
 20
83.777346268285996
 30
0.0
 41
0.1000000000000227
 42
0.1000000000000227
 43
0.1000000000000227
  0
INSERT
  5
2FF
  8
11
  2
STDGX5
 10
642.89947758270989
 20
80.542211171243267
 30
0.0
 41
0.1000000000000227
 42
0.1000000000000227
 43
0.1000000000000227
  0
INSERT
  5
300
  8
11
  2
STDGX5
 10
732.95969332976438
 20
105.14937969832771
 30
0.0
 41
0.1000000000000227
 42
0.1000000000000227
 43
0.1000000000000227
  0
INSERT
  5
301
  8
11
  2
STDGX5
 10
736.70820319138591
 20
101.54937967066741
 30
0.0
 41
0.1000000000000227
 42
0.1000000000000227
 43
0.1000000000000227
  0
INSERT
  5
302
  8
11
  2
STDGX5
 10
730.06311748522705
 20
98.314244573624677
 30
0.0
 41
0.1000000000000227
 42
0.1000000000000227
 43
0.1000000000000227
  0
INSERT
  5
303
  8
11
  2
STDGX5
 10
811.46361799078466
 20
108.1651138949828
 30
0.0
 41
0.1000000000000227
 42
0.1000000000000227
 43
0.1000000000000227
  0
INSERT
  5
304
  8
11
  2
STDGX5
 10
815.2121278524063
 20
104.56511386732249
 30
0.0
 41
0.1000000000000227
 42
0.1000000000000227
 43
0.1000000000000227
  0
INSERT
  5
305
  8
11
  2
STDGX5
 10
808.56704214624745
 20
101.32997877027979
 30
0.0
 41
0.1000000000000227
 42
0.1000000000000227
 43
0.1000000000000227
  0
INSERT
  5
306
  8
11
  2
STDGX5
 10
645.79605342724722
 20
87.377346295946296
 30
0.0
 41
0.1000000000000227
 42
0.1000000000000227
 43
0.1000000000000227
  0
INSERT
  5
307
  8
11
  2
STDGX5
 10
649.54456328886886
 20
83.777346268285996
 30
0.0
 41
0.1000000000000227
 42
0.1000000000000227
 43
0.1000000000000227
  0
INSERT
  5
308
  8
11
  2
STDGX5
 10
642.89947758270989
 20
80.542211171243267
 30
0.0
 41
0.1000000000000227
 42
0.1000000000000227
 43
0.1000000000000227
  0
INSERT
  5
309
  8
11
  2
STDGX5
 10
732.95969332976438
 20
105.14937969832771
 30
0.0
 41
0.1000000000000227
 42
0.1000000000000227
 43
0.1000000000000227
  0
INSERT
  5
30A
  8
11
  2
STDGX5
 10
736.70820319138591
 20
101.54937967066741
 30
0.0
 41
0.1000000000000227
 42
0.1000000000000227
 43
0.1000000000000227
  0
INSERT
  5
30B
  8
11
  2
STDGX5
 10
730.06311748522705
 20
98.314244573624677
 30
0.0
 41
0.1000000000000227
 42
0.1000000000000227
 43
0.1000000000000227
  0
INSERT
  5
30C
  8
11
  2
STDGX5
 10
811.46361799078466
 20
108.1651138949828
 30
0.0
 41
0.1000000000000227
 42
0.1000000000000227
 43
0.1000000000000227
  0
INSERT
  5
30D
  8
11
  2
STDGX5
 10
815.2121278524063
 20
104.56511386732249
 30
0.0
 41
0.1000000000000227
 42
0.1000000000000227
 43
0.1000000000000227
  0
INSERT
  5
30E
  8
11
  2
STDGX5
 10
808.56704214624745
 20
101.32997877027979
 30
0.0
 41
0.1000000000000227
 42
0.1000000000000227
 43
0.1000000000000227
  0
INSERT
  5
30F
  8
11
  2
STDGX5
 10
645.79605342724722
 20
87.377346295946296
 30
0.0
 41
0.1000000000000227
 42
0.1000000000000227
 43
0.1000000000000227
  0
INSERT
  5
310
  8
11
  2
STDGX5
 10
649.54456328886886
 20
83.777346268285996
 30
0.0
 41
0.1000000000000227
 42
0.1000000000000227
 43
0.1000000000000227
  0
INSERT
  5
311
  8
11
  2
STDGX5
 10
642.89947758270989
 20
80.542211171243267
 30
0.0
 41
0.1000000000000227
 42
0.1000000000000227
 43
0.1000000000000227
  0
INSERT
  5
312
  8
11
  2
STDGX5
 10
732.95969332976438
 20
105.14937969832771
 30
0.0
 41
0.1000000000000227
 42
0.1000000000000227
 43
0.1000000000000227
  0
INSERT
  5
313
  8
11
  2
STDGX5
 10
736.70820319138591
 20
101.54937967066741
 30
0.0
 41
0.1000000000000227
 42
0.1000000000000227
 43
0.1000000000000227
  0
INSERT
  5
314
  8
11
  2
STDGX5
 10
730.06311748522705
 20
98.314244573624677
 30
0.0
 41
0.1000000000000227
 42
0.1000000000000227
 43
0.1000000000000227
  0
INSERT
  5
315
  8
11
  2
STDGX5
 10
811.46361799078466
 20
108.1651138949828
 30
0.0
 41
0.1000000000000227
 42
0.1000000000000227
 43
0.1000000000000227
  0
INSERT
  5
316
  8
11
  2
STDGX5
 10
815.2121278524063
 20
104.56511386732249
 30
0.0
 41
0.1000000000000227
 42
0.1000000000000227
 43
0.1000000000000227
  0
INSERT
  5
317
  8
11
  2
STDGX5
 10
808.56704214624745
 20
101.32997877027979
 30
0.0
 41
0.1000000000000227
 42
0.1000000000000227
 43
0.1000000000000227
  0
INSERT
  5
318
  8
11
  2
STDGX5
 10
645.79605342724722
 20
87.377346295946296
 30
0.0
 41
0.1000000000000227
 42
0.1000000000000227
 43
0.1000000000000227
  0
INSERT
  5
319
  8
11
  2
STDGX5
 10
649.54456328886886
 20
83.777346268285996
 30
0.0
 41
0.1000000000000227
 42
0.1000000000000227
 43
0.1000000000000227
  0
INSERT
  5
31A
  8
11
  2
STDGX5
 10
642.89947758270989
 20
80.542211171243267
 30
0.0
 41
0.1000000000000227
 42
0.1000000000000227
 43
0.1000000000000227
  0
INSERT
  5
31B
  8
11
  2
STDGX5
 10
732.95969332976438
 20
105.14937969832771
 30
0.0
 41
0.1000000000000227
 42
0.1000000000000227
 43
0.1000000000000227
  0
INSERT
  5
31C
  8
11
  2
STDGX5
 10
736.70820319138591
 20
101.54937967066741
 30
0.0
 41
0.1000000000000227
 42
0.1000000000000227
 43
0.1000000000000227
  0
INSERT
  5
31D
  8
11
  2
STDGX5
 10
730.06311748522705
 20
98.314244573624677
 30
0.0
 41
0.1000000000000227
 42
0.1000000000000227
 43
0.1000000000000227
  0
INSERT
  5
31E
  8
11
  2
STDGX5
 10
811.46361799078466
 20
108.1651138949828
 30
0.0
 41
0.1000000000000227
 42
0.1000000000000227
 43
0.1000000000000227
  0
INSERT
  5
31F
  8
11
  2
STDGX5
 10
815.2121278524063
 20
104.56511386732249
 30
0.0
 41
0.1000000000000227
 42
0.1000000000000227
 43
0.1000000000000227
  0
INSERT
  5
320
  8
11
  2
STDGX5
 10
808.56704214624745
 20
101.32997877027979
 30
0.0
 41
0.1000000000000227
 42
0.1000000000000227
 43
0.1000000000000227
  0
INSERT
  5
321
  8
11
  2
STDGX5
 10
673.2960534272471
 20
89.877350616187968
 30
0.0
 41
0.1000000000000227
 42
0.1000000000000227
 43
0.1000000000000227
  0
INSERT
  5
322
  8
11
  2
STDGX5
 10
677.04456328886874
 20
86.277350588527696
 30
0.0
 41
0.1000000000000227
 42
0.1000000000000227
 43
0.1000000000000227
  0
INSERT
  5
323
  8
11
  2
STDGX5
 10
670.39947758271001
 20
83.042215491484924
 30
0.0
 41
0.1000000000000227
 42
0.1000000000000227
 43
0.1000000000000227
  0
INSERT
  5
324
  8
11
  2
STDGX5
 10
760.45969332976426
 20
107.64938401856941
 30
0.0
 41
0.1000000000000227
 42
0.1000000000000227
 43
0.1000000000000227
  0
INSERT
  5
325
  8
11
  2
STDGX5
 10
764.20820319138602
 20
104.04938399090911
 30
0.0
 41
0.1000000000000227
 42
0.1000000000000227
 43
0.1000000000000227
  0
INSERT
  5
326
  8
11
  2
STDGX5
 10
757.56311748522705
 20
100.81424889386641
 30
0.0
 41
0.1000000000000227
 42
0.1000000000000227
 43
0.1000000000000227
  0
INSERT
  5
327
  8
11
  2
STDGX5
 10
838.96361799078477
 20
110.6651182152245
 30
0.0
 41
0.1000000000000227
 42
0.1000000000000227
 43
0.1000000000000227
  0
INSERT
  5
328
  8
11
  2
STDGX5
 10
842.7121278524063
 20
107.0651181875642
 30
0.0
 41
0.1000000000000227
 42
0.1000000000000227
 43
0.1000000000000227
  0
INSERT
  5
329
  8
11
  2
STDGX5
 10
836.06704214624756
 20
103.82998309052149
 30
0.0
 41
0.1000000000000227
 42
0.1000000000000227
 43
0.1000000000000227
  0
INSERT
  5
32A
  8
11
  2
STDGX5
 10
645.79605342724722
 20
87.377346295946296
 30
0.0
 41
0.1000000000000227
 42
0.1000000000000227
 43
0.1000000000000227
  0
INSERT
  5
32B
  8
11
  2
STDGX5
 10
649.54456328886886
 20
83.777346268285996
 30
0.0
 41
0.1000000000000227
 42
0.1000000000000227
 43
0.1000000000000227
  0
INSERT
  5
32C
  8
11
  2
STDGX5
 10
642.89947758270989
 20
80.542211171243267
 30
0.0
 41
0.1000000000000227
 42
0.1000000000000227
 43
0.1000000000000227
  0
INSERT
  5
32D
  8
11
  2
STDGX5
 10
732.95969332976438
 20
105.14937969832771
 30
0.0
 41
0.1000000000000227
 42
0.1000000000000227
 43
0.1000000000000227
  0
INSERT
  5
32E
  8
11
  2
STDGX5
 10
736.70820319138591
 20
101.54937967066741
 30
0.0
 41
0.1000000000000227
 42
0.1000000000000227
 43
0.1000000000000227
  0
INSERT
  5
32F
  8
11
  2
STDGX5
 10
730.06311748522705
 20
98.314244573624677
 30
0.0
 41
0.1000000000000227
 42
0.1000000000000227
 43
0.1000000000000227
  0
INSERT
  5
330
  8
11
  2
STDGX5
 10
811.46361799078466
 20
108.1651138949828
 30
0.0
 41
0.1000000000000227
 42
0.1000000000000227
 43
0.1000000000000227
  0
INSERT
  5
331
  8
11
  2
STDGX5
 10
815.2121278524063
 20
104.56511386732249
 30
0.0
 41
0.1000000000000227
 42
0.1000000000000227
 43
0.1000000000000227
  0
INSERT
  5
332
  8
11
  2
STDGX5
 10
808.56704214624745
 20
101.32997877027979
 30
0.0
 41
0.1000000000000227
 42
0.1000000000000227
 43
0.1000000000000227
  0
INSERT
  5
333
  8
11
  2
STDGX5
 10
673.2960534272471
 20
89.877350616187968
 30
0.0
 41
0.1000000000000227
 42
0.1000000000000227
 43
0.1000000000000227
  0
INSERT
  5
334
  8
11
  2
STDGX5
 10
677.04456328886874
 20
86.277350588527696
 30
0.0
 41
0.1000000000000227
 42
0.1000000000000227
 43
0.1000000000000227
  0
INSERT
  5
335
  8
11
  2
STDGX5
 10
670.39947758271001
 20
83.042215491484924
 30
0.0
 41
0.1000000000000227
 42
0.1000000000000227
 43
0.1000000000000227
  0
INSERT
  5
336
  8
11
  2
STDGX5
 10
760.45969332976426
 20
107.64938401856941
 30
0.0
 41
0.1000000000000227
 42
0.1000000000000227
 43
0.1000000000000227
  0
INSERT
  5
337
  8
11
  2
STDGX5
 10
764.20820319138602
 20
104.04938399090911
 30
0.0
 41
0.1000000000000227
 42
0.1000000000000227
 43
0.1000000000000227
  0
INSERT
  5
338
  8
11
  2
STDGX5
 10
757.56311748522705
 20
100.81424889386641
 30
0.0
 41
0.1000000000000227
 42
0.1000000000000227
 43
0.1000000000000227
  0
INSERT
  5
339
  8
11
  2
STDGX5
 10
838.96361799078477
 20
110.6651182152245
 30
0.0
 41
0.1000000000000227
 42
0.1000000000000227
 43
0.1000000000000227
  0
INSERT
  5
33A
  8
11
  2
STDGX5
 10
842.7121278524063
 20
107.0651181875642
 30
0.0
 41
0.1000000000000227
 42
0.1000000000000227
 43
0.1000000000000227
  0
INSERT
  5
33B
  8
11
  2
STDGX5
 10
836.06704214624756
 20
103.82998309052149
 30
0.0
 41
0.1000000000000227
 42
0.1000000000000227
 43
0.1000000000000227
  0
INSERT
  5
33C
  8
11
  2
STDGX5
 10
673.2960534272471
 20
89.877350616187968
 30
0.0
 41
0.1000000000000227
 42
0.1000000000000227
 43
0.1000000000000227
  0
INSERT
  5
33D
  8
11
  2
STDGX5
 10
677.04456328886874
 20
86.277350588527696
 30
0.0
 41
0.1000000000000227
 42
0.1000000000000227
 43
0.1000000000000227
  0
INSERT
  5
33E
  8
11
  2
STDGX5
 10
670.39947758271001
 20
83.042215491484924
 30
0.0
 41
0.1000000000000227
 42
0.1000000000000227
 43
0.1000000000000227
  0
INSERT
  5
33F
  8
11
  2
STDGX5
 10
760.45969332976426
 20
107.64938401856941
 30
0.0
 41
0.1000000000000227
 42
0.1000000000000227
 43
0.1000000000000227
  0
INSERT
  5
340
  8
11
  2
STDGX5
 10
764.20820319138602
 20
104.04938399090911
 30
0.0
 41
0.1000000000000227
 42
0.1000000000000227
 43
0.1000000000000227
  0
INSERT
  5
341
  8
11
  2
STDGX5
 10
757.56311748522705
 20
100.81424889386641
 30
0.0
 41
0.1000000000000227
 42
0.1000000000000227
 43
0.1000000000000227
  0
INSERT
  5
342
  8
11
  2
STDGX5
 10
838.96361799078477
 20
110.6651182152245
 30
0.0
 41
0.1000000000000227
 42
0.1000000000000227
 43
0.1000000000000227
  0
INSERT
  5
343
  8
11
  2
STDGX5
 10
842.7121278524063
 20
107.0651181875642
 30
0.0
 41
0.1000000000000227
 42
0.1000000000000227
 43
0.1000000000000227
  0
INSERT
  5
344
  8
11
  2
STDGX5
 10
836.06704214624756
 20
103.82998309052149
 30
0.0
 41
0.1000000000000227
 42
0.1000000000000227
 43
0.1000000000000227
  0
INSERT
  5
345
  8
11
  2
STDGX5
 10
673.2960534272471
 20
89.877350616187968
 30
0.0
 41
0.1000000000000227
 42
0.1000000000000227
 43
0.1000000000000227
  0
INSERT
  5
346
  8
11
  2
STDGX5
 10
677.04456328886874
 20
86.277350588527696
 30
0.0
 41
0.1000000000000227
 42
0.1000000000000227
 43
0.1000000000000227
  0
INSERT
  5
347
  8
11
  2
STDGX5
 10
670.39947758271001
 20
83.042215491484924
 30
0.0
 41
0.1000000000000227
 42
0.1000000000000227
 43
0.1000000000000227
  0
INSERT
  5
348
  8
11
  2
STDGX5
 10
760.45969332976426
 20
107.64938401856941
 30
0.0
 41
0.1000000000000227
 42
0.1000000000000227
 43
0.1000000000000227
  0
INSERT
  5
349
  8
11
  2
STDGX5
 10
764.20820319138602
 20
104.04938399090911
 30
0.0
 41
0.1000000000000227
 42
0.1000000000000227
 43
0.1000000000000227
  0
INSERT
  5
34A
  8
11
  2
STDGX5
 10
757.56311748522705
 20
100.81424889386641
 30
0.0
 41
0.1000000000000227
 42
0.1000000000000227
 43
0.1000000000000227
  0
INSERT
  5
34B
  8
11
  2
STDGX5
 10
838.96361799078477
 20
110.6651182152245
 30
0.0
 41
0.1000000000000227
 42
0.1000000000000227
 43
0.1000000000000227
  0
INSERT
  5
34C
  8
11
  2
STDGX5
 10
842.7121278524063
 20
107.0651181875642
 30
0.0
 41
0.1000000000000227
 42
0.1000000000000227
 43
0.1000000000000227
  0
INSERT
  5
34D
  8
11
  2
STDGX5
 10
836.06704214624756
 20
103.82998309052149
 30
0.0
 41
0.1000000000000227
 42
0.1000000000000227
 43
0.1000000000000227
  0
INSERT
  5
34E
  8
11
  2
STDGX5
 10
700.79605342724733
 20
92.377354936429668
 30
0.0
 41
0.1000000000000227
 42
0.1000000000000227
 43
0.1000000000000227
  0
INSERT
  5
34F
  8
11
  2
STDGX5
 10
704.54456328886886
 20
88.777354908769382
 30
0.0
 41
0.1000000000000227
 42
0.1000000000000227
 43
0.1000000000000227
  0
INSERT
  5
350
  8
11
  2
STDGX5
 10
697.89947758271012
 20
85.542219811726639
 30
0.0
 41
0.1000000000000227
 42
0.1000000000000227
 43
0.1000000000000227
  0
INSERT
  5
351
  8
11
  2
STDGX5
 10
787.95969332976426
 20
110.14938833881109
 30
0.0
 41
0.1000000000000227
 42
0.1000000000000227
 43
0.1000000000000227
  0
INSERT
  5
352
  8
11
  2
STDGX5
 10
791.70820319138602
 20
106.54938831115081
 30
0.0
 41
0.1000000000000227
 42
0.1000000000000227
 43
0.1000000000000227
  0
INSERT
  5
353
  8
11
  2
STDGX5
 10
785.06311748522717
 20
103.31425321410801
 30
0.0
 41
0.1000000000000227
 42
0.1000000000000227
 43
0.1000000000000227
  0
INSERT
  5
354
  8
11
  2
STDGX5
 10
866.46361799078477
 20
113.1651225354662
 30
0.0
 41
0.1000000000000227
 42
0.1000000000000227
 43
0.1000000000000227
  0
INSERT
  5
355
  8
11
  2
STDGX5
 10
870.21212785240641
 20
109.5651225078059
 30
0.0
 41
0.1000000000000227
 42
0.1000000000000227
 43
0.1000000000000227
  0
INSERT
  5
356
  8
11
  2
STDGX5
 10
863.56704214624756
 20
106.3299874107632
 30
0.0
 41
0.1000000000000227
 42
0.1000000000000227
 43
0.1000000000000227
  0
INSERT
  5
357
  8
11
  2
STDGX5
 10
673.2960534272471
 20
104.8773462959463
 30
0.0
 41
0.1000000000000227
 42
0.1000000000000227
 43
0.1000000000000227
  0
INSERT
  5
358
  8
11
  2
STDGX5
 10
677.04456328886874
 20
101.277346268286
 30
0.0
 41
0.1000000000000227
 42
0.1000000000000227
 43
0.1000000000000227
  0
INSERT
  5
359
  8
11
  2
STDGX5
 10
670.39947758271001
 20
98.042211171243267
 30
0.0
 41
0.1000000000000227
 42
0.1000000000000227
 43
0.1000000000000227
  0
INSERT
  5
35A
  8
11
  2
STDGX5
 10
760.45969332976426
 20
122.64937969832771
 30
0.0
 41
0.1000000000000227
 42
0.1000000000000227
 43
0.1000000000000227
  0
INSERT
  5
35B
  8
11
  2
STDGX5
 10
764.20820319138602
 20
119.04937967066741
 30
0.0
 41
0.1000000000000227
 42
0.1000000000000227
 43
0.1000000000000227
  0
INSERT
  5
35C
  8
11
  2
STDGX5
 10
757.56311748522705
 20
115.81424457362471
 30
0.0
 41
0.1000000000000227
 42
0.1000000000000227
 43
0.1000000000000227
  0
INSERT
  5
35D
  8
11
  2
STDGX5
 10
838.96361799078477
 20
125.6651138949828
 30
0.0
 41
0.1000000000000227
 42
0.1000000000000227
 43
0.1000000000000227
  0
INSERT
  5
35E
  8
11
  2
STDGX5
 10
842.7121278524063
 20
122.06511386732249
 30
0.0
 41
0.1000000000000227
 42
0.1000000000000227
 43
0.1000000000000227
  0
INSERT
  5
35F
  8
11
  2
STDGX5
 10
836.06704214624756
 20
118.82997877027979
 30
0.0
 41
0.1000000000000227
 42
0.1000000000000227
 43
0.1000000000000227
  0
INSERT
  5
360
  8
11
  2
STDGX5
 10
700.79605342724733
 20
107.377350616188
 30
0.0
 41
0.1000000000000227
 42
0.1000000000000227
 43
0.1000000000000227
  0
INSERT
  5
361
  8
11
  2
STDGX5
 10
704.54456328886886
 20
103.7773505885277
 30
0.0
 41
0.1000000000000227
 42
0.1000000000000227
 43
0.1000000000000227
  0
INSERT
  5
362
  8
11
  2
STDGX5
 10
697.89947758271012
 20
100.5422154914849
 30
0.0
 41
0.1000000000000227
 42
0.1000000000000227
 43
0.1000000000000227
  0
INSERT
  5
363
  8
11
  2
STDGX5
 10
787.95969332976426
 20
125.14938401856941
 30
0.0
 41
0.1000000000000227
 42
0.1000000000000227
 43
0.1000000000000227
  0
INSERT
  5
364
  8
11
  2
STDGX5
 10
791.70820319138602
 20
121.54938399090911
 30
0.0
 41
0.1000000000000227
 42
0.1000000000000227
 43
0.1000000000000227
  0
INSERT
  5
365
  8
11
  2
STDGX5
 10
785.06311748522717
 20
118.31424889386631
 30
0.0
 41
0.1000000000000227
 42
0.1000000000000227
 43
0.1000000000000227
  0
INSERT
  5
366
  8
11
  2
STDGX5
 10
866.46361799078477
 20
128.16511821522451
 30
0.0
 41
0.1000000000000227
 42
0.1000000000000227
 43
0.1000000000000227
  0
INSERT
  5
367
  8
11
  2
STDGX5
 10
870.21212785240641
 20
124.5651181875642
 30
0.0
 41
0.1000000000000227
 42
0.1000000000000227
 43
0.1000000000000227
  0
INSERT
  5
368
  8
11
  2
STDGX5
 10
863.56704214624756
 20
121.32998309052149
 30
0.0
 41
0.1000000000000227
 42
0.1000000000000227
 43
0.1000000000000227
  0
INSERT
  5
369
  8
11
  2
STDGX5
 10
673.2960534272471
 20
89.877350616187968
 30
0.0
 41
0.1000000000000227
 42
0.1000000000000227
 43
0.1000000000000227
  0
INSERT
  5
36A
  8
11
  2
STDGX5
 10
677.04456328886874
 20
86.277350588527696
 30
0.0
 41
0.1000000000000227
 42
0.1000000000000227
 43
0.1000000000000227
  0
INSERT
  5
36B
  8
11
  2
STDGX5
 10
670.39947758271001
 20
83.042215491484924
 30
0.0
 41
0.1000000000000227
 42
0.1000000000000227
 43
0.1000000000000227
  0
INSERT
  5
36C
  8
11
  2
STDGX5
 10
760.45969332976426
 20
107.64938401856941
 30
0.0
 41
0.1000000000000227
 42
0.1000000000000227
 43
0.1000000000000227
  0
INSERT
  5
36D
  8
11
  2
STDGX5
 10
764.20820319138602
 20
104.04938399090911
 30
0.0
 41
0.1000000000000227
 42
0.1000000000000227
 43
0.1000000000000227
  0
INSERT
  5
36E
  8
11
  2
STDGX5
 10
757.56311748522705
 20
100.81424889386641
 30
0.0
 41
0.1000000000000227
 42
0.1000000000000227
 43
0.1000000000000227
  0
INSERT
  5
36F
  8
11
  2
STDGX5
 10
838.96361799078477
 20
110.6651182152245
 30
0.0
 41
0.1000000000000227
 42
0.1000000000000227
 43
0.1000000000000227
  0
INSERT
  5
370
  8
11
  2
STDGX5
 10
842.7121278524063
 20
107.0651181875642
 30
0.0
 41
0.1000000000000227
 42
0.1000000000000227
 43
0.1000000000000227
  0
INSERT
  5
371
  8
11
  2
STDGX5
 10
836.06704214624756
 20
103.82998309052149
 30
0.0
 41
0.1000000000000227
 42
0.1000000000000227
 43
0.1000000000000227
  0
INSERT
  5
372
  8
11
  2
STDGX5
 10
700.79605342724733
 20
92.377354936429668
 30
0.0
 41
0.1000000000000227
 42
0.1000000000000227
 43
0.1000000000000227
  0
INSERT
  5
373
  8
11
  2
STDGX5
 10
704.54456328886886
 20
88.777354908769382
 30
0.0
 41
0.1000000000000227
 42
0.1000000000000227
 43
0.1000000000000227
  0
INSERT
  5
374
  8
11
  2
STDGX5
 10
697.89947758271012
 20
85.542219811726639
 30
0.0
 41
0.1000000000000227
 42
0.1000000000000227
 43
0.1000000000000227
  0
INSERT
  5
375
  8
11
  2
STDGX5
 10
787.95969332976426
 20
110.14938833881109
 30
0.0
 41
0.1000000000000227
 42
0.1000000000000227
 43
0.1000000000000227
  0
INSERT
  5
376
  8
11
  2
STDGX5
 10
791.70820319138602
 20
106.54938831115081
 30
0.0
 41
0.1000000000000227
 42
0.1000000000000227
 43
0.1000000000000227
  0
INSERT
  5
377
  8
11
  2
STDGX5
 10
785.06311748522717
 20
103.31425321410801
 30
0.0
 41
0.1000000000000227
 42
0.1000000000000227
 43
0.1000000000000227
  0
INSERT
  5
378
  8
11
  2
STDGX5
 10
866.46361799078477
 20
113.1651225354662
 30
0.0
 41
0.1000000000000227
 42
0.1000000000000227
 43
0.1000000000000227
  0
INSERT
  5
379
  8
11
  2
STDGX5
 10
870.21212785240641
 20
109.5651225078059
 30
0.0
 41
0.1000000000000227
 42
0.1000000000000227
 43
0.1000000000000227
  0
INSERT
  5
37A
  8
11
  2
STDGX5
 10
863.56704214624756
 20
106.3299874107632
 30
0.0
 41
0.1000000000000227
 42
0.1000000000000227
 43
0.1000000000000227
  0
INSERT
  5
37B
  8
11
  2
STDGX5
 10
590.96150546972308
 20
82.542643758334151
 30
0.0
 41
0.1000000000000227
 42
0.1000000000000227
 43
0.1000000000000227
  0
INSERT
  5
37C
  8
11
  2
STDGX5
 10
594.71001533134472
 20
78.942643730673865
 30
0.0
 41
0.1000000000000227
 42
0.1000000000000227
 43
0.1000000000000227
  0
INSERT
  5
37D
  8
11
  2
STDGX5
 10
588.06492962518575
 20
75.707508633631122
 30
0.0
 41
0.1000000000000227
 42
0.1000000000000227
 43
0.1000000000000227
  0
INSERT
  5
37E
  8
11
  2
STDGX5
 10
678.12514537224013
 20
100.3146771607156
 30
0.0
 41
0.1000000000000227
 42
0.1000000000000227
 43
0.1000000000000227
  0
INSERT
  5
37F
  8
11
  2
STDGX5
 10
681.87365523386165
 20
96.714677133055304
 30
0.0
 41
0.1000000000000227
 42
0.1000000000000227
 43
0.1000000000000227
  0
INSERT
  5
380
  8
11
  2
STDGX5
 10
675.22856952770292
 20
93.479542036012546
 30
0.0
 41
0.1000000000000227
 42
0.1000000000000227
 43
0.1000000000000227
  0
INSERT
  5
381
  8
11
  2
STDGX5
 10
756.62907003326063
 20
103.33041135737071
 30
0.0
 41
0.1000000000000227
 42
0.1000000000000227
 43
0.1000000000000227
  0
INSERT
  5
382
  8
11
  2
STDGX5
 10
760.37757989488227
 20
99.730411329710421
 30
0.0
 41
0.1000000000000227
 42
0.1000000000000227
 43
0.1000000000000227
  0
INSERT
  5
383
  8
11
  2
STDGX5
 10
753.73249418872342
 20
96.495276232667678
 30
0.0
 41
0.1000000000000227
 42
0.1000000000000227
 43
0.1000000000000227
  0
INSERT
  5
384
  8
11
  2
STDGX5
 10
618.46150546972297
 20
85.042648078575866
 30
0.0
 41
0.1000000000000227
 42
0.1000000000000227
 43
0.1000000000000227
  0
INSERT
  5
385
  8
11
  2
STDGX5
 10
622.21001533134472
 20
81.442648050915551
 30
0.0
 41
0.1000000000000227
 42
0.1000000000000227
 43
0.1000000000000227
  0
INSERT
  5
386
  8
11
  2
STDGX5
 10
615.56492962518575
 20
78.207512953872808
 30
0.0
 41
0.1000000000000227
 42
0.1000000000000227
 43
0.1000000000000227
  0
INSERT
  5
387
  8
11
  2
STDGX5
 10
705.62514537224013
 20
102.8146814809572
 30
0.0
 41
0.1000000000000227
 42
0.1000000000000227
 43
0.1000000000000227
  0
INSERT
  5
388
  8
11
  2
STDGX5
 10
709.37365523386177
 20
99.21468145329699
 30
0.0
 41
0.1000000000000227
 42
0.1000000000000227
 43
0.1000000000000227
  0
INSERT
  5
389
  8
11
  2
STDGX5
 10
702.72856952770292
 20
95.979546356254247
 30
0.0
 41
0.1000000000000227
 42
0.1000000000000227
 43
0.1000000000000227
  0
INSERT
  5
38A
  8
11
  2
STDGX5
 10
784.12907003326063
 20
105.83041567761239
 30
0.0
 41
0.1000000000000227
 42
0.1000000000000227
 43
0.1000000000000227
  0
INSERT
  5
38B
  8
11
  2
STDGX5
 10
787.87757989488216
 20
102.23041564995211
 30
0.0
 41
0.1000000000000227
 42
0.1000000000000227
 43
0.1000000000000227
  0
INSERT
  5
38C
  8
11
  2
STDGX5
 10
781.23249418872342
 20
98.995280552909364
 30
0.0
 41
0.1000000000000227
 42
0.1000000000000227
 43
0.1000000000000227
  0
INSERT
  5
38D
  8
11
  2
STDGX5
 10
618.46150546972297
 20
85.042648078575866
 30
0.0
 41
0.1000000000000227
 42
0.1000000000000227
 43
0.1000000000000227
  0
INSERT
  5
38E
  8
11
  2
STDGX5
 10
622.21001533134472
 20
81.442648050915551
 30
0.0
 41
0.1000000000000227
 42
0.1000000000000227
 43
0.1000000000000227
  0
INSERT
  5
38F
  8
11
  2
STDGX5
 10
615.56492962518575
 20
78.207512953872808
 30
0.0
 41
0.1000000000000227
 42
0.1000000000000227
 43
0.1000000000000227
  0
INSERT
  5
390
  8
11
  2
STDGX5
 10
705.62514537224013
 20
102.8146814809572
 30
0.0
 41
0.1000000000000227
 42
0.1000000000000227
 43
0.1000000000000227
  0
INSERT
  5
391
  8
11
  2
STDGX5
 10
709.37365523386177
 20
99.21468145329699
 30
0.0
 41
0.1000000000000227
 42
0.1000000000000227
 43
0.1000000000000227
  0
INSERT
  5
392
  8
11
  2
STDGX5
 10
702.72856952770292
 20
95.979546356254247
 30
0.0
 41
0.1000000000000227
 42
0.1000000000000227
 43
0.1000000000000227
  0
INSERT
  5
393
  8
11
  2
STDGX5
 10
784.12907003326063
 20
105.83041567761239
 30
0.0
 41
0.1000000000000227
 42
0.1000000000000227
 43
0.1000000000000227
  0
INSERT
  5
394
  8
11
  2
STDGX5
 10
787.87757989488216
 20
102.23041564995211
 30
0.0
 41
0.1000000000000227
 42
0.1000000000000227
 43
0.1000000000000227
  0
INSERT
  5
395
  8
11
  2
STDGX5
 10
781.23249418872342
 20
98.995280552909364
 30
0.0
 41
0.1000000000000227
 42
0.1000000000000227
 43
0.1000000000000227
  0
INSERT
  5
396
  8
11
  2
STDGX5
 10
645.96150546972308
 20
87.542652398817523
 30
0.0
 41
0.1000000000000227
 42
0.1000000000000227
 43
0.1000000000000227
  0
INSERT
  5
397
  8
11
  2
STDGX5
 10
649.71001533134461
 20
83.942652371157251
 30
0.0
 41
0.1000000000000227
 42
0.1000000000000227
 43
0.1000000000000227
  0
INSERT
  5
398
  8
11
  2
STDGX5
 10
643.06492962518575
 20
80.707517274114508
 30
0.0
 41
0.1000000000000227
 42
0.1000000000000227
 43
0.1000000000000227
  0
INSERT
  5
399
  8
11
  2
STDGX5
 10
733.12514537224013
 20
105.314685801199
 30
0.0
 41
0.1000000000000227
 42
0.1000000000000227
 43
0.1000000000000227
  0
INSERT
  5
39A
  8
11
  2
STDGX5
 10
736.87365523386165
 20
101.7146857735387
 30
0.0
 41
0.1000000000000227
 42
0.1000000000000227
 43
0.1000000000000227
  0
INSERT
  5
39B
  8
11
  2
STDGX5
 10
730.22856952770292
 20
98.479550676495933
 30
0.0
 41
0.1000000000000227
 42
0.1000000000000227
 43
0.1000000000000227
  0
INSERT
  5
39C
  8
11
  2
STDGX5
 10
811.62907003326075
 20
108.33041999785409
 30
0.0
 41
0.1000000000000227
 42
0.1000000000000227
 43
0.1000000000000227
  0
INSERT
  5
39D
  8
11
  2
STDGX5
 10
815.37757989488227
 20
104.73041997019379
 30
0.0
 41
0.1000000000000227
 42
0.1000000000000227
 43
0.1000000000000227
  0
INSERT
  5
39E
  8
11
  2
STDGX5
 10
808.73249418872331
 20
101.49528487315099
 30
0.0
 41
0.1000000000000227
 42
0.1000000000000227
 43
0.1000000000000227
  0
INSERT
  5
39F
  8
11
  2
STDGX5
 10
645.96150546972308
 20
87.542652398817523
 30
0.0
 41
0.1000000000000227
 42
0.1000000000000227
 43
0.1000000000000227
  0
INSERT
  5
3A0
  8
11
  2
STDGX5
 10
649.71001533134461
 20
83.942652371157251
 30
0.0
 41
0.1000000000000227
 42
0.1000000000000227
 43
0.1000000000000227
  0
INSERT
  5
3A1
  8
11
  2
STDGX5
 10
643.06492962518575
 20
80.707517274114508
 30
0.0
 41
0.1000000000000227
 42
0.1000000000000227
 43
0.1000000000000227
  0
INSERT
  5
3A2
  8
11
  2
STDGX5
 10
733.12514537224013
 20
105.314685801199
 30
0.0
 41
0.1000000000000227
 42
0.1000000000000227
 43
0.1000000000000227
  0
INSERT
  5
3A3
  8
11
  2
STDGX5
 10
736.87365523386165
 20
101.7146857735387
 30
0.0
 41
0.1000000000000227
 42
0.1000000000000227
 43
0.1000000000000227
  0
INSERT
  5
3A4
  8
11
  2
STDGX5
 10
730.22856952770292
 20
98.479550676495933
 30
0.0
 41
0.1000000000000227
 42
0.1000000000000227
 43
0.1000000000000227
  0
INSERT
  5
3A5
  8
11
  2
STDGX5
 10
811.62907003326075
 20
108.33041999785409
 30
0.0
 41
0.1000000000000227
 42
0.1000000000000227
 43
0.1000000000000227
  0
INSERT
  5
3A6
  8
11
  2
STDGX5
 10
815.37757989488227
 20
104.73041997019379
 30
0.0
 41
0.1000000000000227
 42
0.1000000000000227
 43
0.1000000000000227
  0
INSERT
  5
3A7
  8
11
  2
STDGX5
 10
808.73249418872331
 20
101.49528487315099
 30
0.0
 41
0.1000000000000227
 42
0.1000000000000227
 43
0.1000000000000227
  0
INSERT
  5
3A8
  8
11
  2
STDGX5
 10
645.96150546972308
 20
87.542652398817523
 30
0.0
 41
0.1000000000000227
 42
0.1000000000000227
 43
0.1000000000000227
  0
INSERT
  5
3A9
  8
11
  2
STDGX5
 10
649.71001533134461
 20
83.942652371157251
 30
0.0
 41
0.1000000000000227
 42
0.1000000000000227
 43
0.1000000000000227
  0
INSERT
  5
3AA
  8
11
  2
STDGX5
 10
643.06492962518575
 20
80.707517274114508
 30
0.0
 41
0.1000000000000227
 42
0.1000000000000227
 43
0.1000000000000227
  0
INSERT
  5
3AB
  8
11
  2
STDGX5
 10
733.12514537224013
 20
105.314685801199
 30
0.0
 41
0.1000000000000227
 42
0.1000000000000227
 43
0.1000000000000227
  0
INSERT
  5
3AC
  8
11
  2
STDGX5
 10
736.87365523386165
 20
101.7146857735387
 30
0.0
 41
0.1000000000000227
 42
0.1000000000000227
 43
0.1000000000000227
  0
INSERT
  5
3AD
  8
11
  2
STDGX5
 10
730.22856952770292
 20
98.479550676495933
 30
0.0
 41
0.1000000000000227
 42
0.1000000000000227
 43
0.1000000000000227
  0
INSERT
  5
3AE
  8
11
  2
STDGX5
 10
811.62907003326075
 20
108.33041999785409
 30
0.0
 41
0.1000000000000227
 42
0.1000000000000227
 43
0.1000000000000227
  0
INSERT
  5
3AF
  8
11
  2
STDGX5
 10
815.37757989488227
 20
104.73041997019379
 30
0.0
 41
0.1000000000000227
 42
0.1000000000000227
 43
0.1000000000000227
  0
INSERT
  5
3B0
  8
11
  2
STDGX5
 10
808.73249418872331
 20
101.49528487315099
 30
0.0
 41
0.1000000000000227
 42
0.1000000000000227
 43
0.1000000000000227
  0
INSERT
  5
3B1
  8
11
  2
STDGX5
 10
645.96150546972308
 20
87.542652398817523
 30
0.0
 41
0.1000000000000227
 42
0.1000000000000227
 43
0.1000000000000227
  0
INSERT
  5
3B2
  8
11
  2
STDGX5
 10
649.71001533134461
 20
83.942652371157251
 30
0.0
 41
0.1000000000000227
 42
0.1000000000000227
 43
0.1000000000000227
  0
INSERT
  5
3B3
  8
11
  2
STDGX5
 10
643.06492962518575
 20
80.707517274114508
 30
0.0
 41
0.1000000000000227
 42
0.1000000000000227
 43
0.1000000000000227
  0
INSERT
  5
3B4
  8
11
  2
STDGX5
 10
733.12514537224013
 20
105.314685801199
 30
0.0
 41
0.1000000000000227
 42
0.1000000000000227
 43
0.1000000000000227
  0
INSERT
  5
3B5
  8
11
  2
STDGX5
 10
736.87365523386165
 20
101.7146857735387
 30
0.0
 41
0.1000000000000227
 42
0.1000000000000227
 43
0.1000000000000227
  0
INSERT
  5
3B6
  8
11
  2
STDGX5
 10
730.22856952770292
 20
98.479550676495933
 30
0.0
 41
0.1000000000000227
 42
0.1000000000000227
 43
0.1000000000000227
  0
INSERT
  5
3B7
  8
11
  2
STDGX5
 10
811.62907003326075
 20
108.33041999785409
 30
0.0
 41
0.1000000000000227
 42
0.1000000000000227
 43
0.1000000000000227
  0
INSERT
  5
3B8
  8
11
  2
STDGX5
 10
815.37757989488227
 20
104.73041997019379
 30
0.0
 41
0.1000000000000227
 42
0.1000000000000227
 43
0.1000000000000227
  0
INSERT
  5
3B9
  8
11
  2
STDGX5
 10
808.73249418872331
 20
101.49528487315099
 30
0.0
 41
0.1000000000000227
 42
0.1000000000000227
 43
0.1000000000000227
  0
INSERT
  5
3BA
  8
11
  2
STDGX5
 10
645.96150546972308
 20
87.542652398817523
 30
0.0
 41
0.1000000000000227
 42
0.1000000000000227
 43
0.1000000000000227
  0
INSERT
  5
3BB
  8
11
  2
STDGX5
 10
649.71001533134461
 20
83.942652371157251
 30
0.0
 41
0.1000000000000227
 42
0.1000000000000227
 43
0.1000000000000227
  0
INSERT
  5
3BC
  8
11
  2
STDGX5
 10
643.06492962518575
 20
80.707517274114508
 30
0.0
 41
0.1000000000000227
 42
0.1000000000000227
 43
0.1000000000000227
  0
INSERT
  5
3BD
  8
11
  2
STDGX5
 10
733.12514537224013
 20
105.314685801199
 30
0.0
 41
0.1000000000000227
 42
0.1000000000000227
 43
0.1000000000000227
  0
INSERT
  5
3BE
  8
11
  2
STDGX5
 10
736.87365523386165
 20
101.7146857735387
 30
0.0
 41
0.1000000000000227
 42
0.1000000000000227
 43
0.1000000000000227
  0
INSERT
  5
3BF
  8
11
  2
STDGX5
 10
730.22856952770292
 20
98.479550676495933
 30
0.0
 41
0.1000000000000227
 42
0.1000000000000227
 43
0.1000000000000227
  0
INSERT
  5
3C0
  8
11
  2
STDGX5
 10
811.62907003326075
 20
108.33041999785409
 30
0.0
 41
0.1000000000000227
 42
0.1000000000000227
 43
0.1000000000000227
  0
INSERT
  5
3C1
  8
11
  2
STDGX5
 10
815.37757989488227
 20
104.73041997019379
 30
0.0
 41
0.1000000000000227
 42
0.1000000000000227
 43
0.1000000000000227
  0
INSERT
  5
3C2
  8
11
  2
STDGX5
 10
808.73249418872331
 20
101.49528487315099
 30
0.0
 41
0.1000000000000227
 42
0.1000000000000227
 43
0.1000000000000227
  0
INSERT
  5
3C3
  8
11
  2
STDGX5
 10
645.96150546972308
 20
87.542652398817523
 30
0.0
 41
0.1000000000000227
 42
0.1000000000000227
 43
0.1000000000000227
  0
INSERT
  5
3C4
  8
11
  2
STDGX5
 10
649.71001533134461
 20
83.942652371157251
 30
0.0
 41
0.1000000000000227
 42
0.1000000000000227
 43
0.1000000000000227
  0
INSERT
  5
3C5
  8
11
  2
STDGX5
 10
643.06492962518575
 20
80.707517274114508
 30
0.0
 41
0.1000000000000227
 42
0.1000000000000227
 43
0.1000000000000227
  0
INSERT
  5
3C6
  8
11
  2
STDGX5
 10
733.12514537224013
 20
105.314685801199
 30
0.0
 41
0.1000000000000227
 42
0.1000000000000227
 43
0.1000000000000227
  0
INSERT
  5
3C7
  8
11
  2
STDGX5
 10
736.87365523386165
 20
101.7146857735387
 30
0.0
 41
0.1000000000000227
 42
0.1000000000000227
 43
0.1000000000000227
  0
INSERT
  5
3C8
  8
11
  2
STDGX5
 10
730.22856952770292
 20
98.479550676495933
 30
0.0
 41
0.1000000000000227
 42
0.1000000000000227
 43
0.1000000000000227
  0
INSERT
  5
3C9
  8
11
  2
STDGX5
 10
811.62907003326075
 20
108.33041999785409
 30
0.0
 41
0.1000000000000227
 42
0.1000000000000227
 43
0.1000000000000227
  0
INSERT
  5
3CA
  8
11
  2
STDGX5
 10
815.37757989488227
 20
104.73041997019379
 30
0.0
 41
0.1000000000000227
 42
0.1000000000000227
 43
0.1000000000000227
  0
INSERT
  5
3CB
  8
11
  2
STDGX5
 10
808.73249418872331
 20
101.49528487315099
 30
0.0
 41
0.1000000000000227
 42
0.1000000000000227
 43
0.1000000000000227
  0
INSERT
  5
3CC
  8
11
  2
STDGX5
 10
673.46150546972297
 20
90.042656719059238
 30
0.0
 41
0.1000000000000227
 42
0.1000000000000227
 43
0.1000000000000227
  0
INSERT
  5
3CD
  8
11
  2
STDGX5
 10
677.21001533134472
 20
86.442656691398938
 30
0.0
 41
0.1000000000000227
 42
0.1000000000000227
 43
0.1000000000000227
  0
INSERT
  5
3CE
  8
11
  2
STDGX5
 10
670.56492962518575
 20
83.207521594356194
 30
0.0
 41
0.1000000000000227
 42
0.1000000000000227
 43
0.1000000000000227
  0
INSERT
  5
3CF
  8
11
  2
STDGX5
 10
760.62514537224013
 20
107.81469012144061
 30
0.0
 41
0.1000000000000227
 42
0.1000000000000227
 43
0.1000000000000227
  0
INSERT
  5
3D0
  8
11
  2
STDGX5
 10
764.37365523386177
 20
104.21469009378031
 30
0.0
 41
0.1000000000000227
 42
0.1000000000000227
 43
0.1000000000000227
  0
INSERT
  5
3D1
  8
11
  2
STDGX5
 10
757.72856952770292
 20
100.9795549967376
 30
0.0
 41
0.1000000000000227
 42
0.1000000000000227
 43
0.1000000000000227
  0
INSERT
  5
3D2
  8
11
  2
STDGX5
 10
839.12907003326052
 20
110.83042431809579
 30
0.0
 41
0.1000000000000227
 42
0.1000000000000227
 43
0.1000000000000227
  0
INSERT
  5
3D3
  8
11
  2
STDGX5
 10
842.87757989488227
 20
107.23042429043549
 30
0.0
 41
0.1000000000000227
 42
0.1000000000000227
 43
0.1000000000000227
  0
INSERT
  5
3D4
  8
11
  2
STDGX5
 10
836.23249418872342
 20
103.99528919339269
 30
0.0
 41
0.1000000000000227
 42
0.1000000000000227
 43
0.1000000000000227
  0
INSERT
  5
3D5
  8
11
  2
STDGX5
 10
673.46150546972297
 20
90.042656719059238
 30
0.0
 41
0.1000000000000227
 42
0.1000000000000227
 43
0.1000000000000227
  0
INSERT
  5
3D6
  8
11
  2
STDGX5
 10
677.21001533134472
 20
86.442656691398938
 30
0.0
 41
0.1000000000000227
 42
0.1000000000000227
 43
0.1000000000000227
  0
INSERT
  5
3D7
  8
11
  2
STDGX5
 10
670.56492962518575
 20
83.207521594356194
 30
0.0
 41
0.1000000000000227
 42
0.1000000000000227
 43
0.1000000000000227
  0
INSERT
  5
3D8
  8
11
  2
STDGX5
 10
760.62514537224013
 20
107.81469012144061
 30
0.0
 41
0.1000000000000227
 42
0.1000000000000227
 43
0.1000000000000227
  0
INSERT
  5
3D9
  8
11
  2
STDGX5
 10
764.37365523386177
 20
104.21469009378031
 30
0.0
 41
0.1000000000000227
 42
0.1000000000000227
 43
0.1000000000000227
  0
INSERT
  5
3DA
  8
11
  2
STDGX5
 10
757.72856952770292
 20
100.9795549967376
 30
0.0
 41
0.1000000000000227
 42
0.1000000000000227
 43
0.1000000000000227
  0
INSERT
  5
3DB
  8
11
  2
STDGX5
 10
839.12907003326052
 20
110.83042431809579
 30
0.0
 41
0.1000000000000227
 42
0.1000000000000227
 43
0.1000000000000227
  0
INSERT
  5
3DC
  8
11
  2
STDGX5
 10
842.87757989488227
 20
107.23042429043549
 30
0.0
 41
0.1000000000000227
 42
0.1000000000000227
 43
0.1000000000000227
  0
INSERT
  5
3DD
  8
11
  2
STDGX5
 10
836.23249418872342
 20
103.99528919339269
 30
0.0
 41
0.1000000000000227
 42
0.1000000000000227
 43
0.1000000000000227
  0
INSERT
  5
3DE
  8
11
  2
STDGX5
 10
673.46150546972297
 20
90.042656719059238
 30
0.0
 41
0.1000000000000227
 42
0.1000000000000227
 43
0.1000000000000227
  0
INSERT
  5
3DF
  8
11
  2
STDGX5
 10
677.21001533134472
 20
86.442656691398938
 30
0.0
 41
0.1000000000000227
 42
0.1000000000000227
 43
0.1000000000000227
  0
INSERT
  5
3E0
  8
11
  2
STDGX5
 10
670.56492962518575
 20
83.207521594356194
 30
0.0
 41
0.1000000000000227
 42
0.1000000000000227
 43
0.1000000000000227
  0
INSERT
  5
3E1
  8
11
  2
STDGX5
 10
760.62514537224013
 20
107.81469012144061
 30
0.0
 41
0.1000000000000227
 42
0.1000000000000227
 43
0.1000000000000227
  0
INSERT
  5
3E2
  8
11
  2
STDGX5
 10
764.37365523386177
 20
104.21469009378031
 30
0.0
 41
0.1000000000000227
 42
0.1000000000000227
 43
0.1000000000000227
  0
INSERT
  5
3E3
  8
11
  2
STDGX5
 10
757.72856952770292
 20
100.9795549967376
 30
0.0
 41
0.1000000000000227
 42
0.1000000000000227
 43
0.1000000000000227
  0
INSERT
  5
3E4
  8
11
  2
STDGX5
 10
839.12907003326052
 20
110.83042431809579
 30
0.0
 41
0.1000000000000227
 42
0.1000000000000227
 43
0.1000000000000227
  0
INSERT
  5
3E5
  8
11
  2
STDGX5
 10
842.87757989488227
 20
107.23042429043549
 30
0.0
 41
0.1000000000000227
 42
0.1000000000000227
 43
0.1000000000000227
  0
INSERT
  5
3E6
  8
11
  2
STDGX5
 10
836.23249418872342
 20
103.99528919339269
 30
0.0
 41
0.1000000000000227
 42
0.1000000000000227
 43
0.1000000000000227
  0
INSERT
  5
3E7
  8
11
  2
STDGX5
 10
673.46150546972297
 20
90.042656719059238
 30
0.0
 41
0.1000000000000227
 42
0.1000000000000227
 43
0.1000000000000227
  0
INSERT
  5
3E8
  8
11
  2
STDGX5
 10
677.21001533134472
 20
86.442656691398938
 30
0.0
 41
0.1000000000000227
 42
0.1000000000000227
 43
0.1000000000000227
  0
INSERT
  5
3E9
  8
11
  2
STDGX5
 10
670.56492962518575
 20
83.207521594356194
 30
0.0
 41
0.1000000000000227
 42
0.1000000000000227
 43
0.1000000000000227
  0
INSERT
  5
3EA
  8
11
  2
STDGX5
 10
760.62514537224013
 20
107.81469012144061
 30
0.0
 41
0.1000000000000227
 42
0.1000000000000227
 43
0.1000000000000227
  0
INSERT
  5
3EB
  8
11
  2
STDGX5
 10
764.37365523386177
 20
104.21469009378031
 30
0.0
 41
0.1000000000000227
 42
0.1000000000000227
 43
0.1000000000000227
  0
INSERT
  5
3EC
  8
11
  2
STDGX5
 10
757.72856952770292
 20
100.9795549967376
 30
0.0
 41
0.1000000000000227
 42
0.1000000000000227
 43
0.1000000000000227
  0
INSERT
  5
3ED
  8
11
  2
STDGX5
 10
839.12907003326052
 20
110.83042431809579
 30
0.0
 41
0.1000000000000227
 42
0.1000000000000227
 43
0.1000000000000227
  0
INSERT
  5
3EE
  8
11
  2
STDGX5
 10
842.87757989488227
 20
107.23042429043549
 30
0.0
 41
0.1000000000000227
 42
0.1000000000000227
 43
0.1000000000000227
  0
INSERT
  5
3EF
  8
11
  2
STDGX5
 10
836.23249418872342
 20
103.99528919339269
 30
0.0
 41
0.1000000000000227
 42
0.1000000000000227
 43
0.1000000000000227
  0
INSERT
  5
3F0
  8
11
  2
STDGX5
 10
673.46150546972297
 20
90.042656719059238
 30
0.0
 41
0.1000000000000227
 42
0.1000000000000227
 43
0.1000000000000227
  0
INSERT
  5
3F1
  8
11
  2
STDGX5
 10
677.21001533134472
 20
86.442656691398938
 30
0.0
 41
0.1000000000000227
 42
0.1000000000000227
 43
0.1000000000000227
  0
INSERT
  5
3F2
  8
11
  2
STDGX5
 10
670.56492962518575
 20
83.207521594356194
 30
0.0
 41
0.1000000000000227
 42
0.1000000000000227
 43
0.1000000000000227
  0
INSERT
  5
3F3
  8
11
  2
STDGX5
 10
760.62514537224013
 20
107.81469012144061
 30
0.0
 41
0.1000000000000227
 42
0.1000000000000227
 43
0.1000000000000227
  0
INSERT
  5
3F4
  8
11
  2
STDGX5
 10
764.37365523386177
 20
104.21469009378031
 30
0.0
 41
0.1000000000000227
 42
0.1000000000000227
 43
0.1000000000000227
  0
INSERT
  5
3F5
  8
11
  2
STDGX5
 10
757.72856952770292
 20
100.9795549967376
 30
0.0
 41
0.1000000000000227
 42
0.1000000000000227
 43
0.1000000000000227
  0
INSERT
  5
3F6
  8
11
  2
STDGX5
 10
839.12907003326052
 20
110.83042431809579
 30
0.0
 41
0.1000000000000227
 42
0.1000000000000227
 43
0.1000000000000227
  0
INSERT
  5
3F7
  8
11
  2
STDGX5
 10
842.87757989488227
 20
107.23042429043549
 30
0.0
 41
0.1000000000000227
 42
0.1000000000000227
 43
0.1000000000000227
  0
INSERT
  5
3F8
  8
11
  2
STDGX5
 10
836.23249418872342
 20
103.99528919339269
 30
0.0
 41
0.1000000000000227
 42
0.1000000000000227
 43
0.1000000000000227
  0
INSERT
  5
3F9
  8
11
  2
STDGX5
 10
700.96150546972297
 20
92.542661039300924
 30
0.0
 41
0.1000000000000227
 42
0.1000000000000227
 43
0.1000000000000227
  0
INSERT
  5
3FA
  8
11
  2
STDGX5
 10
704.71001533134472
 20
88.942661011640624
 30
0.0
 41
0.1000000000000227
 42
0.1000000000000227
 43
0.1000000000000227
  0
INSERT
  5
3FB
  8
11
  2
STDGX5
 10
698.06492962518587
 20
85.707525914597881
 30
0.0
 41
0.1000000000000227
 42
0.1000000000000227
 43
0.1000000000000227
  0
INSERT
  5
3FC
  8
11
  2
STDGX5
 10
788.12514537224013
 20
110.31469444168231
 30
0.0
 41
0.1000000000000227
 42
0.1000000000000227
 43
0.1000000000000227
  0
INSERT
  5
3FD
  8
11
  2
STDGX5
 10
791.87365523386165
 20
106.71469441402201
 30
0.0
 41
0.1000000000000227
 42
0.1000000000000227
 43
0.1000000000000227
  0
INSERT
  5
3FE
  8
11
  2
STDGX5
 10
785.22856952770292
 20
103.47955931697931
 30
0.0
 41
0.1000000000000227
 42
0.1000000000000227
 43
0.1000000000000227
  0
INSERT
  5
3FF
  8
11
  2
STDGX5
 10
866.62907003326063
 20
113.33042863833749
 30
0.0
 41
0.1000000000000227
 42
0.1000000000000227
 43
0.1000000000000227
  0
INSERT
  5
400
  8
11
  2
STDGX5
 10
870.37757989488227
 20
109.73042861067719
 30
0.0
 41
0.1000000000000227
 42
0.1000000000000227
 43
0.1000000000000227
  0
INSERT
  5
401
  8
11
  2
STDGX5
 10
863.73249418872342
 20
106.49529351363439
 30
0.0
 41
0.1000000000000227
 42
0.1000000000000227
 43
0.1000000000000227
  0
INSERT
  5
402
  8
11
  2
STDGX5
 10
673.46150546972297
 20
90.042656719059238
 30
0.0
 41
0.1000000000000227
 42
0.1000000000000227
 43
0.1000000000000227
  0
INSERT
  5
403
  8
11
  2
STDGX5
 10
677.21001533134472
 20
86.442656691398938
 30
0.0
 41
0.1000000000000227
 42
0.1000000000000227
 43
0.1000000000000227
  0
INSERT
  5
404
  8
11
  2
STDGX5
 10
670.56492962518575
 20
83.207521594356194
 30
0.0
 41
0.1000000000000227
 42
0.1000000000000227
 43
0.1000000000000227
  0
INSERT
  5
405
  8
11
  2
STDGX5
 10
760.62514537224013
 20
107.81469012144061
 30
0.0
 41
0.1000000000000227
 42
0.1000000000000227
 43
0.1000000000000227
  0
INSERT
  5
406
  8
11
  2
STDGX5
 10
764.37365523386177
 20
104.21469009378031
 30
0.0
 41
0.1000000000000227
 42
0.1000000000000227
 43
0.1000000000000227
  0
INSERT
  5
407
  8
11
  2
STDGX5
 10
757.72856952770292
 20
100.9795549967376
 30
0.0
 41
0.1000000000000227
 42
0.1000000000000227
 43
0.1000000000000227
  0
INSERT
  5
408
  8
11
  2
STDGX5
 10
839.12907003326052
 20
110.83042431809579
 30
0.0
 41
0.1000000000000227
 42
0.1000000000000227
 43
0.1000000000000227
  0
INSERT
  5
409
  8
11
  2
STDGX5
 10
842.87757989488227
 20
107.23042429043549
 30
0.0
 41
0.1000000000000227
 42
0.1000000000000227
 43
0.1000000000000227
  0
INSERT
  5
40A
  8
11
  2
STDGX5
 10
836.23249418872342
 20
103.99528919339269
 30
0.0
 41
0.1000000000000227
 42
0.1000000000000227
 43
0.1000000000000227
  0
INSERT
  5
40B
  8
11
  2
STDGX5
 10
700.96150546972297
 20
92.542661039300924
 30
0.0
 41
0.1000000000000227
 42
0.1000000000000227
 43
0.1000000000000227
  0
INSERT
  5
40C
  8
11
  2
STDGX5
 10
704.71001533134472
 20
88.942661011640624
 30
0.0
 41
0.1000000000000227
 42
0.1000000000000227
 43
0.1000000000000227
  0
INSERT
  5
40D
  8
11
  2
STDGX5
 10
698.06492962518587
 20
85.707525914597881
 30
0.0
 41
0.1000000000000227
 42
0.1000000000000227
 43
0.1000000000000227
  0
INSERT
  5
40E
  8
11
  2
STDGX5
 10
788.12514537224013
 20
110.31469444168231
 30
0.0
 41
0.1000000000000227
 42
0.1000000000000227
 43
0.1000000000000227
  0
INSERT
  5
40F
  8
11
  2
STDGX5
 10
791.87365523386165
 20
106.71469441402201
 30
0.0
 41
0.1000000000000227
 42
0.1000000000000227
 43
0.1000000000000227
  0
INSERT
  5
410
  8
11
  2
STDGX5
 10
785.22856952770292
 20
103.47955931697931
 30
0.0
 41
0.1000000000000227
 42
0.1000000000000227
 43
0.1000000000000227
  0
INSERT
  5
411
  8
11
  2
STDGX5
 10
866.62907003326063
 20
113.33042863833749
 30
0.0
 41
0.1000000000000227
 42
0.1000000000000227
 43
0.1000000000000227
  0
INSERT
  5
412
  8
11
  2
STDGX5
 10
870.37757989488227
 20
109.73042861067719
 30
0.0
 41
0.1000000000000227
 42
0.1000000000000227
 43
0.1000000000000227
  0
INSERT
  5
413
  8
11
  2
STDGX5
 10
863.73249418872342
 20
106.49529351363439
 30
0.0
 41
0.1000000000000227
 42
0.1000000000000227
 43
0.1000000000000227
  0
INSERT
  5
414
  8
11
  2
STDGX5
 10
700.96150546972297
 20
92.542661039300924
 30
0.0
 41
0.1000000000000227
 42
0.1000000000000227
 43
0.1000000000000227
  0
INSERT
  5
415
  8
11
  2
STDGX5
 10
704.71001533134472
 20
88.942661011640624
 30
0.0
 41
0.1000000000000227
 42
0.1000000000000227
 43
0.1000000000000227
  0
INSERT
  5
416
  8
11
  2
STDGX5
 10
698.06492962518587
 20
85.707525914597881
 30
0.0
 41
0.1000000000000227
 42
0.1000000000000227
 43
0.1000000000000227
  0
INSERT
  5
417
  8
11
  2
STDGX5
 10
788.12514537224013
 20
110.31469444168231
 30
0.0
 41
0.1000000000000227
 42
0.1000000000000227
 43
0.1000000000000227
  0
INSERT
  5
418
  8
11
  2
STDGX5
 10
791.87365523386165
 20
106.71469441402201
 30
0.0
 41
0.1000000000000227
 42
0.1000000000000227
 43
0.1000000000000227
  0
INSERT
  5
419
  8
11
  2
STDGX5
 10
785.22856952770292
 20
103.47955931697931
 30
0.0
 41
0.1000000000000227
 42
0.1000000000000227
 43
0.1000000000000227
  0
INSERT
  5
41A
  8
11
  2
STDGX5
 10
866.62907003326063
 20
113.33042863833749
 30
0.0
 41
0.1000000000000227
 42
0.1000000000000227
 43
0.1000000000000227
  0
INSERT
  5
41B
  8
11
  2
STDGX5
 10
870.37757989488227
 20
109.73042861067719
 30
0.0
 41
0.1000000000000227
 42
0.1000000000000227
 43
0.1000000000000227
  0
INSERT
  5
41C
  8
11
  2
STDGX5
 10
863.73249418872342
 20
106.49529351363439
 30
0.0
 41
0.1000000000000227
 42
0.1000000000000227
 43
0.1000000000000227
  0
INSERT
  5
41D
  8
11
  2
STDGX5
 10
700.96150546972297
 20
92.542661039300924
 30
0.0
 41
0.1000000000000227
 42
0.1000000000000227
 43
0.1000000000000227
  0
INSERT
  5
41E
  8
11
  2
STDGX5
 10
704.71001533134472
 20
88.942661011640624
 30
0.0
 41
0.1000000000000227
 42
0.1000000000000227
 43
0.1000000000000227
  0
INSERT
  5
41F
  8
11
  2
STDGX5
 10
698.06492962518587
 20
85.707525914597881
 30
0.0
 41
0.1000000000000227
 42
0.1000000000000227
 43
0.1000000000000227
  0
INSERT
  5
420
  8
11
  2
STDGX5
 10
788.12514537224013
 20
110.31469444168231
 30
0.0
 41
0.1000000000000227
 42
0.1000000000000227
 43
0.1000000000000227
  0
INSERT
  5
421
  8
11
  2
STDGX5
 10
791.87365523386165
 20
106.71469441402201
 30
0.0
 41
0.1000000000000227
 42
0.1000000000000227
 43
0.1000000000000227
  0
INSERT
  5
422
  8
11
  2
STDGX5
 10
785.22856952770292
 20
103.47955931697931
 30
0.0
 41
0.1000000000000227
 42
0.1000000000000227
 43
0.1000000000000227
  0
INSERT
  5
423
  8
11
  2
STDGX5
 10
866.62907003326063
 20
113.33042863833749
 30
0.0
 41
0.1000000000000227
 42
0.1000000000000227
 43
0.1000000000000227
  0
INSERT
  5
424
  8
11
  2
STDGX5
 10
870.37757989488227
 20
109.73042861067719
 30
0.0
 41
0.1000000000000227
 42
0.1000000000000227
 43
0.1000000000000227
  0
INSERT
  5
425
  8
11
  2
STDGX5
 10
863.73249418872342
 20
106.49529351363439
 30
0.0
 41
0.1000000000000227
 42
0.1000000000000227
 43
0.1000000000000227
  0
INSERT
  5
426
  8
11
  2
STDGX5
 10
700.96150546972297
 20
92.542661039300924
 30
0.0
 41
0.1000000000000227
 42
0.1000000000000227
 43
0.1000000000000227
  0
INSERT
  5
427
  8
11
  2
STDGX5
 10
704.71001533134472
 20
88.942661011640624
 30
0.0
 41
0.1000000000000227
 42
0.1000000000000227
 43
0.1000000000000227
  0
INSERT
  5
428
  8
11
  2
STDGX5
 10
698.06492962518587
 20
85.707525914597881
 30
0.0
 41
0.1000000000000227
 42
0.1000000000000227
 43
0.1000000000000227
  0
INSERT
  5
429
  8
11
  2
STDGX5
 10
788.12514537224013
 20
110.31469444168231
 30
0.0
 41
0.1000000000000227
 42
0.1000000000000227
 43
0.1000000000000227
  0
INSERT
  5
42A
  8
11
  2
STDGX5
 10
791.87365523386165
 20
106.71469441402201
 30
0.0
 41
0.1000000000000227
 42
0.1000000000000227
 43
0.1000000000000227
  0
INSERT
  5
42B
  8
11
  2
STDGX5
 10
785.22856952770292
 20
103.47955931697931
 30
0.0
 41
0.1000000000000227
 42
0.1000000000000227
 43
0.1000000000000227
  0
INSERT
  5
42C
  8
11
  2
STDGX5
 10
866.62907003326063
 20
113.33042863833749
 30
0.0
 41
0.1000000000000227
 42
0.1000000000000227
 43
0.1000000000000227
  0
INSERT
  5
42D
  8
11
  2
STDGX5
 10
870.37757989488227
 20
109.73042861067719
 30
0.0
 41
0.1000000000000227
 42
0.1000000000000227
 43
0.1000000000000227
  0
INSERT
  5
42E
  8
11
  2
STDGX5
 10
863.73249418872342
 20
106.49529351363439
 30
0.0
 41
0.1000000000000227
 42
0.1000000000000227
 43
0.1000000000000227
  0
INSERT
  5
42F
  8
11
  2
STDGX5
 10
728.46150546972308
 20
95.04266535954261
 30
0.0
 41
0.1000000000000227
 42
0.1000000000000227
 43
0.1000000000000227
  0
INSERT
  5
430
  8
11
  2
STDGX5
 10
732.21001533134472
 20
91.442665331882324
 30
0.0
 41
0.1000000000000227
 42
0.1000000000000227
 43
0.1000000000000227
  0
INSERT
  5
431
  8
11
  2
STDGX5
 10
725.56492962518575
 20
88.207530234839567
 30
0.0
 41
0.1000000000000227
 42
0.1000000000000227
 43
0.1000000000000227
  0
INSERT
  5
432
  8
11
  2
STDGX5
 10
815.62514537224013
 20
112.81469876192401
 30
0.0
 41
0.1000000000000227
 42
0.1000000000000227
 43
0.1000000000000227
  0
INSERT
  5
433
  8
11
  2
STDGX5
 10
819.37365523386165
 20
109.21469873426371
 30
0.0
 41
0.1000000000000227
 42
0.1000000000000227
 43
0.1000000000000227
  0
INSERT
  5
434
  8
11
  2
STDGX5
 10
812.72856952770292
 20
105.97956363722101
 30
0.0
 41
0.1000000000000227
 42
0.1000000000000227
 43
0.1000000000000227
  0
INSERT
  5
435
  8
11
  2
STDGX5
 10
894.12907003326063
 20
115.8304329585791
 30
0.0
 41
0.1000000000000227
 42
0.1000000000000227
 43
0.1000000000000227
  0
INSERT
  5
436
  8
11
  2
STDGX5
 10
897.87757989488216
 20
112.23043293091879
 30
0.0
 41
0.1000000000000227
 42
0.1000000000000227
 43
0.1000000000000227
  0
INSERT
  5
437
  8
11
  2
STDGX5
 10
891.23249418872342
 20
108.99529783387609
 30
0.0
 41
0.1000000000000227
 42
0.1000000000000227
 43
0.1000000000000227
  0
INSERT
  5
438
  8
11
  2
STDGX5
 10
700.96150546972297
 20
92.542661039300924
 30
0.0
 41
0.1000000000000227
 42
0.1000000000000227
 43
0.1000000000000227
  0
INSERT
  5
439
  8
11
  2
STDGX5
 10
704.71001533134472
 20
88.942661011640624
 30
0.0
 41
0.1000000000000227
 42
0.1000000000000227
 43
0.1000000000000227
  0
INSERT
  5
43A
  8
11
  2
STDGX5
 10
698.06492962518587
 20
85.707525914597881
 30
0.0
 41
0.1000000000000227
 42
0.1000000000000227
 43
0.1000000000000227
  0
INSERT
  5
43B
  8
11
  2
STDGX5
 10
788.12514537224013
 20
110.31469444168231
 30
0.0
 41
0.1000000000000227
 42
0.1000000000000227
 43
0.1000000000000227
  0
INSERT
  5
43C
  8
11
  2
STDGX5
 10
791.87365523386165
 20
106.71469441402201
 30
0.0
 41
0.1000000000000227
 42
0.1000000000000227
 43
0.1000000000000227
  0
INSERT
  5
43D
  8
11
  2
STDGX5
 10
785.22856952770292
 20
103.47955931697931
 30
0.0
 41
0.1000000000000227
 42
0.1000000000000227
 43
0.1000000000000227
  0
INSERT
  5
43E
  8
11
  2
STDGX5
 10
866.62907003326063
 20
113.33042863833749
 30
0.0
 41
0.1000000000000227
 42
0.1000000000000227
 43
0.1000000000000227
  0
INSERT
  5
43F
  8
11
  2
STDGX5
 10
870.37757989488227
 20
109.73042861067719
 30
0.0
 41
0.1000000000000227
 42
0.1000000000000227
 43
0.1000000000000227
  0
INSERT
  5
440
  8
11
  2
STDGX5
 10
863.73249418872342
 20
106.49529351363439
 30
0.0
 41
0.1000000000000227
 42
0.1000000000000227
 43
0.1000000000000227
  0
INSERT
  5
441
  8
11
  2
STDGX5
 10
728.46150546972308
 20
95.04266535954261
 30
0.0
 41
0.1000000000000227
 42
0.1000000000000227
 43
0.1000000000000227
  0
INSERT
  5
442
  8
11
  2
STDGX5
 10
732.21001533134472
 20
91.442665331882324
 30
0.0
 41
0.1000000000000227
 42
0.1000000000000227
 43
0.1000000000000227
  0
INSERT
  5
443
  8
11
  2
STDGX5
 10
725.56492962518575
 20
88.207530234839567
 30
0.0
 41
0.1000000000000227
 42
0.1000000000000227
 43
0.1000000000000227
  0
INSERT
  5
444
  8
11
  2
STDGX5
 10
815.62514537224013
 20
112.81469876192401
 30
0.0
 41
0.1000000000000227
 42
0.1000000000000227
 43
0.1000000000000227
  0
INSERT
  5
445
  8
11
  2
STDGX5
 10
819.37365523386165
 20
109.21469873426371
 30
0.0
 41
0.1000000000000227
 42
0.1000000000000227
 43
0.1000000000000227
  0
INSERT
  5
446
  8
11
  2
STDGX5
 10
812.72856952770292
 20
105.97956363722101
 30
0.0
 41
0.1000000000000227
 42
0.1000000000000227
 43
0.1000000000000227
  0
INSERT
  5
447
  8
11
  2
STDGX5
 10
894.12907003326063
 20
115.8304329585791
 30
0.0
 41
0.1000000000000227
 42
0.1000000000000227
 43
0.1000000000000227
  0
INSERT
  5
448
  8
11
  2
STDGX5
 10
897.87757989488216
 20
112.23043293091879
 30
0.0
 41
0.1000000000000227
 42
0.1000000000000227
 43
0.1000000000000227
  0
INSERT
  5
449
  8
11
  2
STDGX5
 10
891.23249418872342
 20
108.99529783387609
 30
0.0
 41
0.1000000000000227
 42
0.1000000000000227
 43
0.1000000000000227
  0
INSERT
  5
44A
  8
11
  2
STDGX5
 10
728.46150546972308
 20
95.04266535954261
 30
0.0
 41
0.1000000000000227
 42
0.1000000000000227
 43
0.1000000000000227
  0
INSERT
  5
44B
  8
11
  2
STDGX5
 10
732.21001533134472
 20
91.442665331882324
 30
0.0
 41
0.1000000000000227
 42
0.1000000000000227
 43
0.1000000000000227
  0
INSERT
  5
44C
  8
11
  2
STDGX5
 10
725.56492962518575
 20
88.207530234839567
 30
0.0
 41
0.1000000000000227
 42
0.1000000000000227
 43
0.1000000000000227
  0
INSERT
  5
44D
  8
11
  2
STDGX5
 10
815.62514537224013
 20
112.81469876192401
 30
0.0
 41
0.1000000000000227
 42
0.1000000000000227
 43
0.1000000000000227
  0
INSERT
  5
44E
  8
11
  2
STDGX5
 10
819.37365523386165
 20
109.21469873426371
 30
0.0
 41
0.1000000000000227
 42
0.1000000000000227
 43
0.1000000000000227
  0
INSERT
  5
44F
  8
11
  2
STDGX5
 10
812.72856952770292
 20
105.97956363722101
 30
0.0
 41
0.1000000000000227
 42
0.1000000000000227
 43
0.1000000000000227
  0
INSERT
  5
450
  8
11
  2
STDGX5
 10
894.12907003326063
 20
115.8304329585791
 30
0.0
 41
0.1000000000000227
 42
0.1000000000000227
 43
0.1000000000000227
  0
INSERT
  5
451
  8
11
  2
STDGX5
 10
897.87757989488216
 20
112.23043293091879
 30
0.0
 41
0.1000000000000227
 42
0.1000000000000227
 43
0.1000000000000227
  0
INSERT
  5
452
  8
11
  2
STDGX5
 10
891.23249418872342
 20
108.99529783387609
 30
0.0
 41
0.1000000000000227
 42
0.1000000000000227
 43
0.1000000000000227
  0
INSERT
  5
453
  8
11
  2
STDGX5
 10
728.46150546972308
 20
95.04266535954261
 30
0.0
 41
0.1000000000000227
 42
0.1000000000000227
 43
0.1000000000000227
  0
INSERT
  5
454
  8
11
  2
STDGX5
 10
732.21001533134472
 20
91.442665331882324
 30
0.0
 41
0.1000000000000227
 42
0.1000000000000227
 43
0.1000000000000227
  0
INSERT
  5
455
  8
11
  2
STDGX5
 10
725.56492962518575
 20
88.207530234839567
 30
0.0
 41
0.1000000000000227
 42
0.1000000000000227
 43
0.1000000000000227
  0
INSERT
  5
456
  8
11
  2
STDGX5
 10
815.62514537224013
 20
112.81469876192401
 30
0.0
 41
0.1000000000000227
 42
0.1000000000000227
 43
0.1000000000000227
  0
INSERT
  5
457
  8
11
  2
STDGX5
 10
819.37365523386165
 20
109.21469873426371
 30
0.0
 41
0.1000000000000227
 42
0.1000000000000227
 43
0.1000000000000227
  0
INSERT
  5
458
  8
11
  2
STDGX5
 10
812.72856952770292
 20
105.97956363722101
 30
0.0
 41
0.1000000000000227
 42
0.1000000000000227
 43
0.1000000000000227
  0
INSERT
  5
459
  8
11
  2
STDGX5
 10
894.12907003326063
 20
115.8304329585791
 30
0.0
 41
0.1000000000000227
 42
0.1000000000000227
 43
0.1000000000000227
  0
INSERT
  5
45A
  8
11
  2
STDGX5
 10
897.87757989488216
 20
112.23043293091879
 30
0.0
 41
0.1000000000000227
 42
0.1000000000000227
 43
0.1000000000000227
  0
INSERT
  5
45B
  8
11
  2
STDGX5
 10
891.23249418872342
 20
108.99529783387609
 30
0.0
 41
0.1000000000000227
 42
0.1000000000000227
 43
0.1000000000000227
  0
INSERT
  5
45C
  8
11
  2
STDGX5
 10
755.96150546972297
 20
97.542669679784311
 30
0.0
 41
0.1000000000000227
 42
0.1000000000000227
 43
0.1000000000000227
  0
INSERT
  5
45D
  8
11
  2
STDGX5
 10
759.71001533134472
 20
93.942669652123996
 30
0.0
 41
0.1000000000000227
 42
0.1000000000000227
 43
0.1000000000000227
  0
INSERT
  5
45E
  8
11
  2
STDGX5
 10
753.06492962518575
 20
90.707534555081267
 30
0.0
 41
0.1000000000000227
 42
0.1000000000000227
 43
0.1000000000000227
  0
INSERT
  5
45F
  8
11
  2
STDGX5
 10
843.12514537224013
 20
115.31470308216571
 30
0.0
 41
0.1000000000000227
 42
0.1000000000000227
 43
0.1000000000000227
  0
INSERT
  5
460
  8
11
  2
STDGX5
 10
846.87365523386165
 20
111.71470305450541
 30
0.0
 41
0.1000000000000227
 42
0.1000000000000227
 43
0.1000000000000227
  0
INSERT
  5
461
  8
11
  2
STDGX5
 10
840.22856952770292
 20
108.47956795746271
 30
0.0
 41
0.1000000000000227
 42
0.1000000000000227
 43
0.1000000000000227
  0
INSERT
  5
462
  8
11
  2
STDGX5
 10
921.62907003326063
 20
118.3304372788208
 30
0.0
 41
0.1000000000000227
 42
0.1000000000000227
 43
0.1000000000000227
  0
INSERT
  5
463
  8
11
  2
STDGX5
 10
925.37757989488216
 20
114.7304372511605
 30
0.0
 41
0.1000000000000227
 42
0.1000000000000227
 43
0.1000000000000227
  0
INSERT
  5
464
  8
11
  2
STDGX5
 10
918.73249418872354
 20
111.49530215411779
 30
0.0
 41
0.1000000000000227
 42
0.1000000000000227
 43
0.1000000000000227
  0
INSERT
  5
465
  8
11
  2
STDGX5
 10
728.46150546972308
 20
110.0426610393009
 30
0.0
 41
0.1000000000000227
 42
0.1000000000000227
 43
0.1000000000000227
  0
INSERT
  5
466
  8
11
  2
STDGX5
 10
732.21001533134472
 20
106.4426610116406
 30
0.0
 41
0.1000000000000227
 42
0.1000000000000227
 43
0.1000000000000227
  0
INSERT
  5
467
  8
11
  2
STDGX5
 10
725.56492962518575
 20
103.2075259145978
 30
0.0
 41
0.1000000000000227
 42
0.1000000000000227
 43
0.1000000000000227
  0
INSERT
  5
468
  8
11
  2
STDGX5
 10
815.62514537224013
 20
127.81469444168231
 30
0.0
 41
0.1000000000000227
 42
0.1000000000000227
 43
0.1000000000000227
  0
INSERT
  5
469
  8
11
  2
STDGX5
 10
819.37365523386165
 20
124.21469441402201
 30
0.0
 41
0.1000000000000227
 42
0.1000000000000227
 43
0.1000000000000227
  0
INSERT
  5
46A
  8
11
  2
STDGX5
 10
812.72856952770292
 20
120.97955931697931
 30
0.0
 41
0.1000000000000227
 42
0.1000000000000227
 43
0.1000000000000227
  0
INSERT
  5
46B
  8
11
  2
STDGX5
 10
894.12907003326063
 20
130.83042863833751
 30
0.0
 41
0.1000000000000227
 42
0.1000000000000227
 43
0.1000000000000227
  0
INSERT
  5
46C
  8
11
  2
STDGX5
 10
897.87757989488216
 20
127.23042861067719
 30
0.0
 41
0.1000000000000227
 42
0.1000000000000227
 43
0.1000000000000227
  0
INSERT
  5
46D
  8
11
  2
STDGX5
 10
891.23249418872342
 20
123.99529351363439
 30
0.0
 41
0.1000000000000227
 42
0.1000000000000227
 43
0.1000000000000227
  0
INSERT
  5
46E
  8
11
  2
STDGX5
 10
755.96150546972297
 20
112.5426653595426
 30
0.0
 41
0.1000000000000227
 42
0.1000000000000227
 43
0.1000000000000227
  0
INSERT
  5
46F
  8
11
  2
STDGX5
 10
759.71001533134472
 20
108.9426653318823
 30
0.0
 41
0.1000000000000227
 42
0.1000000000000227
 43
0.1000000000000227
  0
INSERT
  5
470
  8
11
  2
STDGX5
 10
753.06492962518575
 20
105.7075302348396
 30
0.0
 41
0.1000000000000227
 42
0.1000000000000227
 43
0.1000000000000227
  0
INSERT
  5
471
  8
11
  2
STDGX5
 10
843.12514537224013
 20
130.31469876192401
 30
0.0
 41
0.1000000000000227
 42
0.1000000000000227
 43
0.1000000000000227
  0
INSERT
  5
472
  8
11
  2
STDGX5
 10
846.87365523386165
 20
126.71469873426371
 30
0.0
 41
0.1000000000000227
 42
0.1000000000000227
 43
0.1000000000000227
  0
INSERT
  5
473
  8
11
  2
STDGX5
 10
840.22856952770292
 20
123.47956363722101
 30
0.0
 41
0.1000000000000227
 42
0.1000000000000227
 43
0.1000000000000227
  0
INSERT
  5
474
  8
11
  2
STDGX5
 10
921.62907003326063
 20
133.33043295857911
 30
0.0
 41
0.1000000000000227
 42
0.1000000000000227
 43
0.1000000000000227
  0
INSERT
  5
475
  8
11
  2
STDGX5
 10
925.37757989488216
 20
129.73043293091891
 30
0.0
 41
0.1000000000000227
 42
0.1000000000000227
 43
0.1000000000000227
  0
INSERT
  5
476
  8
11
  2
STDGX5
 10
918.73249418872354
 20
126.49529783387609
 30
0.0
 41
0.1000000000000227
 42
0.1000000000000227
 43
0.1000000000000227
  0
INSERT
  5
477
  8
11
  2
STDGX5
 10
728.46150546972308
 20
95.04266535954261
 30
0.0
 41
0.1000000000000227
 42
0.1000000000000227
 43
0.1000000000000227
  0
INSERT
  5
478
  8
11
  2
STDGX5
 10
732.21001533134472
 20
91.442665331882324
 30
0.0
 41
0.1000000000000227
 42
0.1000000000000227
 43
0.1000000000000227
  0
INSERT
  5
479
  8
11
  2
STDGX5
 10
725.56492962518575
 20
88.207530234839567
 30
0.0
 41
0.1000000000000227
 42
0.1000000000000227
 43
0.1000000000000227
  0
INSERT
  5
47A
  8
11
  2
STDGX5
 10
815.62514537224013
 20
112.81469876192401
 30
0.0
 41
0.1000000000000227
 42
0.1000000000000227
 43
0.1000000000000227
  0
INSERT
  5
47B
  8
11
  2
STDGX5
 10
819.37365523386165
 20
109.21469873426371
 30
0.0
 41
0.1000000000000227
 42
0.1000000000000227
 43
0.1000000000000227
  0
INSERT
  5
47C
  8
11
  2
STDGX5
 10
812.72856952770292
 20
105.97956363722101
 30
0.0
 41
0.1000000000000227
 42
0.1000000000000227
 43
0.1000000000000227
  0
INSERT
  5
47D
  8
11
  2
STDGX5
 10
894.12907003326063
 20
115.8304329585791
 30
0.0
 41
0.1000000000000227
 42
0.1000000000000227
 43
0.1000000000000227
  0
INSERT
  5
47E
  8
11
  2
STDGX5
 10
897.87757989488216
 20
112.23043293091879
 30
0.0
 41
0.1000000000000227
 42
0.1000000000000227
 43
0.1000000000000227
  0
INSERT
  5
47F
  8
11
  2
STDGX5
 10
891.23249418872342
 20
108.99529783387609
 30
0.0
 41
0.1000000000000227
 42
0.1000000000000227
 43
0.1000000000000227
  0
INSERT
  5
480
  8
11
  2
STDGX5
 10
755.96150546972297
 20
97.542669679784311
 30
0.0
 41
0.1000000000000227
 42
0.1000000000000227
 43
0.1000000000000227
  0
INSERT
  5
481
  8
11
  2
STDGX5
 10
759.71001533134472
 20
93.942669652123996
 30
0.0
 41
0.1000000000000227
 42
0.1000000000000227
 43
0.1000000000000227
  0
INSERT
  5
482
  8
11
  2
STDGX5
 10
753.06492962518575
 20
90.707534555081267
 30
0.0
 41
0.1000000000000227
 42
0.1000000000000227
 43
0.1000000000000227
  0
INSERT
  5
483
  8
11
  2
STDGX5
 10
843.12514537224013
 20
115.31470308216571
 30
0.0
 41
0.1000000000000227
 42
0.1000000000000227
 43
0.1000000000000227
  0
INSERT
  5
484
  8
11
  2
STDGX5
 10
846.87365523386165
 20
111.71470305450541
 30
0.0
 41
0.1000000000000227
 42
0.1000000000000227
 43
0.1000000000000227
  0
INSERT
  5
485
  8
11
  2
STDGX5
 10
840.22856952770292
 20
108.47956795746271
 30
0.0
 41
0.1000000000000227
 42
0.1000000000000227
 43
0.1000000000000227
  0
INSERT
  5
486
  8
11
  2
STDGX5
 10
921.62907003326063
 20
118.3304372788208
 30
0.0
 41
0.1000000000000227
 42
0.1000000000000227
 43
0.1000000000000227
  0
INSERT
  5
487
  8
11
  2
STDGX5
 10
925.37757989488216
 20
114.7304372511605
 30
0.0
 41
0.1000000000000227
 42
0.1000000000000227
 43
0.1000000000000227
  0
INSERT
  5
488
  8
11
  2
STDGX5
 10
918.73249418872354
 20
111.49530215411779
 30
0.0
 41
0.1000000000000227
 42
0.1000000000000227
 43
0.1000000000000227
  0
INSERT
  5
4E2
  8
11
  2
STDGX5
 10
405.94173136963639
 20
13.563042365328551
 30
0.0
 41
0.5
 42
0.5
 43
0.5
  0
LINE
  5
576
  8
0
 10
113.55164735734979
 20
125.3129496402877
 30
0.0
 11
113.55164735734979
 21
108.3129496402877
 31
0.0
  0
LINE
  5
577
  8
0
 10
263.55164735734979
 20
125.3129496402877
 30
0.0
 11
263.55164735734991
 21
108.3129496402877
 31
0.0
  0
LINE
  5
5C2
  8
0
 10
263.55164735734979
 20
206.11664410781671
 30
0.0
 11
263.55164735734968
 21
176.1166441078166
 31
0.0
  0
LINE
  5
5C5
  8
0
 10
113.55164735734969
 20
206.11664410781671
 30
0.0
 11
113.55164735734969
 21
176.1166441078166
 31
0.0
  0
LINE
  5
6A5
  8
0
 10
113.55164735734979
 20
108.3129496402877
 30
0.0
 11
263.55164735734991
 21
108.3129496402877
 31
0.0
  0
LINE
  5
802
  8
1
 10
61.780272335997999
 20
105.8129496402878
 30
0.0
 11
61.78027233599893
 21
127.81294964028829
 31
0.0
  0
LINE
  5
811
  8
0
 10
65.580272335998075
 20
116.0129496402879
 30
0.0
 11
73.780272335998234
 21
116.0129496402881
 31
0.0
  0
LINE
  5
812
  8
0
 10
46.78027233599812
 20
108.3129496402879
 30
0.0
 11
76.78027233599812
 21
108.3129496402877
 31
0.0
  0
LINE
  5
813
  8
0
 10
76.78027233599812
 20
125.3129496402877
 30
0.0
 11
76.78027233599812
 21
108.3129496402877
 31
0.0
  0
LINE
  5
814
  8
0
 10
46.780272335997999
 20
125.3129496402879
 30
0.0
 11
46.780272335997893
 21
108.3129496402877
 31
0.0
  0
LINE
  5
815
  8
0
 10
49.780272335997999
 20
116.0129496402878
 30
0.0
 11
57.980272335998173
 21
116.0129496402878
 31
0.0
  0
LINE
  5
816
  8
0
 10
65.580272335998075
 20
118.3129496402882
 30
0.0
 11
65.580272335998075
 21
116.0129496402879
 31
0.0
  0
LINE
  5
817
  8
0
 10
57.980272335998279
 20
118.3129496402882
 30
0.0
 11
57.980272335998173
 21
116.0129496402879
 31
0.0
  0
LINE
  5
818
  8
0
 10
57.980272335998173
 20
118.3129496402881
 30
0.0
 11
65.580272335997961
 21
118.3129496402881
 31
0.0
  0
LINE
  5
819
  8
0
 10
46.780272335998227
 20
125.3129496402879
 30
0.0
 11
49.780272335997999
 21
125.312949640288
 31
0.0
  0
LINE
  5
81A
  8
0
 10
73.78027233599812
 20
125.3129496402877
 30
0.0
 11
73.780272335998234
 21
116.0129496402881
 31
0.0
  0
LINE
  5
81B
  8
0
 10
49.780272335997999
 20
125.3129496402879
 30
0.0
 11
49.780272335997999
 21
116.0129496402878
 31
0.0
  0
LINE
  5
81C
  8
0
 10
73.780272335998234
 20
125.3129496402879
 30
0.0
 11
76.780272335998234
 21
125.3129496402877
 31
0.0
  0
LINE
  5
81E
  8
0
 10
113.55164735734979
 20
125.3129496402877
 30
0.0
 11
263.55164735734991
 21
125.3129496402877
 31
0.0
  0
LINE
  5
821
  8
0
 10
311.52302237870163
 20
116.0129496402879
 30
0.0
 11
303.32302237870152
 21
116.0129496402881
 31
0.0
  0
LINE
  5
822
  8
0
 10
330.32302237870158
 20
108.3129496402879
 30
0.0
 11
300.32302237870158
 21
108.3129496402877
 31
0.0
  0
LINE
  5
823
  8
1
 10
315.32302237870169
 20
105.8129496402878
 30
0.0
 11
315.32302237870078
 21
127.81294964028829
 31
0.0
  0
LINE
  5
824
  8
0
 10
311.52302237870163
 20
118.3129496402882
 30
0.0
 11
311.52302237870163
 21
116.0129496402879
 31
0.0
  0
LINE
  5
825
  8
0
 10
319.12302237870142
 20
118.3129496402882
 30
0.0
 11
319.12302237870159
 21
116.0129496402879
 31
0.0
  0
LINE
  5
826
  8
0
 10
327.32302237870169
 20
125.3129496402879
 30
0.0
 11
327.32302237870169
 21
116.0129496402878
 31
0.0
  0
LINE
  5
827
  8
0
 10
330.32302237870169
 20
125.3129496402879
 30
0.0
 11
330.32302237870181
 21
108.3129496402877
 31
0.0
  0
LINE
  5
828
  8
0
 10
327.32302237870169
 20
116.0129496402878
 30
0.0
 11
319.12302237870159
 21
116.0129496402878
 31
0.0
  0
LINE
  5
829
  8
0
 10
330.32302237870152
 20
125.3129496402879
 30
0.0
 11
327.32302237870169
 21
125.312949640288
 31
0.0
  0
LINE
  5
82A
  8
0
 10
319.12302237870159
 20
118.3129496402881
 30
0.0
 11
311.52302237870168
 21
118.3129496402881
 31
0.0
  0
LINE
  5
82B
  8
0
 10
303.32302237870158
 20
125.3129496402877
 30
0.0
 11
303.32302237870152
 21
116.0129496402881
 31
0.0
  0
LINE
  5
82C
  8
0
 10
300.32302237870158
 20
125.3129496402877
 30
0.0
 11
300.32302237870158
 21
108.3129496402877
 31
0.0
  0
LINE
  5
82D
  8
0
 10
303.32302237870152
 20
125.3129496402879
 30
0.0
 11
300.32302237870141
 21
125.3129496402877
 31
0.0
  0
LINE
  5
83B
  8
0
 10
113.55164735734979
 20
206.11664410781671
 30
0.0
 11
263.55164735734979
 21
206.11664410781671
 31
0.0
  0
LINE
  5
83C
  8
0
 10
113.55164735734969
 20
176.1166441078166
 30
0.0
 11
263.55164735734979
 21
176.1166441078166
 31
0.0
  0
LINE
  5
83D
  8
0
 10
113.55164735734979
 20
203.1166441078168
 30
0.0
 11
263.55164735734979
 21
203.1166441078164
 31
0.0
  0
LINE
  5
83E
  8
0
 10
113.55164735734979
 20
194.91664410781641
 30
0.0
 11
263.55164735734979
 21
194.91664410781621
 31
0.0
  0
LINE
  5
83F
  8
0
 10
113.55164735734979
 20
179.1166441078166
 30
0.0
 11
263.55164735734968
 21
179.11664410781631
 31
0.0
  0
LINE
  5
840
  8
0
 10
113.55164735734979
 20
187.3166441078167
 30
0.0
 11
263.55164735734979
 21
187.31664410781639
 31
0.0
  0
TEXT
  5
92F
  8
0
 62
     3
 10
0.0
 20
0.0
 30
0.0
 40
10.0
  1
AG40S
  7
STANDARD1
  0
ENDSEC
  0
EOF
