  0
SECTION
  2
HEADER
  9
$ACADVER
  1
AC1009
  9
$INSBASE
 10
0.0
 20
0.0
 30
0.0
  9
$EXTMIN
 10
-0.0204638472032742
 20
-2.960436562073669
 30
0.0
  9
$EXTMAX
 10
265.36577243683581
 20
194.66669718610291
 30
0.0
  9
$LIMMIN
 10
0.0
 20
0.0
  9
$LIMMAX
 10
375.0
 20
270.0
  9
$ORTHOMODE
 70
     1
  9
$REGENMODE
 70
     1
  9
$FILLMODE
 70
     1
  9
$QTEXTMODE
 70
     0
  9
$MIRRTEXT
 70
     0
  9
$DRAGMODE
 70
     2
  9
$LTSCALE
 40
10.0
  9
$OSMODE
 70
  3071
  9
$ATTMODE
 70
     1
  9
$TEXTSIZE
 40
4.000000000000048
  9
$TRACEWID
 40
0.05
  9
$TEXTSTYLE
  7
STANDARD
  9
$CLAYER
  8
0
  9
$CELTYPE
  6
BYLAYER
  9
$CECOLOR
 62
   256
  9
$DIMSCALE
 40
1.0
  9
$DIMASZ
 40
3.0
  9
$DIMEXO
 40
2.0
  9
$DIMDLI
 40
0.38
  9
$DIMRND
 40
0.0
  9
$DIMDLE
 40
0.0
  9
$DIMEXE
 40
2.0
  9
$DIMTP
 40
0.0
  9
$DIMTM
 40
0.0
  9
$DIMTXT
 40
3.2000000000000002
  9
$DIMCEN
 40
0.0
  9
$DIMTSZ
 40
0.0
  9
$DIMTOL
 70
     0
  9
$DIMLIM
 70
     0
  9
$DIMTIH
 70
     0
  9
$DIMTOH
 70
     0
  9
$DIMSE1
 70
     0
  9
$DIMSE2
 70
     0
  9
$DIMTAD
 70
     1
  9
$DIMZIN
 70
     0
  9
$DIMBLK
  1

  9
$DIMASO
 70
     1
  9
$DIMSHO
 70
     0
  9
$DIMPOST
  1

  9
$DIMAPOST
  1

  9
$DIMALT
 70
     0
  9
$DIMALTD
 70
     2
  9
$DIMALTF
 40
25.399999999999999
  9
$DIMLFAC
 40
1.0
  9
$DIMTOFL
 70
     0
  9
$DIMTVP
 40
1.6000000000000001
  9
$DIMTIX
 70
     1
  9
$DIMSOXD
 70
     0
  9
$DIMSAH
 70
     0
  9
$DIMBLK1
  1

  9
$DIMBLK2
  1

  9
$DIMSTYLE
  2
STANDARD
  9
$DIMCLRD
 70
     4
  9
$DIMCLRE
 70
     4
  9
$DIMCLRT
 70
     4
  9
$DIMTFAC
 40
1.0
  9
$DIMGAP
 40
0.09
  9
$LUNITS
 70
     2
  9
$LUPREC
 70
     1
  9
$SKETCHINC
 40
0.1
  9
$FILLETRAD
 40
0.0
  9
$AUNITS
 70
     0
  9
$AUPREC
 70
     0
  9
$MENU
  1
E:\r13\win\SUPPORT\ACAD
  9
$ELEVATION
 40
0.0
  9
$PELEVATION
 40
0.0
  9
$THICKNESS
 40
0.0
  9
$LIMCHECK
 70
     0
  9
$BLIPMODE
 70
     0
  9
$CHAMFERA
 40
1.1999999999999991
  9
$CHAMFERB
 40
1.1999999999999991
  9
$SKPOLY
 70
     0
  9
$TDCREATE
 40
2449954.5975000001
  9
$TDUPDATE
 40
2456597.4992508329
  9
$TDINDWG
 40
0.0017586111
  9
$TDUSRTIMER
 40
0.0017586111
  9
$USRTIMER
 70
     1
  9
$ANGBASE
 50
0.0
  9
$ANGDIR
 70
     0
  9
$PDMODE
 70
     0
  9
$PDSIZE
 40
0.0
  9
$PLINEWID
 40
0.0
  9
$COORDS
 70
     1
  9
$SPLFRAME
 70
     0
  9
$SPLINETYPE
 70
     6
  9
$SPLINESEGS
 70
     8
  9
$ATTDIA
 70
     0
  9
$ATTREQ
 70
     1
  9
$HANDLING
 70
     1
  9
$HANDSEED
  5
2E3
  9
$SURFTAB1
 70
     6
  9
$SURFTAB2
 70
     6
  9
$SURFTYPE
 70
     6
  9
$SURFU
 70
     6
  9
$SURFV
 70
     6
  9
$UCSNAME
  2

  9
$UCSORG
 10
0.0
 20
0.0
 30
0.0
  9
$UCSXDIR
 10
1.0
 20
0.0
 30
0.0
  9
$UCSYDIR
 10
0.0
 20
1.0
 30
0.0
  9
$PUCSNAME
  2

  9
$PUCSORG
 10
0.0
 20
0.0
 30
0.0
  9
$PUCSXDIR
 10
1.0
 20
0.0
 30
0.0
  9
$PUCSYDIR
 10
0.0
 20
1.0
 30
0.0
  9
$USERI1
 70
     0
  9
$USERI2
 70
     1
  9
$USERI3
 70
     1
  9
$USERI4
 70
     0
  9
$USERI5
 70
     0
  9
$USERR1
 40
0.0
  9
$USERR2
 40
0.0
  9
$USERR3
 40
0.0
  9
$USERR4
 40
0.0
  9
$USERR5
 40
0.0
  9
$WORLDVIEW
 70
     1
  9
$SHADEDGE
 70
     3
  9
$SHADEDIF
 70
    70
  9
$TILEMODE
 70
     1
  9
$MAXACTVP
 70
    16
  9
$PLIMCHECK
 70
     0
  9
$PEXTMIN
 10
1.0000000000000000E+020
 20
1.0000000000000000E+020
 30
1.0000000000000000E+020
  9
$PEXTMAX
 10
-1.0000000000000000E+020
 20
-1.0000000000000000E+020
 30
-1.0000000000000000E+020
  9
$PLIMMIN
 10
0.0
 20
0.0
  9
$PLIMMAX
 10
12.0
 20
9.0
  9
$UNITMODE
 70
     0
  9
$VISRETAIN
 70
     0
  9
$PLINEGEN
 70
     0
  9
$PSLTSCALE
 70
     0
  0
ENDSEC
  0
SECTION
  2
TABLES
  0
TABLE
  2
VPORT
 70
     1
  0
VPORT
  2
*ACTIVE
 70
     0
 10
0.0
 20
0.0
 11
1.0
 21
1.0
 12
195.04380321732449
 22
133.5127261426681
 13
0.0
 23
0.0
 14
10.0
 24
10.0
 15
10.0
 25
10.0
 16
0.0
 26
0.0
 36
1.0
 17
0.0
 27
0.0
 37
0.0
 40
275.42274993631997
 41
1.831871345029239
 42
50.0
 43
0.0
 44
0.0
 50
0.0
 51
0.0
 71
     0
 72
   500
 73
     1
 74
     0
 75
     0
 76
     0
 77
     0
 78
     2
  0
ENDTAB
  0
TABLE
  2
LTYPE
 70
     3
  0
LTYPE
  2
CONTINUOUS
 70
     0
  3
Solid Line
 72
    65
 73
     0
 40
0.0
  0
LTYPE
  2
CENTER
 70
     0
  3
____ _ ____ _ ____ _ ____ _ ____ _ ____ _ ____
 72
    65
 73
     4
 40
2.0
 49
1.25
 49
-0.25
 49
0.25
 49
-0.25
  0
LTYPE
  2
PHANTOM2
 70
     0
  3
___ _ _ ___ _ _ ___ _ _ ___ _ _
 72
    65
 73
     6
 40
1.25
 49
0.625
 49
-0.125
 49
0.125
 49
-0.125
 49
0.125
 49
-0.125
  0
ENDTAB
  0
TABLE
  2
LAYER
 70
     3
  0
LAYER
  2
0
 70
     0
 62
     7
  6
CONTINUOUS
  0
LAYER
  2
1
 70
     0
 62
     1
  6
CENTER
  0
LAYER
  2
3
 70
     0
 62
     3
  6
CONTINUOUS
  0
ENDTAB
  0
TABLE
  2
STYLE
 70
     2
  0
STYLE
  2
STANDARD
 70
     0
 40
0.0
 41
1.0
 50
0.0
 71
     0
 42
4.000000000000048
  3
SIMPLEX
  4
BIGFONT
  0
STYLE
  2
STANDARD1
 70
     0
 40
0.0
 41
1.0
 50
0.0
 71
     0
 42
3.0
  3
txt
  4

  0
ENDTAB
  0
TABLE
  2
VIEW
 70
     1
  0
VIEW
  2
ALL
 70
     0
 40
270.0
 10
220.78595317725751
 20
135.0
 41
441.57190635451502
 11
0.0
 21
0.0
 31
1.0
 12
0.0
 22
0.0
 32
0.0
 42
50.0
 43
0.0
 44
0.0
 50
0.0
 71
     0
  0
ENDTAB
  0
TABLE
  2
UCS
 70
     0
  0
ENDTAB
  0
TABLE
  2
APPID
 70
     3
  0
APPID
  2
ACAD
 70
     0
  0
APPID
  2
ACAD_MLEADERVER
 70
     0
  0
APPID
  2
ACAD_NAV_VCDISPLAY
 70
     0
  0
ENDTAB
  0
TABLE
  2
DIMSTYLE
 70
     1
  0
DIMSTYLE
  2
STANDARD
 70
     0
  3

  4

  5

  6

  7

 40
1.0
 41
0.18
 42
0.0625
 43
0.38
 44
0.18
 45
0.0
 46
0.0
 47
0.0
 48
0.0
140
0.18
141
0.09
142
0.0
143
25.399999999999999
144
1.0
145
0.0
146
1.0
147
0.09
 71
     0
 72
     0
 73
     1
 74
     1
 75
     0
 76
     0
 77
     0
 78
     0
170
     0
171
     2
172
     0
173
     0
174
     0
175
     0
176
     0
177
     0
178
     0
  0
ENDTAB
  0
ENDSEC
  0
SECTION
  2
BLOCKS
  0
BLOCK
  8
0
  2
$MODEL_SPACE
 70
     0
 10
0.0
 20
0.0
 30
0.0
  3
$MODEL_SPACE
  1

  0
ENDBLK
  5
133
  8
0
  0
BLOCK
 67
     1
  8
0
  2
$PAPER_SPACE
 70
     0
 10
0.0
 20
0.0
 30
0.0
  3
$PAPER_SPACE
  1

  0
ENDBLK
  5
131
 67
     1
  8
0
  0
ENDSEC
  0
SECTION
  2
ENTITIES
  0
LINE
  5
36
  8
0
 10
165.45703944619351
 20
130.28361716412741
 30
0.0
 11
235.27450542747789
 21
130.28361716412741
 31
0.0
  0
LINE
  5
37
  8
0
 10
261.36577243683581
 20
97.283617164127406
 30
0.0
 11
241.3657724368357
 21
97.283617164127406
 31
0.0
  0
LINE
  5
38
  8
0
 10
159.3657724368357
 20
97.283617164127406
 30
0.0
 11
159.3657724368357
 21
109.8566570369567
 31
0.0
  0
LINE
  5
39
  8
0
 10
140.6318168799547
 20
112.50685495822511
 30
0.0
 11
159.02916334932809
 21
127.94406159531709
 31
0.0
  0
LINE
  5
3A
  8
0
 10
172.49001744950499
 20
122.78361716412741
 30
0.0
 11
228.24152742416649
 21
122.78361716412741
 31
0.0
  0
ARC
  5
3B
  8
0
 10
165.45703944619351
 20
120.28361716412741
 30
0.0
 40
10.0
 50
90.0
 51
130.0
  0
ARC
  5
3C
  8
0
 10
235.27450542747789
 20
120.28361716412741
 30
0.0
 40
10.0
 50
49.999999999999687
 51
90.0
  0
LINE
  5
3D
  8
1
 10
150.3657724368357
 20
83.283617164127335
 30
0.0
 11
150.3657724368357
 21
125.5955868888424
 31
0.0
  0
LINE
  5
3E
  8
0
 10
162.93789633997019
 20
117.51710146814639
 30
0.0
 11
166.70492896232599
 21
120.67801715219809
 31
0.0
  0
LINE
  5
3F
  8
0
 10
237.79364853370129
 20
117.51710146814651
 30
0.0
 11
234.02661591134549
 21
120.67801715219809
 31
0.0
  0
ARC
  5
40
  8
0
 10
172.49001744950499
 20
113.78361716412741
 30
0.0
 40
9.0
 50
90.0
 51
130.00000000000111
  0
ARC
  5
41
  8
0
 10
228.24152742416649
 20
113.78361716412741
 30
0.0
 40
9.0
 50
49.99999999999882
 51
90.0
  0
LINE
  5
42
  8
0
 10
152.8657724368357
 20
89.183617164127384
 30
0.0
 11
147.8657724368357
 21
89.183617164127384
 31
0.0
  0
LINE
  5
43
  8
0
 10
148.7657724368357
 20
88.283617164127335
 30
0.0
 11
147.8657724368357
 21
89.183617164127384
 31
0.0
  0
LINE
  5
44
  8
0
 10
152.8657724368357
 20
89.183617164127384
 30
0.0
 11
151.96577243683561
 21
88.283617164127335
 31
0.0
  0
LINE
  5
45
  8
0
 10
151.96577243683561
 20
88.283617164127335
 30
0.0
 11
148.7657724368357
 21
88.283617164127335
 31
0.0
  0
LINE
  5
46
  8
0
 10
152.8657724368357
 20
97.283617164127406
 30
0.0
 11
152.8657724368357
 21
95.677073796001807
 31
0.0
  0
LINE
  5
47
  8
3
 10
152.4327724368359
 20
97.283617164127378
 30
0.0
 11
152.4327724368359
 21
95.677073796001807
 31
0.0
  0
LINE
  5
48
  8
3
 10
148.29877243683541
 20
97.283617164127406
 30
0.0
 11
148.29877243683541
 21
95.677073796001807
 31
0.0
  0
LINE
  5
49
  8
0
 10
147.8657724368357
 20
97.283617164127421
 30
0.0
 11
147.8657724368357
 21
95.677073796001807
 31
0.0
  0
ARC
  5
4A
  8
0
 10
192.1157724368357
 20
98.346117164129794
 30
0.0
 40
23.437499999997659
 50
69.390307062465695
 51
110.60969293753411
  0
ARC
  5
4B
  8
0
 10
208.61577243683581
 20
98.346117164129794
 30
0.0
 40
23.437499999997659
 50
69.390307062465837
 51
110.60969293753431
  0
ARC
  5
4C
  8
0
 10
175.6157724368357
 20
98.346117164129794
 30
0.0
 40
23.437499999997659
 50
69.390307062465837
 51
72.698911569498321
  0
LINE
  5
4D
  8
0
 10
154.26577243683789
 20
90.877073796001795
 30
0.0
 11
146.4657724368318
 21
90.877073796001795
 31
0.0
  0
LINE
  5
4E
  8
0
 10
154.98457459035171
 20
94.262073179175204
 30
0.0
 11
154.98457459035191
 21
91.292074412828171
 31
0.0
  0
LINE
  5
4F
  8
0
 10
152.67517351359339
 20
91.29207441284494
 30
0.0
 11
152.67517351359339
 21
94.262073179167132
 31
0.0
  0
LINE
  5
50
  8
0
 10
148.05637136007641
 20
94.262073179165142
 30
0.0
 11
148.05637136008451
 21
91.292074412833756
 31
0.0
  0
LINE
  5
51
  8
0
 10
145.74697028331789
 20
94.26207317917526
 30
0.0
 11
145.74697028331789
 21
91.292074412828171
 31
0.0
  0
LINE
  5
52
  8
0
 10
154.98457459035191
 20
94.26207317917526
 30
0.0
 11
154.26577243683769
 21
94.677073796001807
 31
0.0
  0
ARC
  5
53
  8
0
 10
153.82987405197261
 20
92.574680570337691
 30
0.0
 40
2.044658198744437
 50
64.384247466680179
 51
124.3842474679263
  0
ARC
  5
54
  8
0
 10
153.82987405197261
 20
92.979467021665755
 30
0.0
 40
2.044658198744437
 50
235.6157525320736
 51
295.61575253331978
  0
LINE
  5
55
  8
0
 10
154.98457459035191
 20
91.292074412828171
 30
0.0
 11
154.26577243683769
 21
90.877073796001625
 31
0.0
  0
ARC
  5
56
  8
0
 10
150.36577243684769
 20
98.577543232957325
 30
0.0
 40
7.6427344100359971
 50
252.4120462257726
 51
287.58795377402578
  0
LINE
  5
57
  8
0
 10
145.74697028331789
 20
91.292074412828171
 30
0.0
 11
146.46577243683211
 21
90.877073796001625
 31
0.0
  0
ARC
  5
58
  8
0
 10
146.90167082169711
 20
92.979467021665755
 30
0.0
 40
2.044658198744437
 50
244.38424746668019
 51
304.3842474679264
  0
ARC
  5
59
  8
0
 10
150.36577243684769
 20
86.976604359046107
 30
0.0
 40
7.6427344100359971
 50
72.412046225974194
 51
107.5879537742274
  0
ARC
  5
5A
  8
0
 10
146.90167082169711
 20
92.574680570337691
 30
0.0
 40
2.044658198744437
 50
55.61575253207365
 51
115.61575253331981
  0
LINE
  5
5B
  8
0
 10
145.74697028331789
 20
94.26207317917526
 30
0.0
 11
146.46577243683211
 21
94.677073796001807
 31
0.0
  0
LINE
  5
5C
  8
0
 10
145.3657724368357
 20
95.677073796001807
 30
0.0
 11
145.3657724368357
 21
94.677073796001807
 31
0.0
  0
LINE
  5
5D
  8
0
 10
155.3657724368357
 20
95.677073796001807
 30
0.0
 11
155.3657724368357
 21
94.677073796001807
 31
0.0
  0
LINE
  5
5E
  8
0
 10
155.3657724368357
 20
94.677073796001807
 30
0.0
 11
145.3657724368357
 21
94.677073796001807
 31
0.0
  0
LINE
  5
5F
  8
0
 10
155.3657724368357
 20
95.677073796001807
 30
0.0
 11
145.3657724368357
 21
95.677073796001807
 31
0.0
  0
LINE
  5
60
  8
0
 10
159.3657724368357
 20
97.283617164127335
 30
0.0
 11
139.3657724368357
 21
97.283617164127449
 31
0.0
  0
LINE
  5
61
  8
0
 10
139.3657724368357
 20
179.16669718610291
 30
0.0
 11
139.3657724368357
 21
191.16669718610291
 31
0.0
  0
LINE
  5
62
  8
0
 10
261.36577243683581
 20
179.16669718610291
 30
0.0
 11
261.36577243683581
 21
191.16669718610291
 31
0.0
  0
LINE
  5
63
  8
0
 10
142.8657724368357
 20
175.66669718610291
 30
0.0
 11
257.8657724368357
 21
175.66669718610291
 31
0.0
  0
LINE
  5
64
  8
0
 10
142.8657724368357
 20
194.66669718610291
 30
0.0
 11
257.86577243683581
 21
194.66669718610291
 31
0.0
  0
LINE
  5
65
  8
1
 10
135.3657724368357
 20
185.16669718610291
 30
0.0
 11
265.36577243683581
 21
185.1666971861026
 31
0.0
  0
LINE
  5
66
  8
0
 10
142.31968047744991
 20
193.66669718610291
 30
0.0
 11
258.41186439622169
 21
193.66669718610279
 31
0.0
  0
LINE
  5
67
  8
0
 10
142.31968047744991
 20
176.66669718610291
 30
0.0
 11
258.41186439622169
 21
176.66669718610291
 31
0.0
  0
ARC
  5
68
  8
0
 10
142.8657724368357
 20
191.16669718610291
 30
0.0
 40
3.5
 50
90.0
 51
179.99999999999989
  0
ARC
  5
69
  8
0
 10
142.8657724368357
 20
179.16669718610291
 30
0.0
 40
3.5
 50
179.99999999999989
 51
270.0
  0
ARC
  5
6A
  8
0
 10
257.8657724368357
 20
179.16669718610291
 30
0.0
 40
3.5
 50
270.0
 51
359.99999999999977
  0
ARC
  5
6B
  8
0
 10
257.86577243683581
 20
191.16669718610291
 30
0.0
 40
3.5
 50
359.99999999999977
 51
90.0
  0
LINE
  5
6C
  8
0
 10
142.1318168799547
 20
192.66669718610291
 30
0.0
 11
258.59972799371678
 21
192.66669718610279
 31
0.0
  0
LINE
  5
6D
  8
0
 10
142.1318168799547
 20
177.66669718610291
 30
0.0
 11
258.59972799371678
 21
177.66669718610291
 31
0.0
  0
LINE
  5
6E
  8
0
 10
139.83150008866139
 20
110.8646548180235
 30
0.0
 11
139.3657724368357
 21
97.283617164127506
 31
0.0
  0
LINE
  5
6F
  8
0
 10
260.0997279937169
 20
112.50685495822501
 30
0.0
 11
241.70238152434331
 21
127.94406159531709
 31
0.0
  0
LINE
  5
70
  8
0
 10
260.9000447850101
 20
110.8646548180234
 30
0.0
 11
261.36577243683581
 21
97.283617164127506
 31
0.0
  0
CIRCLE
  5
71
  8
0
 10
150.36577243683561
 20
185.16669718610279
 30
0.0
 40
4.5000000000000284
  0
CIRCLE
  5
72
  8
0
 10
150.36577243683561
 20
185.16669718610279
 30
0.0
 40
3.730384757729325
  0
LINE
  5
73
  8
0
 10
148.36577243683581
 20
184.01199664772381
 30
0.0
 11
150.36577243683581
 21
182.8572961093445
 31
0.0
  0
LINE
  5
74
  8
0
 10
150.36577243683581
 20
182.8572961093445
 30
0.0
 11
152.36577243683561
 21
184.01199664772381
 31
0.0
  0
LINE
  5
75
  8
0
 10
152.36577243683561
 20
184.01199664772381
 30
0.0
 11
152.36577243683561
 21
186.32139772448261
 31
0.0
  0
LINE
  5
76
  8
0
 10
152.36577243683561
 20
186.32139772448261
 30
0.0
 11
150.36577243683561
 21
187.47609826286151
 31
0.0
  0
LINE
  5
77
  8
0
 10
150.36577243683561
 20
187.47609826286151
 30
0.0
 11
148.36577243683541
 21
186.3213977244819
 31
0.0
  0
LINE
  5
78
  8
0
 10
148.36577243683541
 20
186.3213977244819
 30
0.0
 11
148.36577243683581
 21
184.01199664772381
 31
0.0
  0
CIRCLE
  5
79
  8
0
 10
150.36577243683561
 20
185.16669718610279
 30
0.0
 40
4.25
  0
LINE
  5
7A
  8
1
 10
150.36577243683561
 20
194.66669718610291
 30
0.0
 11
150.36577243683561
 21
175.66669718610279
 31
0.0
  0
LINE
  5
7B
  8
1
 10
250.3657724368359
 20
194.66669718610291
 30
0.0
 11
250.3657724368359
 21
175.66669718610279
 31
0.0
  0
CIRCLE
  5
7C
  8
0
 10
250.3657724368359
 20
185.16669718610279
 30
0.0
 40
4.25
  0
LINE
  5
7D
  8
0
 10
252.3657724368361
 20
186.3213977244819
 30
0.0
 11
252.36577243683561
 21
184.01199664772381
 31
0.0
  0
LINE
  5
7E
  8
0
 10
250.3657724368359
 20
187.47609826286151
 30
0.0
 11
252.3657724368361
 21
186.3213977244819
 31
0.0
  0
LINE
  5
7F
  8
0
 10
248.3657724368359
 20
186.32139772448261
 30
0.0
 11
250.3657724368359
 21
187.47609826286151
 31
0.0
  0
LINE
  5
80
  8
0
 10
248.3657724368359
 20
184.01199664772381
 30
0.0
 11
248.3657724368359
 21
186.32139772448261
 31
0.0
  0
LINE
  5
81
  8
0
 10
250.36577243683561
 20
182.8572961093445
 30
0.0
 11
248.3657724368359
 21
184.01199664772381
 31
0.0
  0
LINE
  5
82
  8
0
 10
252.36577243683561
 20
184.01199664772381
 30
0.0
 11
250.36577243683561
 21
182.8572961093445
 31
0.0
  0
CIRCLE
  5
83
  8
0
 10
250.3657724368359
 20
185.16669718610279
 30
0.0
 40
3.730384757729325
  0
CIRCLE
  5
84
  8
0
 10
250.3657724368359
 20
185.16669718610279
 30
0.0
 40
4.5000000000000284
  0
LINE
  5
85
  8
0
 10
97.196008302098107
 20
97.283617164127449
 30
0.0
 11
78.196008302098107
 21
97.283617164127506
 31
0.0
  0
LINE
  5
86
  8
0
 10
95.196008302098051
 20
130.28361716412729
 30
0.0
 11
80.196008302098093
 21
130.28361716412741
 31
0.0
  0
LINE
  5
87
  8
0
 10
79.165719175457355
 20
129.28407598498211
 30
0.0
 11
78.196008302098107
 21
97.283617164127563
 31
0.0
  0
LINE
  5
88
  8
0
 10
96.22629742873886
 20
129.284075984982
 30
0.0
 11
97.196008302098065
 21
97.283617164127449
 31
0.0
  0
LINE
  5
89
  8
0
 10
93.66189029301546
 20
111.8640673485385
 30
0.0
 11
81.730126311180683
 21
111.8640673485386
 31
0.0
  0
ARC
  5
8A
  8
0
 10
93.66189029301546
 20
114.8640673485386
 30
0.0
 40
3.0
 50
270.0
 51
1.7357045889283911
  0
ARC
  5
8B
  8
0
 10
81.730126311180683
 20
114.8640673485386
 30
0.0
 40
3.0
 50
178.2642954110716
 51
269.99999999999977
  0
LINE
  5
8C
  8
0
 10
95.196008302098051
 20
130.28361716412729
 30
0.0
 11
96.22629742873886
 21
129.284075984982
 31
0.0
  0
LINE
  5
8D
  8
0
 10
80.196008302098093
 20
130.28361716412741
 30
0.0
 11
79.165719175457355
 21
129.28407598498211
 31
0.0
  0
LINE
  5
8E
  8
0
 10
80.196467333565934
 20
130.28361716412741
 30
0.0
 11
79.731043952889934
 21
114.9246456018202
 31
0.0
  0
LINE
  5
8F
  8
0
 10
95.195549270630238
 20
130.28361716412729
 30
0.0
 11
95.660972651306224
 21
114.9246456018201
 31
0.0
  0
LINE
  5
90
  8
0
 10
93.66189029301546
 20
112.8640673485385
 30
0.0
 11
81.730126311180683
 21
112.8640673485386
 31
0.0
  0
ARC
  5
91
  8
0
 10
93.66189029301546
 20
114.8640673485386
 30
0.0
 40
2.0
 50
270.0
 51
1.7357045889283911
  0
ARC
  5
92
  8
0
 10
81.730126311180683
 20
114.8640673485386
 30
0.0
 40
2.0
 50
178.2642954110716
 51
269.99999999999977
  0
POLYLINE
  5
93
  8
0
 66
     1
 10
0.0
 20
0.0
 30
0.0
 70
     1
  0
VERTEX
  5
94
  8
0
 10
87.696008302098051
 20
124.4505618161978
 30
0.0
 42
0.0838217899890389
  0
VERTEX
  5
95
  8
0
 10
85.939955023693358
 20
124.1540877034406
 30
0.0
 42
0.0911578734171726
  0
VERTEX
  5
96
  8
0
 10
84.514027786758561
 20
123.3446121527347
 30
0.0
 42
0.103900866941921
 70
     2
 50
219.9999999999998
  0
VERTEX
  5
97
  8
0
 10
83.525197486551065
 20
122.0851590515794
 30
0.0
 42
0.115141593421091
 50
219.9999999999998
  0
VERTEX
  5
98
  8
0
 10
83.196008302098065
 20
120.6746134759001
 30
0.0
 42
0.1151415934210766
  0
VERTEX
  5
99
  8
0
 10
83.525197486551008
 20
119.26406790022089
 30
0.0
 42
0.1039008669419294
  0
VERTEX
  5
9A
  8
0
 10
84.514027786758561
 20
118.00461479906549
 30
0.0
 42
0.0911578734171723
 70
     2
 50
320.00000000000023
  0
VERTEX
  5
9B
  8
0
 10
85.939955023693358
 20
117.1951392483596
 30
0.0
 42
0.0838217899890547
 50
320.00000000000023
  0
VERTEX
  5
9C
  8
0
 10
87.696008302098051
 20
116.8986651356023
 30
0.0
 42
0.0838217899890561
  0
VERTEX
  5
9D
  8
0
 10
89.452061580502729
 20
117.1951392483596
 30
0.0
 42
0.0911578734171771
  0
VERTEX
  5
9E
  8
0
 10
90.87798881743754
 20
118.00461479906549
 30
0.0
 42
0.1039008669419249
 70
     2
 50
39.999999999999858
  0
VERTEX
  5
9F
  8
0
 10
91.866819117645093
 20
119.26406790022079
 30
0.0
 42
0.1151415934210817
 50
39.999999999999858
  0
VERTEX
  5
A0
  8
0
 10
92.196008302098107
 20
120.6746134759001
 30
0.0
 42
0.1151415934210761
  0
VERTEX
  5
A1
  8
0
 10
91.866819117645136
 20
122.0851590515793
 30
0.0
 42
0.1039008669419186
  0
VERTEX
  5
A2
  8
0
 10
90.87798881743754
 20
123.3446121527347
 30
0.0
 42
0.0911578734171547
 70
     2
 50
140.0000000000002
  0
VERTEX
  5
A3
  8
0
 10
89.452061580502914
 20
124.1540877034406
 30
0.0
 42
0.0838217899890335
 50
140.0000000000002
  0
SEQEND
  5
A4
  8
0
  0
LINE
  5
A5
  8
1
 10
78.196008302098051
 20
120.6746134759001
 30
0.0
 11
97.196008302098107
 21
120.6746134759001
 31
0.0
  0
LINE
  5
A6
  8
0
 10
165.45703944619351
 20
129.28361716412741
 30
0.0
 11
235.27450542747789
 21
129.28361716412741
 31
0.0
  0
ARC
  5
A7
  8
0
 10
235.27450542747789
 20
120.28361716412741
 30
0.0
 40
9.0
 50
49.999999999999687
 51
90.0
  0
LINE
  5
A8
  8
0
 10
260.91186439622157
 20
110.5199843130854
 30
0.0
 11
241.0595939146568
 21
127.17801715219819
 31
0.0
  0
LINE
  5
A9
  8
0
 10
260.0997279937169
 20
112.50685495822501
 30
0.0
 11
260.9000447850101
 21
110.8646548180234
 31
0.0
  0
LINE
  5
AA
  8
0
 10
140.6318168799547
 20
112.50685495822511
 30
0.0
 11
139.83150008866139
 21
110.8646548180235
 31
0.0
  0
LINE
  5
AB
  8
0
 10
260.91186439622157
 20
179.16669718610291
 30
0.0
 11
260.91186439622157
 21
191.16669718610291
 31
0.0
  0
ARC
  5
AC
  8
0
 10
258.41186439622169
 20
191.16669718610291
 30
0.0
 40
2.5
 50
0.0
 51
89.999999999999986
  0
ARC
  5
AD
  8
0
 10
258.41186439622169
 20
179.16669718610291
 30
0.0
 40
2.5
 50
270.0
 51
0.0
  0
LINE
  5
AE
  8
0
 10
260.0997279937169
 20
179.16669718610291
 30
0.0
 11
260.0997279937169
 21
191.16669718610291
 31
0.0
  0
ARC
  5
AF
  8
0
 10
258.59972799371678
 20
191.16669718610291
 30
0.0
 40
1.5
 50
0.0
 51
89.999999999999986
  0
ARC
  5
B0
  8
0
 10
258.59972799371678
 20
179.16669718610291
 30
0.0
 40
1.5
 50
270.0
 51
0.0
  0
ARC
  5
B1
  8
0
 10
142.1318168799547
 20
191.16669718610291
 30
0.0
 40
1.5
 50
90.000000000000028
 51
180.0
  0
ARC
  5
B2
  8
0
 10
142.31968047744991
 20
191.16669718610291
 30
0.0
 40
2.5
 50
90.000000000000028
 51
180.0
  0
LINE
  5
B3
  8
0
 10
140.6318168799547
 20
179.16669718610291
 30
0.0
 11
140.6318168799547
 21
191.16669718610291
 31
0.0
  0
LINE
  5
B4
  8
0
 10
139.81968047744991
 20
179.16669718610291
 30
0.0
 11
139.81968047744991
 21
191.16669718610291
 31
0.0
  0
ARC
  5
B5
  8
0
 10
142.1318168799547
 20
179.16669718610291
 30
0.0
 40
1.5
 50
180.0
 51
270.0
  0
ARC
  5
B6
  8
0
 10
142.31968047744991
 20
179.16669718610291
 30
0.0
 40
2.5
 50
180.0
 51
270.0
  0
ARC
  5
B7
  8
0
 10
169.3657724368357
 20
109.8566570369567
 30
0.0
 40
10.0
 50
130.00000000000119
 51
179.9999999999998
  0
ARC
  5
B8
  8
0
 10
231.36577243683581
 20
109.8566570369567
 30
0.0
 40
10.0
 50
0.0000000000001272
 51
49.999999999998792
  0
LINE
  5
B9
  8
0
 10
241.3657724368357
 20
97.283617164127406
 30
0.0
 11
241.3657724368357
 21
109.8566570369567
 31
0.0
  0
LINE
  5
BA
  8
3
 10
148.29877243683541
 20
90.877073796001724
 30
0.0
 11
148.29877243683541
 21
88.750617164127547
 31
0.0
  0
LINE
  5
BB
  8
0
 10
147.8657724368357
 20
90.877073796001795
 30
0.0
 11
147.8657724368357
 21
89.183617164127384
 31
0.0
  0
LINE
  5
BC
  8
3
 10
152.43277243683579
 20
90.877073796001724
 30
0.0
 11
152.4327724368359
 21
88.750617164127604
 31
0.0
  0
LINE
  5
BD
  8
0
 10
152.8657724368357
 20
90.877073796001795
 30
0.0
 11
152.8657724368357
 21
89.183617164127384
 31
0.0
  0
LINE
  5
BE
  8
0
 10
252.8657724368359
 20
90.877073796001795
 30
0.0
 11
252.8657724368359
 21
89.183617164127384
 31
0.0
  0
LINE
  5
BF
  8
3
 10
252.43277243683599
 20
90.877073796001724
 30
0.0
 11
252.43277243683599
 21
88.750617164127604
 31
0.0
  0
LINE
  5
C0
  8
0
 10
247.8657724368359
 20
90.877073796001795
 30
0.0
 11
247.8657724368359
 21
89.183617164127384
 31
0.0
  0
LINE
  5
C1
  8
3
 10
248.29877243683561
 20
90.877073796001724
 30
0.0
 11
248.29877243683561
 21
88.750617164127547
 31
0.0
  0
LINE
  5
C2
  8
0
 10
255.3657724368359
 20
95.677073796001807
 30
0.0
 11
245.3657724368359
 21
95.677073796001807
 31
0.0
  0
LINE
  5
C3
  8
0
 10
255.3657724368359
 20
94.677073796001807
 30
0.0
 11
245.3657724368359
 21
94.677073796001807
 31
0.0
  0
LINE
  5
C4
  8
0
 10
255.3657724368359
 20
95.677073796001807
 30
0.0
 11
255.3657724368359
 21
94.677073796001807
 31
0.0
  0
LINE
  5
C5
  8
0
 10
245.3657724368359
 20
95.677073796001807
 30
0.0
 11
245.3657724368359
 21
94.677073796001807
 31
0.0
  0
LINE
  5
C6
  8
0
 10
245.74697028331809
 20
94.26207317917526
 30
0.0
 11
246.4657724368322
 21
94.677073796001807
 31
0.0
  0
ARC
  5
C7
  8
0
 10
246.90167082169731
 20
92.574680570337691
 30
0.0
 40
2.044658198744437
 50
55.61575253207365
 51
115.61575253331981
  0
ARC
  5
C8
  8
0
 10
250.36577243684789
 20
86.976604359046107
 30
0.0
 40
7.6427344100359971
 50
72.412046225974194
 51
107.5879537742274
  0
ARC
  5
C9
  8
0
 10
246.90167082169731
 20
92.979467021665755
 30
0.0
 40
2.044658198744437
 50
244.38424746668019
 51
304.3842474679264
  0
LINE
  5
CA
  8
0
 10
245.74697028331809
 20
91.292074412828171
 30
0.0
 11
246.4657724368322
 21
90.877073796001625
 31
0.0
  0
ARC
  5
CB
  8
0
 10
250.36577243684789
 20
98.577543232957325
 30
0.0
 40
7.6427344100359971
 50
252.4120462257726
 51
287.58795377402578
  0
LINE
  5
CC
  8
0
 10
254.98457459035211
 20
91.292074412828171
 30
0.0
 11
254.26577243683781
 21
90.877073796001625
 31
0.0
  0
ARC
  5
CD
  8
0
 10
253.82987405197269
 20
92.979467021665755
 30
0.0
 40
2.044658198744437
 50
235.6157525320736
 51
295.61575253331978
  0
ARC
  5
CE
  8
0
 10
253.82987405197269
 20
92.574680570337691
 30
0.0
 40
2.044658198744437
 50
64.384247466680179
 51
124.3842474679263
  0
LINE
  5
CF
  8
0
 10
254.98457459035211
 20
94.26207317917526
 30
0.0
 11
254.26577243683781
 21
94.677073796001807
 31
0.0
  0
LINE
  5
D0
  8
0
 10
245.74697028331809
 20
94.26207317917526
 30
0.0
 11
245.74697028331809
 21
91.292074412828171
 31
0.0
  0
LINE
  5
D1
  8
0
 10
248.05637136007661
 20
94.262073179165142
 30
0.0
 11
248.0563713600846
 21
91.292074412833756
 31
0.0
  0
LINE
  5
D2
  8
0
 10
252.67517351359359
 20
91.29207441284494
 30
0.0
 11
252.67517351359359
 21
94.262073179167132
 31
0.0
  0
LINE
  5
D3
  8
0
 10
254.9845745903518
 20
94.262073179175204
 30
0.0
 11
254.98457459035211
 21
91.292074412828171
 31
0.0
  0
LINE
  5
D4
  8
0
 10
254.26577243683809
 20
90.877073796001795
 30
0.0
 11
246.46577243683191
 21
90.877073796001795
 31
0.0
  0
LINE
  5
D5
  8
0
 10
251.96577243683581
 20
88.283617164127335
 30
0.0
 11
248.7657724368359
 21
88.283617164127335
 31
0.0
  0
LINE
  5
D6
  8
0
 10
252.8657724368359
 20
89.183617164127384
 30
0.0
 11
251.96577243683581
 21
88.283617164127335
 31
0.0
  0
LINE
  5
D7
  8
0
 10
248.7657724368359
 20
88.283617164127335
 30
0.0
 11
247.8657724368359
 21
89.183617164127384
 31
0.0
  0
LINE
  5
D8
  8
0
 10
252.8657724368359
 20
89.183617164127384
 30
0.0
 11
247.8657724368359
 21
89.183617164127384
 31
0.0
  0
LINE
  5
D9
  8
0
 10
247.8657724368359
 20
97.283617164127406
 30
0.0
 11
247.8657724368359
 21
95.677073796001807
 31
0.0
  0
LINE
  5
DA
  8
3
 10
248.29877243683561
 20
97.283617164127406
 30
0.0
 11
248.29877243683561
 21
95.677073796001807
 31
0.0
  0
LINE
  5
DB
  8
3
 10
252.43277243683599
 20
97.283617164127406
 30
0.0
 11
252.43277243683599
 21
95.677073796001807
 31
0.0
  0
LINE
  5
DC
  8
0
 10
252.8657724368359
 20
97.283617164127406
 30
0.0
 11
252.8657724368359
 21
95.677073796001807
 31
0.0
  0
LINE
  5
DD
  8
1
 10
250.3657724368359
 20
83.283617164127335
 30
0.0
 11
250.3657724368359
 21
125.5955868888424
 31
0.0
  0
ARC
  5
DE
  8
0
 10
166.22930551689831
 20
68.211657736241079
 30
0.0
 40
55.0
 50
72.698911569498321
 51
82.847122024709634
  0
ARC
  5
DF
  8
0
 10
234.50223935677309
 20
68.211657736241079
 30
0.0
 40
55.0
 50
97.152877975290366
 51
107.30108843050159
  0
ARC
  5
E0
  8
0
 10
225.11577243683581
 20
98.346117164129794
 30
0.0
 40
23.437499999997659
 50
107.30108843050159
 51
110.60969293753411
  0
LINE
  5
E1
  8
0
 10
90.196008302097937
 20
97.283617164128117
 30
0.0
 11
90.196008302097937
 21
95.677073796002517
 31
0.0
  0
LINE
  5
E2
  8
3
 10
89.763008302098058
 20
97.283617164128117
 30
0.0
 11
89.763008302098058
 21
95.677073796002517
 31
0.0
  0
LINE
  5
E3
  8
3
 10
85.629008302097702
 20
97.283617164128117
 30
0.0
 11
85.629008302097702
 21
95.677073796002517
 31
0.0
  0
LINE
  5
E4
  8
0
 10
85.196008302097937
 20
97.283617164128117
 30
0.0
 11
85.196008302097937
 21
95.677073796002517
 31
0.0
  0
LINE
  5
E5
  8
0
 10
90.196008302097937
 20
89.183617164128094
 30
0.0
 11
85.196008302097937
 21
89.183617164128094
 31
0.0
  0
LINE
  5
E6
  8
0
 10
86.096008302097914
 20
88.283617164128046
 30
0.0
 11
85.196008302097937
 21
89.183617164128094
 31
0.0
  0
LINE
  5
E7
  8
0
 10
90.196008302097937
 20
89.183617164128094
 30
0.0
 11
89.296008302097846
 21
88.283617164128046
 31
0.0
  0
LINE
  5
E8
  8
0
 10
89.296008302097846
 20
88.283617164128046
 30
0.0
 11
86.096008302097914
 21
88.283617164128046
 31
0.0
  0
LINE
  5
E9
  8
0
 10
91.596008302100188
 20
90.877073796002506
 30
0.0
 11
83.796008302093981
 21
90.877073796002506
 31
0.0
  0
LINE
  5
EA
  8
0
 10
92.314810455613895
 20
94.262073179175914
 30
0.0
 11
92.314810455614122
 21
91.292074412828882
 31
0.0
  0
LINE
  5
EB
  8
0
 10
90.005409378855632
 20
91.29207441284565
 30
0.0
 11
90.005409378855632
 21
94.262073179167842
 31
0.0
  0
LINE
  5
EC
  8
0
 10
85.386607225338651
 20
94.262073179165853
 30
0.0
 11
85.386607225346722
 21
91.292074412834467
 31
0.0
  0
LINE
  5
ED
  8
0
 10
83.07720614858016
 20
94.262073179175971
 30
0.0
 11
83.07720614858016
 21
91.292074412828882
 31
0.0
  0
LINE
  5
EE
  8
0
 10
92.314810455614122
 20
94.262073179175971
 30
0.0
 11
91.596008302099847
 21
94.677073796002517
 31
0.0
  0
ARC
  5
EF
  8
0
 10
91.160109917234834
 20
92.574680570338401
 30
0.0
 40
2.044658198744437
 50
64.384247466680179
 51
124.3842474679263
  0
ARC
  5
F0
  8
0
 10
91.160109917234834
 20
92.979467021666466
 30
0.0
 40
2.044658198744437
 50
235.6157525320736
 51
295.61575253331978
  0
LINE
  5
F1
  8
0
 10
92.314810455614122
 20
91.292074412828882
 30
0.0
 11
91.596008302099847
 21
90.877073796002335
 31
0.0
  0
ARC
  5
F2
  8
0
 10
87.696008302109988
 20
98.577543232958035
 30
0.0
 40
7.6427344100359971
 50
252.4120462257726
 51
287.58795377402578
  0
LINE
  5
F3
  8
0
 10
83.07720614858016
 20
91.292074412828882
 30
0.0
 11
83.796008302094307
 21
90.877073796002335
 31
0.0
  0
ARC
  5
F4
  8
0
 10
84.231906686959348
 20
92.979467021666466
 30
0.0
 40
2.044658198744437
 50
244.38424746668019
 51
304.3842474679264
  0
ARC
  5
F5
  8
0
 10
87.696008302109988
 20
86.976604359046817
 30
0.0
 40
7.6427344100359971
 50
72.412046225974194
 51
107.5879537742274
  0
ARC
  5
F6
  8
0
 10
84.231906686959348
 20
92.574680570338401
 30
0.0
 40
2.044658198744437
 50
55.61575253207365
 51
115.61575253331981
  0
LINE
  5
F7
  8
0
 10
83.07720614858016
 20
94.262073179175971
 30
0.0
 11
83.796008302094307
 21
94.677073796002517
 31
0.0
  0
LINE
  5
F8
  8
0
 10
82.696008302097937
 20
95.677073796002517
 30
0.0
 11
82.696008302097937
 21
94.677073796002517
 31
0.0
  0
LINE
  5
F9
  8
0
 10
92.696008302097937
 20
95.677073796002517
 30
0.0
 11
92.696008302097937
 21
94.677073796002517
 31
0.0
  0
LINE
  5
FA
  8
0
 10
92.696008302097937
 20
94.677073796002517
 30
0.0
 11
82.696008302097937
 21
94.677073796002517
 31
0.0
  0
LINE
  5
FB
  8
0
 10
92.696008302097937
 20
95.677073796002517
 30
0.0
 11
82.696008302097937
 21
95.677073796002517
 31
0.0
  0
LINE
  5
FC
  8
3
 10
85.629008302097702
 20
90.877073796002435
 30
0.0
 11
85.629008302097702
 21
88.750617164128258
 31
0.0
  0
LINE
  5
FD
  8
0
 10
85.196008302097937
 20
90.877073796002506
 30
0.0
 11
85.196008302097937
 21
89.183617164128094
 31
0.0
  0
LINE
  5
FE
  8
3
 10
89.763008302098058
 20
90.877073796002435
 30
0.0
 11
89.763008302098058
 21
88.750617164128315
 31
0.0
  0
LINE
  5
FF
  8
0
 10
90.196008302097937
 20
90.877073796002506
 30
0.0
 11
90.196008302097937
 21
89.183617164128094
 31
0.0
  0
LINE
  5
100
  8
1
 10
87.696008302098093
 20
135.28361716412741
 30
0.0
 11
87.696008302098051
 21
83.283617164128046
 31
0.0
  0
ARC
  5
101
  8
0
 10
165.45703944619359
 20
120.28361716412741
 30
0.0
 40
9.0
 50
90.0
 51
130.00000000000031
  0
LINE
  5
102
  8
0
 10
139.81968047744991
 20
110.5199843130854
 30
0.0
 11
159.67195095901471
 21
127.17801715219819
 31
0.0
  0
TEXT
  5
255
  8
0
 62
     3
 10
0.0
 20
0.0
 30
0.0
 40
10.0
  1
AG1-100
  7
STANDARD1
  0
ENDSEC
  0
EOF
