  0
SECTION
  2
HEADER
  9
$ACADVER
  1
AC1009
  9
$INSBASE
 10
0.0
 20
0.0
 30
0.0
  9
$EXTMIN
 10
-0.0204638472032742
 20
-2.960436562073669
 30
0.0
  9
$EXTMAX
 10
115.9999999999999
 20
101.5
 30
0.0
  9
$LIMMIN
 10
0.0
 20
0.0
  9
$LIMMAX
 10
187.5
 20
135.0
  9
$ORTHOMODE
 70
     1
  9
$REGENMODE
 70
     1
  9
$FILLMODE
 70
     1
  9
$QTEXTMODE
 70
     0
  9
$MIRRTEXT
 70
     0
  9
$DRAGMODE
 70
     2
  9
$LTSCALE
 40
5.0
  9
$OSMODE
 70
    37
  9
$ATTMODE
 70
     1
  9
$TEXTSIZE
 40
4.0000000000000471
  9
$TRACEWID
 40
0.05
  9
$TEXTSTYLE
  7
STANDARD
  9
$CLAYER
  8
0
  9
$CELTYPE
  6
BYLAYER
  9
$CECOLOR
 62
   256
  9
$DIMSCALE
 40
0.5
  9
$DIMASZ
 40
3.0
  9
$DIMEXO
 40
2.0
  9
$DIMDLI
 40
0.38
  9
$DIMRND
 40
0.0
  9
$DIMDLE
 40
0.0
  9
$DIMEXE
 40
2.0
  9
$DIMTP
 40
0.0
  9
$DIMTM
 40
0.0
  9
$DIMTXT
 40
3.2000000000000002
  9
$DIMCEN
 40
0.0
  9
$DIMTSZ
 40
0.0
  9
$DIMTOL
 70
     0
  9
$DIMLIM
 70
     0
  9
$DIMTIH
 70
     0
  9
$DIMTOH
 70
     0
  9
$DIMSE1
 70
     0
  9
$DIMSE2
 70
     0
  9
$DIMTAD
 70
     1
  9
$DIMZIN
 70
     0
  9
$DIMBLK
  1

  9
$DIMASO
 70
     1
  9
$DIMSHO
 70
     0
  9
$DIMPOST
  1

  9
$DIMAPOST
  1

  9
$DIMALT
 70
     0
  9
$DIMALTD
 70
     2
  9
$DIMALTF
 40
25.399999999999999
  9
$DIMLFAC
 40
1.0
  9
$DIMTOFL
 70
     0
  9
$DIMTVP
 40
1.6000000000000001
  9
$DIMTIX
 70
     0
  9
$DIMSOXD
 70
     0
  9
$DIMSAH
 70
     0
  9
$DIMBLK1
  1

  9
$DIMBLK2
  1

  9
$DIMSTYLE
  2
STANDARD
  9
$DIMCLRD
 70
     4
  9
$DIMCLRE
 70
     4
  9
$DIMCLRT
 70
     4
  9
$DIMTFAC
 40
1.0
  9
$DIMGAP
 40
0.5
  9
$LUNITS
 70
     2
  9
$LUPREC
 70
     1
  9
$SKETCHINC
 40
0.1
  9
$FILLETRAD
 40
0.0
  9
$AUNITS
 70
     0
  9
$AUPREC
 70
     1
  9
$MENU
  1
E:\r13\win\SUPPORT\ACAD
  9
$ELEVATION
 40
0.0
  9
$PELEVATION
 40
0.0
  9
$THICKNESS
 40
0.0
  9
$LIMCHECK
 70
     0
  9
$BLIPMODE
 70
     0
  9
$CHAMFERA
 40
1.1999999999999991
  9
$CHAMFERB
 40
1.1999999999999991
  9
$SKPOLY
 70
     0
  9
$TDCREATE
 40
2449954.699675926
  9
$TDUPDATE
 40
2457534.4789996529
  9
$TDINDWG
 40
0.0613024769
  9
$TDUSRTIMER
 40
2456598.298424711
  9
$USRTIMER
 70
     1
  9
$ANGBASE
 50
0.0
  9
$ANGDIR
 70
     0
  9
$PDMODE
 70
     0
  9
$PDSIZE
 40
0.0
  9
$PLINEWID
 40
0.0
  9
$COORDS
 70
     1
  9
$SPLFRAME
 70
     0
  9
$SPLINETYPE
 70
     6
  9
$SPLINESEGS
 70
     8
  9
$ATTDIA
 70
     0
  9
$ATTREQ
 70
     1
  9
$HANDLING
 70
     1
  9
$HANDSEED
  5
877
  9
$SURFTAB1
 70
     6
  9
$SURFTAB2
 70
     6
  9
$SURFTYPE
 70
     6
  9
$SURFU
 70
     6
  9
$SURFV
 70
     6
  9
$UCSNAME
  2

  9
$UCSORG
 10
0.0
 20
0.0
 30
0.0
  9
$UCSXDIR
 10
1.0
 20
0.0
 30
0.0
  9
$UCSYDIR
 10
0.0
 20
1.0
 30
0.0
  9
$PUCSNAME
  2

  9
$PUCSORG
 10
0.0
 20
0.0
 30
0.0
  9
$PUCSXDIR
 10
1.0
 20
0.0
 30
0.0
  9
$PUCSYDIR
 10
0.0
 20
1.0
 30
0.0
  9
$USERI1
 70
     0
  9
$USERI2
 70
     1
  9
$USERI3
 70
     1
  9
$USERI4
 70
     0
  9
$USERI5
 70
     0
  9
$USERR1
 40
0.0
  9
$USERR2
 40
0.0
  9
$USERR3
 40
0.0
  9
$USERR4
 40
0.0
  9
$USERR5
 40
0.0
  9
$WORLDVIEW
 70
     1
  9
$SHADEDGE
 70
     3
  9
$SHADEDIF
 70
    70
  9
$TILEMODE
 70
     1
  9
$MAXACTVP
 70
    16
  9
$PLIMCHECK
 70
     0
  9
$PEXTMIN
 10
1.0000000000000000E+020
 20
1.0000000000000000E+020
 30
1.0000000000000000E+020
  9
$PEXTMAX
 10
-1.0000000000000000E+020
 20
-1.0000000000000000E+020
 30
-1.0000000000000000E+020
  9
$PLIMMIN
 10
0.0
 20
0.0
  9
$PLIMMAX
 10
12.0
 20
9.0
  9
$UNITMODE
 70
     0
  9
$VISRETAIN
 70
     0
  9
$PLINEGEN
 70
     0
  9
$PSLTSCALE
 70
     0
  0
ENDSEC
  0
SECTION
  2
TABLES
  0
TABLE
  2
VPORT
 70
     1
  0
VPORT
  2
*ACTIVE
 70
     0
 10
0.0
 20
0.0
 11
1.0
 21
1.0
 12
172.54273504273499
 22
95.000000000000014
 13
0.0
 23
0.0
 14
5.0
 24
5.0
 15
5.0
 25
5.0
 16
0.0
 26
0.0
 36
1.0
 17
0.0
 27
0.0
 37
0.0
 40
190.0
 41
1.816239316239316
 42
50.0
 43
0.0
 44
0.0
 50
0.0
 51
0.0
 71
     0
 72
   500
 73
     1
 74
     0
 75
     0
 76
     0
 77
     0
 78
     2
  0
ENDTAB
  0
TABLE
  2
LTYPE
 70
     4
  0
LTYPE
  2
CONTINUOUS
 70
     0
  3
Solid Line
 72
    65
 73
     0
 40
0.0
  0
LTYPE
  2
CENTER
 70
     0
  3
____ _ ____ _ ____ _ ____ _ ____ _ ____ _ ____
 72
    65
 73
     4
 40
2.0
 49
1.25
 49
-0.25
 49
0.25
 49
-0.25
  0
LTYPE
  2
HIDDEN
 70
     0
  3
_ _ _ _ _ _ _ _ _ _ _ _ _ _ _ _ _ _ _ _ _ _ _
 72
    65
 73
     2
 40
0.375
 49
0.25
 49
-0.125
  0
LTYPE
  2
PHANTOM2
 70
     0
  3
___ _ _ ___ _ _ ___ _ _ ___ _ _
 72
    65
 73
     6
 40
1.25
 49
0.625
 49
-0.125
 49
0.125
 49
-0.125
 49
0.125
 49
-0.125
  0
ENDTAB
  0
TABLE
  2
LAYER
 70
     4
  0
LAYER
  2
0
 70
     0
 62
     7
  6
CONTINUOUS
  0
LAYER
  2
1
 70
     0
 62
     1
  6
CENTER
  0
LAYER
  2
2
 70
     0
 62
     2
  6
HIDDEN
  0
LAYER
  2
DEFPOINTS
 70
     0
 62
     7
  6
CONTINUOUS
  0
ENDTAB
  0
TABLE
  2
STYLE
 70
     2
  0
STYLE
  2
STANDARD
 70
     0
 40
0.0
 41
1.0
 50
0.0
 71
     0
 42
4.0000000000000471
  3
SIMPLEX
  4
BIGFONT
  0
STYLE
  2
STANDARD1
 70
     0
 40
0.0
 41
1.0
 50
0.0
 71
     0
 42
3.0
  3
txt
  4

  0
ENDTAB
  0
TABLE
  2
VIEW
 70
     1
  0
VIEW
  2
ALL
 70
     0
 40
175.0
 10
143.10200668896309
 20
87.5
 41
286.20401337792629
 11
0.0
 21
0.0
 31
1.0
 12
0.0
 22
0.0
 32
0.0
 42
50.0
 43
0.0
 44
0.0
 50
0.0
 71
     0
  0
ENDTAB
  0
TABLE
  2
UCS
 70
     0
  0
ENDTAB
  0
TABLE
  2
APPID
 70
     7
  0
APPID
  2
ACAD
 70
     0
  0
APPID
  2
ACAD_EXEMPT_FROM_CAD_STANDARDS
 70
     0
  0
APPID
  2
ACAD_DSTYLE_DIMRADIAL_EXTENSION
 70
     0
  0
APPID
  2
ACAD_MLEADERVER
 70
     0
  0
APPID
  2
ACAD_NAV_VCDISPLAY
 70
     0
  0
APPID
  2
ACAD_DSTYLE_DIMJAG
 70
     0
  0
APPID
  2
ACAD_DSTYLE_DIMTALN
 70
     0
  0
ENDTAB
  0
TABLE
  2
DIMSTYLE
 70
     1
  0
DIMSTYLE
  2
STANDARD
 70
     0
  3

  4

  5

  6

  7

 40
1.0
 41
0.18
 42
0.0625
 43
0.38
 44
0.18
 45
0.0
 46
0.0
 47
0.0
 48
0.0
140
0.18
141
0.09
142
0.0
143
25.399999999999999
144
1.0
145
0.0
146
1.0
147
0.09
 71
     0
 72
     0
 73
     1
 74
     1
 75
     0
 76
     0
 77
     0
 78
     0
170
     0
171
     2
172
     0
173
     0
174
     0
175
     0
176
     0
177
     0
178
     0
  0
ENDTAB
  0
ENDSEC
  0
SECTION
  2
BLOCKS
  0
BLOCK
  8
0
  2
$MODEL_SPACE
 70
     0
 10
0.0
 20
0.0
 30
0.0
  3
$MODEL_SPACE
  1

  0
ENDBLK
  5
D5
  8
0
  0
BLOCK
 67
     1
  8
0
  2
$PAPER_SPACE
 70
     0
 10
0.0
 20
0.0
 30
0.0
  3
$PAPER_SPACE
  1

  0
ENDBLK
  5
D3
 67
     1
  8
0
  0
ENDSEC
  0
SECTION
  2
ENTITIES
  0
TEXT
  5
27E
  8
0
 62
     3
 10
0.0
 20
0.0
 30
0.0
 40
10.0
  1
AFG30-RE
  7
STANDARD1
  0
LINE
  5
434
  8
2
 10
106.2388907728845
 20
44.0
 30
0.0
 11
105.75
 21
30.0
 31
0.0
  0
LINE
  5
435
  8
2
 10
109.25
 20
30.0
 30
0.0
 11
108.7611092271155
 21
44.0
 31
0.0
  0
LINE
  5
436
  8
2
 10
108.7611092271155
 20
44.0
 30
0.0
 11
106.2388907728845
 21
44.0
 31
0.0
  0
LINE
  5
437
  8
2
 10
76.738890772884474
 20
44.0
 30
0.0
 11
76.25
 21
30.0
 31
0.0
  0
LINE
  5
438
  8
2
 10
79.75
 20
30.0
 30
0.0
 11
79.261109227115526
 21
44.0
 31
0.0
  0
LINE
  5
439
  8
2
 10
79.261109227115526
 20
44.0
 30
0.0
 11
76.738890772884474
 21
44.0
 31
0.0
  0
LINE
  5
43A
  8
1
 10
77.999999999999972
 20
46.499999999999993
 30
0.0
 11
78.0
 21
27.5
 31
0.0
  0
LINE
  5
43B
  8
1
 10
107.4999999999999
 20
46.499999999999993
 30
0.0
 11
107.4999999999999
 21
27.5
 31
0.0
  0
ARC
  5
43C
  8
0
 10
92.75
 20
37.75
 30
0.0
 40
19.249999999999989
 50
0.0
 51
180.0
  0
ARC
  5
43D
  8
0
 10
92.75
 20
37.75
 30
0.0
 40
10.25
 50
0.0
 51
180.0
  0
LINE
  5
43E
  8
0
 10
82.5
 20
33.5
 30
0.0
 11
82.5
 21
37.75
 31
0.0
  0
LINE
  5
43F
  8
0
 10
73.5
 20
37.75
 30
0.0
 11
73.5
 21
33.5
 31
0.0
  0
LINE
  5
441
  8
0
 10
112.0
 20
33.5
 30
0.0
 11
112.0
 21
37.75
 31
0.0
  0
LINE
  5
442
  8
0
 10
103.0
 20
37.75
 30
0.0
 11
103.0
 21
33.5
 31
0.0
  0
ARC
  5
445
  8
0
 10
83.0
 20
33.5
 30
0.0
 40
0.5000000000000009
 50
180.0
 51
270.0
  0
ARC
  5
446
  8
0
 10
73.0
 20
33.5
 30
0.0
 40
0.5
 50
270.0
 51
0.0
  0
ARC
  5
448
  8
0
 10
112.5
 20
33.500000000000028
 30
0.0
 40
0.5000000000000142
 50
180.0
 51
270.0
  0
ARC
  5
449
  8
0
 10
102.5
 20
33.5
 30
0.0
 40
0.4999999999999973
 50
270.0
 51
0.0
  0
LINE
  5
44A
  8
0
 10
72.782842712474604
 20
33.0
 30
0.0
 11
83.217157287525396
 21
33.0
 31
0.0
  0
ARC
  5
44B
  8
0
 10
83.217157287525396
 20
32.800000000000011
 30
0.0
 40
0.1999999999999915
 50
44.99999999999941
 51
90.0
  0
ARC
  5
44C
  8
0
 10
72.782842712474604
 20
32.800000000000011
 30
0.0
 40
0.1999999999999904
 50
90.0
 51
135.0000000000006
  0
LINE
  5
44D
  8
0
 10
102.2828427124746
 20
33.0
 30
0.0
 11
112.7171572875253
 21
33.0
 31
0.0
  0
ARC
  5
44E
  8
0
 10
112.7171572875253
 20
32.799999999999962
 30
0.0
 40
0.2000000000000433
 50
45.000000000006381
 51
90.0
  0
ARC
  5
44F
  8
0
 10
102.2828427124746
 20
32.799999999999983
 30
0.0
 40
0.2000000000000011
 50
90.0
 51
134.99999999999829
  0
LINE
  5
451
  8
0
 10
72.641421356237316
 20
32.941421356237299
 30
0.0
 11
72.058578643762701
 21
32.358578643762677
 31
0.0
  0
LINE
  5
452
  8
0
 10
83.941421356237285
 20
32.358578643762677
 30
0.0
 11
83.358578643762684
 21
32.941421356237299
 31
0.0
  0
LINE
  5
454
  8
0
 10
102.1414213562373
 20
32.941421356237299
 30
0.0
 11
101.5585786437627
 21
32.358578643762677
 31
0.0
  0
LINE
  5
455
  8
0
 10
113.4414213562373
 20
32.358578643762677
 30
0.0
 11
112.8585786437627
 21
32.941421356237299
 31
0.0
  0
LINE
  5
456
  8
0
 10
72.0
 20
30.0
 30
0.0
 11
84.0
 21
30.0
 31
0.0
  0
LINE
  5
457
  8
0
 10
84.0
 20
30.0
 30
0.0
 11
84.0
 21
32.217157287525403
 31
0.0
  0
LINE
  5
458
  8
0
 10
72.0
 20
32.217157287525403
 30
0.0
 11
72.0
 21
30.0
 31
0.0
  0
LINE
  5
459
  8
0
 10
72.0
 20
32.217157287525403
 30
0.0
 11
84.0
 21
32.217157287525403
 31
0.0
  0
ARC
  5
45B
  8
0
 10
83.799999999999997
 20
32.217157287525403
 30
0.0
 40
0.1999999999999877
 50
0.0
 51
45.000000000001748
  0
ARC
  5
45C
  8
0
 10
72.199999999999974
 20
32.217157287525403
 30
0.0
 40
0.1999999999999877
 50
134.99999999999821
 51
180.0
  0
ARC
  5
45E
  8
0
 10
113.3
 20
32.217157287525367
 30
0.0
 40
0.2000000000000171
 50
0.0
 51
44.999999999997108
  0
ARC
  5
45F
  8
0
 10
101.7
 20
32.217157287525367
 30
0.0
 40
0.2000000000000005
 50
135.0000000000004
 51
180.0
  0
LINE
  5
460
  8
0
 10
101.5
 20
32.217157287525403
 30
0.0
 11
113.5
 21
32.217157287525403
 31
0.0
  0
LINE
  5
461
  8
0
 10
101.5
 20
30.0
 30
0.0
 11
113.5
 21
30.0
 31
0.0
  0
LINE
  5
462
  8
0
 10
113.5
 20
30.0
 30
0.0
 11
113.5
 21
32.217157287525403
 31
0.0
  0
LINE
  5
463
  8
0
 10
101.5
 20
32.217157287525403
 30
0.0
 11
101.5
 21
30.0
 31
0.0
  0
LINE
  5
464
  8
2
 10
37.261109227115533
 20
44.0
 30
0.0
 11
34.738890772884467
 21
44.0
 31
0.0
  0
LINE
  5
465
  8
2
 10
34.738890772884467
 20
44.0
 30
0.0
 11
34.25
 21
30.0
 31
0.0
  0
LINE
  5
466
  8
2
 10
37.75
 20
30.0
 30
0.0
 11
37.261109227115533
 21
44.0
 31
0.0
  0
ARC
  5
467
  8
2
 10
36.0
 20
52.5
 30
0.0
 40
4.5
 50
180.0
 51
0.0
  0
LINE
  5
46A
  8
1
 10
29.0
 20
52.5
 30
0.0
 11
43.0
 21
52.5
 31
0.0
  0
LINE
  5
46B
  8
1
 10
36.0
 20
27.5
 30
0.0
 11
36.0
 21
59.5
 31
0.0
  0
LINE
  5
46C
  8
0
 10
40.499999999999993
 20
33.5
 30
0.0
 11
40.499999999999993
 21
52.5
 31
0.0
  0
LINE
  5
46D
  8
0
 10
31.5
 20
52.5
 30
0.0
 11
31.5
 21
33.5
 31
0.0
  0
ARC
  5
46E
  8
0
 10
36.0
 20
52.5
 30
0.0
 40
4.5
 50
0.0
 51
180.0
  0
ARC
  5
471
  8
0
 10
41.0
 20
33.5
 30
0.0
 40
0.5000000000000046
 50
180.0
 51
270.0
  0
ARC
  5
472
  8
0
 10
31.0
 20
33.5
 30
0.0
 40
0.5000000000000018
 50
270.0
 51
0.0
  0
LINE
  5
473
  8
0
 10
30.78284271247464
 20
33.0
 30
0.0
 11
41.21715728750371
 21
33.0
 31
0.0
  0
ARC
  5
474
  8
0
 10
41.217157287525417
 20
32.799999999999983
 30
0.0
 40
0.2000000000000056
 50
45.000000000001748
 51
90.0
  0
ARC
  5
475
  8
0
 10
30.78284271247464
 20
32.799999999999983
 30
0.0
 40
0.2000000000000046
 50
90.0
 51
134.99999999999821
  0
LINE
  5
477
  8
0
 10
30.64142135623732
 20
32.941421356237299
 30
0.0
 11
30.058578643762701
 21
32.358578643762677
 31
0.0
  0
LINE
  5
478
  8
0
 10
41.941421356237349
 20
32.358578643762677
 30
0.0
 11
41.358578643762712
 21
32.941421356237299
 31
0.0
  0
ARC
  5
47A
  8
0
 10
41.800000000000011
 20
32.217157287525403
 30
0.0
 40
0.1999999999999869
 50
0.0
 51
45.00000000000172
  0
ARC
  5
47B
  8
0
 10
30.199999999999989
 20
32.217157287525403
 30
0.0
 40
0.1999999999999849
 50
134.99999999999821
 51
180.0
  0
LINE
  5
47C
  8
0
 10
30.0
 20
32.217157287525403
 30
0.0
 11
42.0
 21
32.217157287525403
 31
0.0
  0
LINE
  5
47D
  8
0
 10
30.0
 20
30.0
 30
0.0
 11
42.0
 21
30.0
 31
0.0
  0
LINE
  5
47E
  8
0
 10
42.0
 20
30.0
 30
0.0
 11
42.0
 21
32.217157287525403
 31
0.0
  0
LINE
  5
47F
  8
0
 10
30.0
 20
32.217157287525403
 30
0.0
 11
30.0
 21
30.0
 31
0.0
  0
ARC
  5
482
  8
2
 10
107.5
 20
92.999999999999986
 30
0.0
 40
6.0
 50
131.409622109271
 51
228.590377890729
  0
ARC
  5
483
  8
2
 10
78.0
 20
92.999999999999986
 30
0.0
 40
6.0000000000000018
 50
311.40962210927103
 51
48.590377890728959
  0
ARC
  5
48E
  8
2
 10
107.5
 20
92.999999999999986
 30
0.0
 40
4.5
 50
90.0
 51
270.0
  0
ARC
  5
48F
  8
2
 10
78.0
 20
92.999999999999986
 30
0.0
 40
4.5
 50
270.0
 51
90.0
  0
LINE
  5
492
  8
1
 10
107.4999999999999
 20
84.499999999999986
 30
0.0
 11
107.4999999999999
 21
101.5
 31
0.0
  0
LINE
  5
493
  8
1
 10
69.5
 20
92.999999999999986
 30
0.0
 11
115.9999999999999
 21
92.999999999999986
 31
0.0
  0
LINE
  5
494
  8
1
 10
78.0
 20
84.499999999999986
 30
0.0
 11
78.0
 21
101.5
 31
0.0
  0
ARC
  5
495
  8
0
 10
107.4999999999999
 20
92.999999999999986
 30
0.0
 40
5.9999999999999929
 50
228.590377890729
 51
131.409622109271
  0
ARC
  5
496
  8
0
 10
78.0
 20
92.999999999999986
 30
0.0
 40
6.0
 50
48.590377890729009
 51
311.40962210927103
  0
ARC
  5
49B
  8
0
 10
78.0
 20
92.999999999999986
 30
0.0
 40
5.2171572875253842
 50
59.602832836821442
 51
300.39716716317849
  0
ARC
  5
49C
  8
0
 10
107.4999999999999
 20
92.999999999999986
 30
0.0
 40
5.2171572875253682
 50
239.60283283682151
 51
120.39716716317849
  0
ARC
  5
49F
  8
0
 10
78.0
 20
92.999999999999986
 30
0.0
 40
4.5
 50
90.0
 51
270.0
  0
ARC
  5
4A0
  8
0
 10
107.5
 20
92.999999999999986
 30
0.0
 40
4.5
 50
270.0
 51
90.0
  0
LINE
  5
4A1
  8
0
 10
107.5
 20
97.5
 30
0.0
 11
78.0
 21
97.5
 31
0.0
  0
LINE
  5
4A2
  8
0
 10
78.0
 20
88.499999999999986
 30
0.0
 11
107.5
 21
88.499999999999986
 31
0.0
  0
ENDSEC
  0
EOF
