  0
SECTION
  2
HEADER
  9
$ACADVER
  1
AC1009
  9
$INSBASE
 10
0.0
 20
0.0
 30
0.0
  9
$EXTMIN
 10
-0.0204638472032742
 20
-2.960436562073669
 30
0.0
  9
$EXTMAX
 10
277.50000000000011
 20
337.60000000000002
 30
0.0
  9
$LIMMIN
 10
0.0
 20
0.0
  9
$LIMMAX
 10
187.5
 20
135.0
  9
$ORTHOMODE
 70
     1
  9
$REGENMODE
 70
     1
  9
$FILLMODE
 70
     1
  9
$QTEXTMODE
 70
     0
  9
$MIRRTEXT
 70
     0
  9
$DRAGMODE
 70
     2
  9
$LTSCALE
 40
5.0
  9
$OSMODE
 70
    37
  9
$ATTMODE
 70
     1
  9
$TEXTSIZE
 40
4.0
  9
$TRACEWID
 40
0.05
  9
$TEXTSTYLE
  7
STANDARD
  9
$CLAYER
  8
0
  9
$CELTYPE
  6
BYLAYER
  9
$CECOLOR
 62
   256
  9
$DIMSCALE
 40
0.5
  9
$DIMASZ
 40
3.0
  9
$DIMEXO
 40
2.0
  9
$DIMDLI
 40
0.38
  9
$DIMRND
 40
0.0
  9
$DIMDLE
 40
0.0
  9
$DIMEXE
 40
2.0
  9
$DIMTP
 40
0.0
  9
$DIMTM
 40
0.0
  9
$DIMTXT
 40
3.0
  9
$DIMCEN
 40
0.0
  9
$DIMTSZ
 40
0.0
  9
$DIMTOL
 70
     0
  9
$DIMLIM
 70
     0
  9
$DIMTIH
 70
     0
  9
$DIMTOH
 70
     0
  9
$DIMSE1
 70
     0
  9
$DIMSE2
 70
     0
  9
$DIMTAD
 70
     1
  9
$DIMZIN
 70
     0
  9
$DIMBLK
  1

  9
$DIMASO
 70
     0
  9
$DIMSHO
 70
     0
  9
$DIMPOST
  1

  9
$DIMAPOST
  1

  9
$DIMALT
 70
     0
  9
$DIMALTD
 70
     2
  9
$DIMALTF
 40
25.399999999999999
  9
$DIMLFAC
 40
1.0
  9
$DIMTOFL
 70
     0
  9
$DIMTVP
 40
1.6000000000000001
  9
$DIMTIX
 70
     1
  9
$DIMSOXD
 70
     0
  9
$DIMSAH
 70
     0
  9
$DIMBLK1
  1

  9
$DIMBLK2
  1

  9
$DIMSTYLE
  2
STANDARD
  9
$DIMCLRD
 70
     0
  9
$DIMCLRE
 70
     0
  9
$DIMCLRT
 70
     0
  9
$DIMTFAC
 40
1.0
  9
$DIMGAP
 40
0.09
  9
$LUNITS
 70
     2
  9
$LUPREC
 70
     4
  9
$SKETCHINC
 40
0.1
  9
$FILLETRAD
 40
1.0
  9
$AUNITS
 70
     0
  9
$AUPREC
 70
     0
  9
$MENU
  1
E:\r13\win\SUPPORT\ACAD
  9
$ELEVATION
 40
0.0
  9
$PELEVATION
 40
0.0
  9
$THICKNESS
 40
0.0
  9
$LIMCHECK
 70
     0
  9
$BLIPMODE
 70
     0
  9
$CHAMFERA
 40
0.0
  9
$CHAMFERB
 40
0.0
  9
$SKPOLY
 70
     0
  9
$TDCREATE
 40
2449840.6143865739
  9
$TDUPDATE
 40
2458820.7243675808
  9
$TDINDWG
 40
0.456606331
  9
$TDUSRTIMER
 40
0.456606331
  9
$USRTIMER
 70
     1
  9
$ANGBASE
 50
0.0
  9
$ANGDIR
 70
     0
  9
$PDMODE
 70
     0
  9
$PDSIZE
 40
0.0
  9
$PLINEWID
 40
0.0
  9
$COORDS
 70
     1
  9
$SPLFRAME
 70
     0
  9
$SPLINETYPE
 70
     6
  9
$SPLINESEGS
 70
     8
  9
$ATTDIA
 70
     0
  9
$ATTREQ
 70
     1
  9
$HANDLING
 70
     1
  9
$HANDSEED
  5
32A8
  9
$SURFTAB1
 70
     6
  9
$SURFTAB2
 70
     6
  9
$SURFTYPE
 70
     6
  9
$SURFU
 70
     6
  9
$SURFV
 70
     6
  9
$UCSNAME
  2

  9
$UCSORG
 10
0.0
 20
0.0
 30
0.0
  9
$UCSXDIR
 10
1.0
 20
0.0
 30
0.0
  9
$UCSYDIR
 10
0.0
 20
1.0
 30
0.0
  9
$PUCSNAME
  2

  9
$PUCSORG
 10
0.0
 20
0.0
 30
0.0
  9
$PUCSXDIR
 10
1.0
 20
0.0
 30
0.0
  9
$PUCSYDIR
 10
0.0
 20
1.0
 30
0.0
  9
$USERI1
 70
     0
  9
$USERI2
 70
     1
  9
$USERI3
 70
     1
  9
$USERI4
 70
     0
  9
$USERI5
 70
     0
  9
$USERR1
 40
0.0
  9
$USERR2
 40
0.0
  9
$USERR3
 40
0.0
  9
$USERR4
 40
0.0
  9
$USERR5
 40
0.0
  9
$WORLDVIEW
 70
     1
  9
$SHADEDGE
 70
     3
  9
$SHADEDIF
 70
    70
  9
$TILEMODE
 70
     1
  9
$MAXACTVP
 70
    16
  9
$PLIMCHECK
 70
     0
  9
$PEXTMIN
 10
1.0000000000000000E+020
 20
1.0000000000000000E+020
 30
1.0000000000000000E+020
  9
$PEXTMAX
 10
-1.0000000000000000E+020
 20
-1.0000000000000000E+020
 30
-1.0000000000000000E+020
  9
$PLIMMIN
 10
0.0
 20
0.0
  9
$PLIMMAX
 10
12.0
 20
9.0
  9
$UNITMODE
 70
     0
  9
$VISRETAIN
 70
     0
  9
$PLINEGEN
 70
     0
  9
$PSLTSCALE
 70
     0
  0
ENDSEC
  0
SECTION
  2
TABLES
  0
TABLE
  2
VPORT
 70
     1
  0
VPORT
  2
*ACTIVE
 70
     0
 10
0.0
 20
0.0
 11
1.0
 21
1.0
 12
323.90483887119927
 22
167.3255567001971
 13
0.0
 23
0.0
 14
5.0
 24
5.0
 15
5.0
 25
5.0
 16
0.0
 26
0.0
 36
1.0
 17
0.0
 27
0.0
 37
0.0
 40
343.55071387786609
 41
2.415644171779141
 42
50.0
 43
0.0
 44
0.0
 50
0.0
 51
0.0
 71
     0
 72
   100
 73
     1
 74
     0
 75
     0
 76
     0
 77
     0
 78
     0
  0
ENDTAB
  0
TABLE
  2
LTYPE
 70
     4
  0
LTYPE
  2
CONTINUOUS
 70
     0
  3
Solid Line
 72
    65
 73
     0
 40
0.0
  0
LTYPE
  2
CENTER
 70
     0
  3
____ _ ____ _ ____ _ ____ _ ____ _ ____ _ ____
 72
    65
 73
     4
 40
2.0
 49
1.25
 49
-0.25
 49
0.25
 49
-0.25
  0
LTYPE
  2
HIDDEN
 70
     0
  3
_ _ _ _ _ _ _ _ _ _ _ _ _ _ _ _ _ _ _ _ _ _ _
 72
    65
 73
     2
 40
0.375
 49
0.25
 49
-0.125
  0
LTYPE
  2
PHANTOM2
 70
     0
  3
___ _ _ ___ _ _ ___ _ _ ___ _ _
 72
    65
 73
     6
 40
1.25
 49
0.625
 49
-0.125
 49
0.125
 49
-0.125
 49
0.125
 49
-0.125
  0
ENDTAB
  0
TABLE
  2
LAYER
 70
     3
  0
LAYER
  2
0
 70
     0
 62
     7
  6
CONTINUOUS
  0
LAYER
  2
1
 70
     0
 62
     1
  6
CENTER
  0
LAYER
  2
2
 70
     0
 62
     2
  6
HIDDEN
  0
ENDTAB
  0
TABLE
  2
STYLE
 70
     2
  0
STYLE
  2
STANDARD
 70
     0
 40
0.0
 41
1.0
 50
0.0
 71
     0
 42
4.0
  3
TXT
  4
BIGFONT
  0
STYLE
  2
STANDARD1
 70
     0
 40
0.0
 41
1.0
 50
0.0
 71
     0
 42
3.0
  3
txt
  4

  0
ENDTAB
  0
TABLE
  2
VIEW
 70
     1
  0
VIEW
  2
ALL
 70
     0
 40
179.66152299999999
 10
141.903918
 20
89.830760999999995
 41
0.0
 11
0.0
 21
0.0
 31
1.0
 12
0.0
 22
0.0
 32
0.0
 42
0.0
 43
0.0
 44
0.0
 50
0.0
 71
     0
  0
ENDTAB
  0
TABLE
  2
UCS
 70
     0
  0
ENDTAB
  0
TABLE
  2
APPID
 70
     5
  0
APPID
  2
ACAD
 70
     0
  0
APPID
  2
DCO15
 70
     0
  0
APPID
  2
ACAD_EXEMPT_FROM_CAD_STANDARDS
 70
     0
  0
APPID
  2
ACAD_MLEADERVER
 70
     0
  0
APPID
  2
ACAD_NAV_VCDISPLAY
 70
     0
  0
ENDTAB
  0
TABLE
  2
DIMSTYLE
 70
     1
  0
DIMSTYLE
  2
STANDARD
 70
     0
  3

  4

  5

  6

  7

 40
1.0
 41
0.18
 42
0.0625
 43
0.38
 44
0.18
 45
0.0
 46
0.0
 47
0.0
 48
0.0
140
0.18
141
0.09
142
0.0
143
25.399999999999999
144
1.0
145
0.0
146
1.0
147
0.09
 71
     0
 72
     0
 73
     1
 74
     1
 75
     0
 76
     0
 77
     0
 78
     0
170
     0
171
     2
172
     0
173
     0
174
     0
175
     0
176
     0
177
     0
178
     0
  0
ENDTAB
  0
ENDSEC
  0
SECTION
  2
BLOCKS
  0
BLOCK
  8
0
  2
$MODEL_SPACE
 70
     0
 10
0.0
 20
0.0
 30
0.0
  3
$MODEL_SPACE
  1

  0
ENDBLK
  5
1BD
  8
0
  0
BLOCK
 67
     1
  8
0
  2
$PAPER_SPACE
 70
     0
 10
0.0
 20
0.0
 30
0.0
  3
$PAPER_SPACE
  1

  0
ENDBLK
  5
1BB
 67
     1
  8
0
  0
ENDSEC
  0
SECTION
  2
ENTITIES
  0
TEXT
  5
189A
  8
0
 62
     3
 10
0.0
 20
0.0
 30
0.0
 40
10.0
  1
ABLP16070-SUS
  7
STANDARD1
  0
LINE
  5
2DAB
  8
2
 10
74.0
 20
207.09999999999999
 30
0.0
 11
74.0
 21
201.625236844917
 31
0.0
  0
LINE
  5
2DAC
  8
2
 10
86.0
 20
201.625236844917
 30
0.0
 11
86.0
 21
207.09999999999999
 31
0.0
  0
LINE
  5
2DAD
  8
0
 10
74.5
 20
207.59999999999999
 30
0.0
 11
74.0
 21
207.09999999999999
 31
0.0
  0
LINE
  5
2DAE
  8
0
 10
86.0
 20
207.09999999999999
 30
0.0
 11
85.5
 21
207.59999999999999
 31
0.0
  0
LINE
  5
2DAF
  8
0
 10
85.5
 20
207.59999999999999
 30
0.0
 11
74.5
 21
207.59999999999999
 31
0.0
  0
LINE
  5
2DB0
  8
0
 10
87.133974596215594
 20
85.0
 30
0.0
 11
88.0
 21
86.499999999999986
 31
0.0
  0
LINE
  5
2DB1
  8
0
 10
72.0
 20
86.499999999999986
 30
0.0
 11
72.86602540378442
 21
85.0
 31
0.0
  0
LINE
  5
2DB2
  8
0
 10
87.133974596215594
 20
85.0
 30
0.0
 11
72.86602540378442
 21
85.0
 31
0.0
  0
LINE
  5
2DB3
  8
0
 10
72.0
 20
168.09999999999999
 30
0.0
 11
72.0
 21
98.099999999999966
 31
0.0
  0
LINE
  5
2DB4
  8
0
 10
72.0
 20
91.599999999998886
 30
0.0
 11
72.0
 21
86.499999999999986
 31
0.0
  0
LINE
  5
2DB5
  8
0
 10
88.0
 20
86.499999999999986
 30
0.0
 11
88.0
 21
91.600000000000009
 31
0.0
  0
LINE
  5
2DB6
  8
0
 10
88.0
 20
98.100000000001117
 30
0.0
 11
88.0
 21
168.09999999999999
 31
0.0
  0
LINE
  5
2DB8
  8
0
 10
88.0
 20
86.499999999999986
 30
0.0
 11
72.0
 21
86.499999999999986
 31
0.0
  0
LINE
  5
2DBA
  8
0
 10
92.350000000000023
 20
185.09999999999999
 30
0.0
 11
67.649999999999963
 21
185.09999999999999
 31
0.0
  0
LINE
  5
2DBB
  8
0
 10
67.649999999999963
 20
186.59999999999999
 30
0.0
 11
67.649999999999963
 21
181.59999999999999
 31
0.0
  0
LINE
  5
2DBC
  8
0
 10
92.350000000000023
 20
181.59999999999999
 30
0.0
 11
92.350000000000023
 21
186.59999999999999
 31
0.0
  0
LINE
  5
2DBD
  8
0
 10
67.0
 20
180.94999999999999
 30
0.0
 11
67.0
 21
168.40000000000001
 31
0.0
  0
LINE
  5
2DBE
  8
0
 10
93.0
 20
168.40000000000001
 30
0.0
 11
93.0
 21
180.94999999999999
 31
0.0
  0
LINE
  5
2DBF
  8
0
 10
92.350000000000023
 20
186.59999999999999
 30
0.0
 11
93.0
 21
187.25
 31
0.0
  0
LINE
  5
2DC0
  8
0
 10
67.0
 20
187.25
 30
0.0
 11
67.649999999999963
 21
186.59999999999999
 31
0.0
  0
LINE
  5
2DC1
  8
0
 10
92.350000000000023
 20
186.59999999999999
 30
0.0
 11
67.649999999999963
 21
186.59999999999999
 31
0.0
  0
LINE
  5
2DC2
  8
0
 10
67.0
 20
194.59999999999999
 30
0.0
 11
67.0
 21
187.25
 31
0.0
  0
LINE
  5
2DC3
  8
0
 10
93.0
 20
187.25
 30
0.0
 11
93.0
 21
194.59999999999999
 31
0.0
  0
LINE
  5
2DC4
  8
0
 10
93.0
 20
187.25
 30
0.0
 11
67.0
 21
187.25
 31
0.0
  0
LINE
  5
2DC5
  8
0
 10
92.699999999999989
 20
168.09999999999999
 30
0.0
 11
93.0
 21
168.40000000000001
 31
0.0
  0
LINE
  5
2DC6
  8
0
 10
67.0
 20
168.40000000000001
 30
0.0
 11
67.300000000000011
 21
168.09999999999999
 31
0.0
  0
LINE
  5
2DC7
  8
0
 10
93.0
 20
168.40000000000001
 30
0.0
 11
67.0
 21
168.40000000000001
 31
0.0
  0
LINE
  5
2DC8
  8
0
 10
92.699999999999989
 20
168.09999999999999
 30
0.0
 11
67.300000000000011
 21
168.09999999999999
 31
0.0
  0
LINE
  5
2DC9
  8
0
 10
67.649999999999963
 20
181.59999999999999
 30
0.0
 11
67.0
 21
180.94999999999999
 31
0.0
  0
LINE
  5
2DCA
  8
0
 10
93.0
 20
180.94999999999999
 30
0.0
 11
92.350000000000023
 21
181.59999999999999
 31
0.0
  0
LINE
  5
2DCB
  8
0
 10
92.350000000000023
 20
181.59999999999999
 30
0.0
 11
67.649999999999963
 21
181.59999999999999
 31
0.0
  0
LINE
  5
2DCC
  8
0
 10
93.0
 20
180.94999999999999
 30
0.0
 11
67.0
 21
180.94999999999999
 31
0.0
  0
LINE
  5
2DCD
  8
0
 10
67.5
 20
195.09999999999999
 30
0.0
 11
67.0
 21
194.59999999999999
 31
0.0
  0
LINE
  5
2DCE
  8
0
 10
93.0
 20
194.59999999999999
 30
0.0
 11
92.5
 21
195.09999999999999
 31
0.0
  0
LINE
  5
2DCF
  8
0
 10
92.5
 20
195.09999999999999
 30
0.0
 11
67.5
 21
195.09999999999999
 31
0.0
  0
LINE
  5
2DD0
  8
0
 10
93.0
 20
194.59999999999999
 30
0.0
 11
67.0
 21
194.59999999999999
 31
0.0
  0
LINE
  5
2DD1
  8
2
 10
73.989999999999995
 20
201.625236844917
 30
0.0
 11
86.009999999999991
 21
201.625236844917
 31
0.0
  0
ARC
  5
2DD3
  8
2
 10
74.700000000000045
 20
211.59999999999999
 30
0.0
 40
10.00000000000002
 50
208.43689014885621
 51
265.92857407983092
  0
ARC
  5
2DD6
  8
2
 10
65.466907343690309
 20
206.59999999999999
 30
0.0
 40
0.5000000000000058
 50
28.436890148858829
 51
90.0
  0
LINE
  5
2DD7
  8
0
 10
64.5
 20
207.09999999999999
 30
0.0
 11
95.5
 21
207.09999999999999
 31
0.0
  0
ARC
  5
2DD8
  8
0
 10
95.004528723780425
 20
204.6495901945917
 30
0.0
 40
2.499999999999984
 50
3.4492218135919348
 51
78.568951989546875
  0
ARC
  5
2DD9
  8
0
 10
64.995471276219575
 20
204.6495901945917
 30
0.0
 40
2.4999999999999809
 50
101.4310480104531
 51
176.5507781864078
  0
LINE
  5
2DDC
  8
0
 10
62.5
 20
201.5988253263385
 30
0.0
 11
68.989999999999995
 21
195.09999999999999
 31
0.0
  0
LINE
  5
2DDE
  8
0
 10
62.5
 20
201.5988253263385
 30
0.0
 11
97.5
 21
201.5988253263385
 31
0.0
  0
LINE
  5
2DDF
  8
0
 10
62.5
 20
204.80000000000001
 30
0.0
 11
97.5
 21
204.80000000000001
 31
0.0
  0
LINE
  5
2DE0
  8
0
 10
97.5
 20
201.5988253263385
 30
0.0
 11
97.5
 21
204.80000000000001
 31
0.0
  0
LINE
  5
2DE1
  8
0
 10
62.5
 20
204.80000000000001
 30
0.0
 11
62.5
 21
201.5988253263385
 31
0.0
  0
LINE
  5
2DE2
  8
1
 10
80.0
 20
212.59999999999999
 30
0.0
 11
80.0
 21
80.0
 31
0.0
  0
LINE
  5
2DEA
  8
2
 10
254.0
 20
207.09999999999999
 30
0.0
 11
254.0
 21
201.625236844917
 31
0.0
  0
LINE
  5
2DEB
  8
2
 10
266.0
 20
201.625236844917
 30
0.0
 11
266.0
 21
207.09999999999999
 31
0.0
  0
LINE
  5
2DEC
  8
0
 10
265.5
 20
207.59999999999999
 30
0.0
 11
254.5
 21
207.59999999999999
 31
0.0
  0
LINE
  5
2DED
  8
0
 10
254.5
 20
207.59999999999999
 30
0.0
 11
254.0
 21
207.09999999999999
 31
0.0
  0
LINE
  5
2DEE
  8
0
 10
266.0
 20
207.09999999999999
 30
0.0
 11
265.5
 21
207.59999999999999
 31
0.0
  0
LINE
  5
2DEF
  8
0
 10
267.13397459621558
 20
85.0
 30
0.0
 11
252.86602540378439
 21
85.0
 31
0.0
  0
LINE
  5
2DF0
  8
0
 10
267.13397459621558
 20
85.0
 30
0.0
 11
268.0
 21
86.499999999999986
 31
0.0
  0
LINE
  5
2DF1
  8
0
 10
252.0
 20
86.499999999999986
 30
0.0
 11
252.86602540378439
 21
85.0
 31
0.0
  0
LINE
  5
2DF3
  8
0
 10
268.0
 20
86.499999999999986
 30
0.0
 11
252.0
 21
86.499999999999986
 31
0.0
  0
LINE
  5
2DF4
  8
0
 10
252.0
 20
168.09999999999999
 30
0.0
 11
252.0
 21
86.499999999999986
 31
0.0
  0
LINE
  5
2DF5
  8
0
 10
268.0
 20
86.499999999999986
 30
0.0
 11
268.0
 21
168.09999999999999
 31
0.0
  0
LINE
  5
2DF6
  8
0
 10
272.35000000000002
 20
185.09999999999999
 30
0.0
 11
247.65000000000001
 21
185.09999999999999
 31
0.0
  0
LINE
  5
2DF7
  8
0
 10
247.65000000000001
 20
186.59999999999999
 30
0.0
 11
247.65000000000001
 21
181.59999999999999
 31
0.0
  0
LINE
  5
2DF8
  8
0
 10
272.35000000000002
 20
181.59999999999999
 30
0.0
 11
272.35000000000002
 21
186.59999999999999
 31
0.0
  0
LINE
  5
2DF9
  8
0
 10
247.0
 20
180.94999999999999
 30
0.0
 11
247.0
 21
168.40000000000001
 31
0.0
  0
LINE
  5
2DFA
  8
0
 10
273.0
 20
168.40000000000001
 30
0.0
 11
273.0
 21
180.94999999999999
 31
0.0
  0
LINE
  5
2DFB
  8
0
 10
273.0
 20
168.40000000000001
 30
0.0
 11
247.0
 21
168.40000000000001
 31
0.0
  0
LINE
  5
2DFC
  8
0
 10
272.69999999999987
 20
168.09999999999999
 30
0.0
 11
247.3000000000001
 21
168.09999999999999
 31
0.0
  0
LINE
  5
2DFD
  8
0
 10
272.69999999999987
 20
168.09999999999999
 30
0.0
 11
273.0
 21
168.40000000000001
 31
0.0
  0
LINE
  5
2DFE
  8
0
 10
247.0
 20
168.40000000000001
 30
0.0
 11
247.3000000000001
 21
168.09999999999999
 31
0.0
  0
LINE
  5
2DFF
  8
0
 10
272.35000000000002
 20
186.59999999999999
 30
0.0
 11
247.65000000000001
 21
186.59999999999999
 31
0.0
  0
LINE
  5
2E00
  8
0
 10
272.35000000000002
 20
186.59999999999999
 30
0.0
 11
273.0
 21
187.25
 31
0.0
  0
LINE
  5
2E01
  8
0
 10
247.0
 20
187.25
 30
0.0
 11
247.65000000000001
 21
186.59999999999999
 31
0.0
  0
LINE
  5
2E02
  8
0
 10
273.0
 20
187.25
 30
0.0
 11
247.0
 21
187.25
 31
0.0
  0
LINE
  5
2E03
  8
0
 10
247.0
 20
194.59999999999999
 30
0.0
 11
247.0
 21
187.25
 31
0.0
  0
LINE
  5
2E04
  8
0
 10
273.0
 20
187.25
 30
0.0
 11
273.0
 21
194.59999999999999
 31
0.0
  0
LINE
  5
2E05
  8
0
 10
272.5
 20
195.09999999999999
 30
0.0
 11
247.5
 21
195.09999999999999
 31
0.0
  0
LINE
  5
2E06
  8
0
 10
273.0
 20
194.59999999999999
 30
0.0
 11
247.0
 21
194.59999999999999
 31
0.0
  0
LINE
  5
2E07
  8
0
 10
247.5
 20
195.09999999999999
 30
0.0
 11
247.0
 21
194.59999999999999
 31
0.0
  0
LINE
  5
2E08
  8
0
 10
273.0
 20
194.59999999999999
 30
0.0
 11
272.5
 21
195.09999999999999
 31
0.0
  0
LINE
  5
2E09
  8
0
 10
272.35000000000002
 20
181.59999999999999
 30
0.0
 11
247.65000000000001
 21
181.59999999999999
 31
0.0
  0
LINE
  5
2E0A
  8
0
 10
273.0
 20
180.94999999999999
 30
0.0
 11
247.0
 21
180.94999999999999
 31
0.0
  0
LINE
  5
2E0B
  8
0
 10
247.65000000000001
 20
181.59999999999999
 30
0.0
 11
247.0
 21
180.94999999999999
 31
0.0
  0
LINE
  5
2E0C
  8
0
 10
273.0
 20
180.94999999999999
 30
0.0
 11
272.35000000000002
 21
181.59999999999999
 31
0.0
  0
LINE
  5
2E0D
  8
2
 10
253.99000000000001
 20
201.625236844917
 30
0.0
 11
266.00999999999999
 21
201.625236844917
 31
0.0
  0
ARC
  5
2E0E
  8
2
 10
265.30000000000001
 20
211.59999999999999
 30
0.0
 40
10.00000000000003
 50
274.07142592016908
 51
331.56310985114379
  0
ARC
  5
2E0F
  8
2
 10
254.7000000000001
 20
211.59999999999999
 30
0.0
 40
10.00000000000002
 50
208.43689014885621
 51
265.92857407983092
  0
ARC
  5
2E10
  8
2
 10
274.53309265630969
 20
206.59999999999999
 30
0.0
 40
0.5000000000000071
 50
90.0
 51
151.56310985114061
  0
ARC
  5
2E11
  8
2
 10
245.46690734369031
 20
206.59999999999999
 30
0.0
 40
0.5000000000000058
 50
28.436890148859369
 51
90.0
  0
POLYLINE
  5
2E12
  8
0
 66
     1
 10
0.0
 20
0.0
 30
0.0
  0
VERTEX
  5
327A
  8
0
 10
258.5000000027992
 20
197.92532184823921
 30
0.0
  0
VERTEX
  5
327B
  8
0
 10
258.50344394839368
 20
198.02617207597351
 30
0.0
  0
VERTEX
  5
327C
  8
0
 10
258.56593029301467
 20
198.35652688060549
 30
0.0
  0
VERTEX
  5
327D
  8
0
 10
258.67183178530138
 20
198.6027945228424
 30
0.0
  0
VERTEX
  5
327E
  8
0
 10
258.83671461863503
 20
198.8380199875983
 30
0.0
  0
VERTEX
  5
327F
  8
0
 10
258.99429765979892
 20
198.9921795895626
 30
0.0
  0
VERTEX
  5
3280
  8
0
 10
259.19037369880181
 20
199.13002536882169
 30
0.0
  0
VERTEX
  5
3281
  8
0
 10
259.36594818072513
 20
199.21829408658061
 30
0.0
  0
VERTEX
  5
3282
  8
0
 10
259.56566802043699
 20
199.28763894639599
 30
0.0
  0
VERTEX
  5
3283
  8
0
 10
259.77547653447039
 20
199.3305007401234
 30
0.0
  0
VERTEX
  5
3284
  8
0
 10
260.00206677347819
 20
199.34576441301689
 30
0.0
  0
VERTEX
  5
3285
  8
0
 10
260.19241573841703
 20
199.33457287009031
 30
0.0
  0
VERTEX
  5
3286
  8
0
 10
260.38270246015247
 20
199.3008798410672
 30
0.0
  0
VERTEX
  5
3287
  8
0
 10
260.55575804563807
 20
199.2490746286669
 30
0.0
  0
VERTEX
  5
3288
  8
0
 10
260.71922703592628
 20
199.17902187032669
 30
0.0
  0
VERTEX
  5
3289
  8
0
 10
260.91811967459893
 20
199.05976288616699
 30
0.0
  0
VERTEX
  5
328A
  8
0
 10
261.09034701781462
 20
198.91546302442401
 30
0.0
  0
VERTEX
  5
328B
  8
0
 10
261.26659573199271
 20
198.70348187605421
 30
0.0
  0
VERTEX
  5
328C
  8
0
 10
261.39390688639088
 20
198.4664249643142
 30
0.0
  0
VERTEX
  5
328D
  8
0
 10
261.48265038337871
 20
198.15003896049461
 30
0.0
  0
VERTEX
  5
328E
  8
0
 10
261.4999997976762
 20
197.92463750667861
 30
0.0
  0
SEQEND
  5
328F
  8
0
  0
POLYLINE
  5
2E13
  8
0
 66
     1
 10
0.0
 20
0.0
 30
0.0
  0
VERTEX
  5
3290
  8
0
 10
261.4999997976762
 20
197.92463750667861
 30
0.0
  0
VERTEX
  5
3291
  8
0
 10
261.49589602737859
 20
197.81459061852721
 30
0.0
  0
VERTEX
  5
3292
  8
0
 10
261.43481731439238
 20
197.48295643251029
 30
0.0
  0
VERTEX
  5
3293
  8
0
 10
261.29500901777448
 20
197.15022529470249
 30
0.0
  0
VERTEX
  5
3294
  8
0
 10
261.12165806188688
 20
196.89573243659771
 30
0.0
  0
VERTEX
  5
3295
  8
0
 10
260.88085130745128
 20
196.65890040610921
 30
0.0
  0
SEQEND
  5
3296
  8
0
  0
LINE
  5
2E14
  8
0
 10
244.5
 20
207.09999999999999
 30
0.0
 11
275.5
 21
207.09999999999999
 31
0.0
  0
ARC
  5
2E15
  8
0
 10
275.00452872378048
 20
204.6495901945917
 30
0.0
 40
2.499999999999984
 50
3.4492218135921382
 51
78.568951989546875
  0
ARC
  5
2E16
  8
0
 10
244.99547127621949
 20
204.6495901945917
 30
0.0
 40
2.4999999999999809
 50
101.4310480104531
 51
176.5507781864078
  0
POLYLINE
  5
2E17
  8
0
 66
     1
 10
0.0
 20
0.0
 30
0.0
  0
VERTEX
  5
3297
  8
0
 10
260.88085130745128
 20
196.65890040610921
 30
0.0
  0
VERTEX
  5
3298
  8
0
 10
260.72261654312041
 20
196.54847688963699
 30
0.0
  0
VERTEX
  5
3299
  8
0
 10
260.54023419044432
 20
196.45431070354761
 30
0.0
  0
VERTEX
  5
329A
  8
0
 10
260.37425588327233
 20
196.39489143227439
 30
0.0
  0
VERTEX
  5
329B
  8
0
 10
260.19258404180141
 20
196.35563156984139
 30
0.0
  0
VERTEX
  5
329C
  8
0
 10
260.00914282477532
 20
196.34171751327889
 30
0.0
  0
VERTEX
  5
329D
  8
0
 10
259.81887068888949
 20
196.35401686371341
 30
0.0
  0
VERTEX
  5
329E
  8
0
 10
259.65726393104001
 20
196.3862057161476
 30
0.0
  0
VERTEX
  5
329F
  8
0
 10
259.50037845141162
 20
196.4375828627461
 30
0.0
  0
VERTEX
  5
32A0
  8
0
 10
259.30628696008392
 20
196.53135389455599
 30
0.0
  0
VERTEX
  5
32A1
  8
0
 10
259.13030768958367
 20
196.65011234214421
 30
0.0
  0
VERTEX
  5
32A2
  8
0
 10
258.92573381333341
 20
196.84082954938299
 30
0.0
  0
VERTEX
  5
32A3
  8
0
 10
258.76044837596771
 20
197.05735446800711
 30
0.0
  0
VERTEX
  5
32A4
  8
0
 10
258.60408212213031
 20
197.36766768825859
 30
0.0
  0
VERTEX
  5
32A5
  8
0
 10
258.51725679925681
 20
197.6976967516384
 30
0.0
  0
VERTEX
  5
32A6
  8
0
 10
258.5000000027992
 20
197.92532184823921
 30
0.0
  0
SEQEND
  5
32A7
  8
0
  0
LINE
  5
2E18
  8
0
 10
271.00999999999999
 20
195.09999999999999
 30
0.0
 11
277.5
 21
201.5988253263385
 31
0.0
  0
LINE
  5
2E19
  8
0
 10
242.5
 20
201.5988253263385
 30
0.0
 11
248.99000000000001
 21
195.09999999999999
 31
0.0
  0
LINE
  5
2E1A
  8
0
 10
242.5
 20
201.5988253263385
 30
0.0
 11
277.5
 21
201.5988253263385
 31
0.0
  0
LINE
  5
2E1B
  8
0
 10
242.5
 20
204.80000000000001
 30
0.0
 11
277.5
 21
204.80000000000001
 31
0.0
  0
LINE
  5
2E1C
  8
0
 10
277.5
 20
201.5988253263385
 30
0.0
 11
277.5
 21
204.80000000000001
 31
0.0
  0
LINE
  5
2E1D
  8
0
 10
242.5
 20
204.80000000000001
 30
0.0
 11
242.5
 21
201.5988253263385
 31
0.0
  0
LINE
  5
2E1E
  8
1
 10
260.0
 20
212.59999999999999
 30
0.0
 11
260.0
 21
80.0
 31
0.0
  0
ARC
  5
2E1F
  8
0
 10
80.000000000000171
 20
315.10000000000002
 30
0.0
 40
12.49999999999984
 50
356.37569250599171
 51
3.6243074940082751
  0
ARC
  5
2E20
  8
0
 10
80.000000000000696
 20
315.10000000000002
 30
0.0
 40
12.999999999999289
 50
354.4308043073583
 51
5.5691956926417028
  0
CIRCLE
  5
2E22
  8
0
 10
80.0
 20
315.10000000000002
 30
0.0
 40
17.5
  0
CIRCLE
  5
2E23
  8
0
 10
80.0
 20
315.10000000000002
 30
0.0
 40
15.49999999999998
  0
ARC
  5
2E25
  8
0
 10
80.0
 20
315.10000000000002
 30
0.0
 40
14.5330926563097
 50
5.1872105200469081
 51
354.8127894799531
  0
CIRCLE
  5
2E28
  8
0
 10
80.0
 20
315.10000000000002
 30
0.0
 40
6.0
  0
CIRCLE
  5
2E29
  8
0
 10
80.0
 20
315.10000000000002
 30
0.0
 40
5.5
  0
LINE
  5
2E2A
  8
1
 10
57.499999999999943
 20
315.10000000000002
 30
0.0
 11
102.4999999999999
 21
315.10000000000002
 31
0.0
  0
LINE
  5
2E2B
  8
1
 10
80.0
 20
292.60000000000002
 30
0.0
 11
80.0
 21
337.60000000000002
 31
0.0
  0
ARC
  5
2E38
  8
2
 10
85.299999999999955
 20
211.59999999999999
 30
0.0
 40
10.00000000000002
 50
274.07142592016908
 51
331.56310985114152
  0
ARC
  5
2E39
  8
2
 10
94.533092656309677
 20
206.59999999999999
 30
0.0
 40
0.5000000000000058
 50
90.0
 51
151.56310985114061
  0
LINE
  5
2E3A
  8
0
 10
97.5
 20
201.5988253263385
 30
0.0
 11
91.009999999999991
 21
195.09999999999999
 31
0.0
  0
CIRCLE
  5
2E3C
  8
0
 10
260.0
 20
94.849999999999994
 30
0.0
 40
3.25
  0
CIRCLE
  5
2E43
  8
0
 10
93.75
 20
315.10000000000002
 30
0.0
 40
1.5
  0
ARC
  5
3193
  8
0
 10
86.25
 20
94.850000000000009
 30
0.0
 40
3.250000000000004
 50
299.11805997685599
 51
60.881940023151287
  0
LINE
  5
3194
  8
1
 10
251.75
 20
94.850000000000009
 30
0.0
 11
268.25
 21
94.849999999999994
 31
0.0
  0
ARC
  5
3195
  8
0
 10
95.336729118003973
 20
94.850000000000534
 30
0.0
 40
8.0243438455098026
 50
156.10777374256659
 51
203.89222625743341
  0
LINE
  5
3196
  8
1
 10
84.312385272494168
 20
94.850000000000563
 30
0.0
 11
92.5
 21
94.850000000000009
 31
0.0
  0
ARC
  5
3197
  8
0
 10
73.75
 20
94.850000000000009
 30
0.0
 40
3.250000000000004
 50
119.1180599768487
 51
240.88194002314401
  0
ARC
  5
3198
  8
0
 10
64.663270881996013
 20
94.850000000000534
 30
0.0
 40
8.0243438455098026
 50
336.10777374256662
 51
23.892226257433389
  0
LINE
  5
3199
  8
1
 10
75.687614727505832
 20
94.850000000000563
 30
0.0
 11
67.5
 21
94.850000000000009
 31
0.0
  0
LINE
  5
31A1
  8
1
 10
93.75
 20
192.84372594671299
 30
0.0
 11
93.75
 21
212.09999999999999
 31
0.0
  0
ENDSEC
  0
EOF
