  0
SECTION
  2
HEADER
  9
$ACADVER
  1
AC1009
  9
$INSBASE
 10
0.0
 20
0.0
 30
0.0
  9
$EXTMIN
 10
-0.0204638472032742
 20
-2.960436562073669
 30
0.0
  9
$EXTMAX
 10
247.5
 20
299.39999999999998
 30
0.0
  9
$LIMMIN
 10
0.0
 20
0.0
  9
$LIMMAX
 10
187.5
 20
135.0
  9
$ORTHOMODE
 70
     1
  9
$REGENMODE
 70
     1
  9
$FILLMODE
 70
     1
  9
$QTEXTMODE
 70
     0
  9
$MIRRTEXT
 70
     0
  9
$DRAGMODE
 70
     2
  9
$LTSCALE
 40
5.0
  9
$OSMODE
 70
    37
  9
$ATTMODE
 70
     1
  9
$TEXTSIZE
 40
4.0
  9
$TRACEWID
 40
0.05
  9
$TEXTSTYLE
  7
STANDARD
  9
$CLAYER
  8
0
  9
$CELTYPE
  6
BYLAYER
  9
$CECOLOR
 62
   256
  9
$DIMSCALE
 40
0.5
  9
$DIMASZ
 40
3.0
  9
$DIMEXO
 40
2.0
  9
$DIMDLI
 40
0.38
  9
$DIMRND
 40
0.0
  9
$DIMDLE
 40
0.0
  9
$DIMEXE
 40
2.0
  9
$DIMTP
 40
0.0
  9
$DIMTM
 40
0.0
  9
$DIMTXT
 40
3.0
  9
$DIMCEN
 40
0.0
  9
$DIMTSZ
 40
0.0
  9
$DIMTOL
 70
     0
  9
$DIMLIM
 70
     0
  9
$DIMTIH
 70
     0
  9
$DIMTOH
 70
     0
  9
$DIMSE1
 70
     0
  9
$DIMSE2
 70
     0
  9
$DIMTAD
 70
     1
  9
$DIMZIN
 70
     0
  9
$DIMBLK
  1

  9
$DIMASO
 70
     0
  9
$DIMSHO
 70
     0
  9
$DIMPOST
  1

  9
$DIMAPOST
  1

  9
$DIMALT
 70
     0
  9
$DIMALTD
 70
     2
  9
$DIMALTF
 40
25.399999999999999
  9
$DIMLFAC
 40
1.0
  9
$DIMTOFL
 70
     0
  9
$DIMTVP
 40
1.6000000000000001
  9
$DIMTIX
 70
     1
  9
$DIMSOXD
 70
     0
  9
$DIMSAH
 70
     0
  9
$DIMBLK1
  1

  9
$DIMBLK2
  1

  9
$DIMSTYLE
  2
STANDARD
  9
$DIMCLRD
 70
     0
  9
$DIMCLRE
 70
     0
  9
$DIMCLRT
 70
     0
  9
$DIMTFAC
 40
1.0
  9
$DIMGAP
 40
0.09
  9
$LUNITS
 70
     2
  9
$LUPREC
 70
     4
  9
$SKETCHINC
 40
0.1
  9
$FILLETRAD
 40
1.0
  9
$AUNITS
 70
     0
  9
$AUPREC
 70
     0
  9
$MENU
  1
E:\r13\win\SUPPORT\ACAD
  9
$ELEVATION
 40
0.0
  9
$PELEVATION
 40
0.0
  9
$THICKNESS
 40
0.0
  9
$LIMCHECK
 70
     0
  9
$BLIPMODE
 70
     0
  9
$CHAMFERA
 40
0.0
  9
$CHAMFERB
 40
0.0
  9
$SKPOLY
 70
     0
  9
$TDCREATE
 40
2449840.6143865739
  9
$TDUPDATE
 40
2458820.724311945
  9
$TDINDWG
 40
0.4352759259
  9
$TDUSRTIMER
 40
0.4352759259
  9
$USRTIMER
 70
     1
  9
$ANGBASE
 50
0.0
  9
$ANGDIR
 70
     0
  9
$PDMODE
 70
     0
  9
$PDSIZE
 40
0.0
  9
$PLINEWID
 40
0.0
  9
$COORDS
 70
     1
  9
$SPLFRAME
 70
     0
  9
$SPLINETYPE
 70
     6
  9
$SPLINESEGS
 70
     8
  9
$ATTDIA
 70
     0
  9
$ATTREQ
 70
     1
  9
$HANDLING
 70
     1
  9
$HANDSEED
  5
2D32
  9
$SURFTAB1
 70
     6
  9
$SURFTAB2
 70
     6
  9
$SURFTYPE
 70
     6
  9
$SURFU
 70
     6
  9
$SURFV
 70
     6
  9
$UCSNAME
  2

  9
$UCSORG
 10
0.0
 20
0.0
 30
0.0
  9
$UCSXDIR
 10
1.0
 20
0.0
 30
0.0
  9
$UCSYDIR
 10
0.0
 20
1.0
 30
0.0
  9
$PUCSNAME
  2

  9
$PUCSORG
 10
0.0
 20
0.0
 30
0.0
  9
$PUCSXDIR
 10
1.0
 20
0.0
 30
0.0
  9
$PUCSYDIR
 10
0.0
 20
1.0
 30
0.0
  9
$USERI1
 70
     0
  9
$USERI2
 70
     1
  9
$USERI3
 70
     1
  9
$USERI4
 70
     0
  9
$USERI5
 70
     0
  9
$USERR1
 40
0.0
  9
$USERR2
 40
0.0
  9
$USERR3
 40
0.0
  9
$USERR4
 40
0.0
  9
$USERR5
 40
0.0
  9
$WORLDVIEW
 70
     1
  9
$SHADEDGE
 70
     3
  9
$SHADEDIF
 70
    70
  9
$TILEMODE
 70
     1
  9
$MAXACTVP
 70
    16
  9
$PLIMCHECK
 70
     0
  9
$PEXTMIN
 10
1.0000000000000000E+020
 20
1.0000000000000000E+020
 30
1.0000000000000000E+020
  9
$PEXTMAX
 10
-1.0000000000000000E+020
 20
-1.0000000000000000E+020
 30
-1.0000000000000000E+020
  9
$PLIMMIN
 10
0.0
 20
0.0
  9
$PLIMMAX
 10
12.0
 20
9.0
  9
$UNITMODE
 70
     0
  9
$VISRETAIN
 70
     0
  9
$PLINEGEN
 70
     0
  9
$PSLTSCALE
 70
     0
  0
ENDSEC
  0
SECTION
  2
TABLES
  0
TABLE
  2
VPORT
 70
     1
  0
VPORT
  2
*ACTIVE
 70
     0
 10
0.0
 20
0.0
 11
1.0
 21
1.0
 12
288.1321388371731
 22
148.21533350372991
 13
0.0
 23
0.0
 14
5.0
 24
5.0
 15
5.0
 25
5.0
 16
0.0
 26
0.0
 36
1.0
 17
0.0
 27
0.0
 37
0.0
 40
305.02310193391321
 41
2.415644171779141
 42
50.0
 43
0.0
 44
0.0
 50
0.0
 51
0.0
 71
     0
 72
   100
 73
     1
 74
     0
 75
     0
 76
     0
 77
     0
 78
     0
  0
ENDTAB
  0
TABLE
  2
LTYPE
 70
     4
  0
LTYPE
  2
CONTINUOUS
 70
     0
  3
Solid Line
 72
    65
 73
     0
 40
0.0
  0
LTYPE
  2
CENTER
 70
     0
  3
____ _ ____ _ ____ _ ____ _ ____ _ ____ _ ____
 72
    65
 73
     4
 40
2.0
 49
1.25
 49
-0.25
 49
0.25
 49
-0.25
  0
LTYPE
  2
HIDDEN
 70
     0
  3
_ _ _ _ _ _ _ _ _ _ _ _ _ _ _ _ _ _ _ _ _ _ _
 72
    65
 73
     2
 40
0.375
 49
0.25
 49
-0.125
  0
LTYPE
  2
PHANTOM2
 70
     0
  3
___ _ _ ___ _ _ ___ _ _ ___ _ _
 72
    65
 73
     6
 40
1.25
 49
0.625
 49
-0.125
 49
0.125
 49
-0.125
 49
0.125
 49
-0.125
  0
ENDTAB
  0
TABLE
  2
LAYER
 70
     3
  0
LAYER
  2
0
 70
     0
 62
     7
  6
CONTINUOUS
  0
LAYER
  2
1
 70
     0
 62
     1
  6
CENTER
  0
LAYER
  2
2
 70
     0
 62
     2
  6
HIDDEN
  0
ENDTAB
  0
TABLE
  2
STYLE
 70
     2
  0
STYLE
  2
STANDARD
 70
     0
 40
0.0
 41
1.0
 50
0.0
 71
     0
 42
4.0
  3
TXT
  4
BIGFONT
  0
STYLE
  2
STANDARD1
 70
     0
 40
0.0
 41
1.0
 50
0.0
 71
     0
 42
3.0
  3
txt
  4

  0
ENDTAB
  0
TABLE
  2
VIEW
 70
     1
  0
VIEW
  2
ALL
 70
     0
 40
179.66152299999999
 10
141.903918
 20
89.830760999999995
 41
0.0
 11
0.0
 21
0.0
 31
1.0
 12
0.0
 22
0.0
 32
0.0
 42
0.0
 43
0.0
 44
0.0
 50
0.0
 71
     0
  0
ENDTAB
  0
TABLE
  2
UCS
 70
     0
  0
ENDTAB
  0
TABLE
  2
APPID
 70
     5
  0
APPID
  2
ACAD
 70
     0
  0
APPID
  2
DCO15
 70
     0
  0
APPID
  2
ACAD_EXEMPT_FROM_CAD_STANDARDS
 70
     0
  0
APPID
  2
ACAD_MLEADERVER
 70
     0
  0
APPID
  2
ACAD_NAV_VCDISPLAY
 70
     0
  0
ENDTAB
  0
TABLE
  2
DIMSTYLE
 70
     1
  0
DIMSTYLE
  2
STANDARD
 70
     0
  3

  4

  5

  6

  7

 40
1.0
 41
0.18
 42
0.0625
 43
0.38
 44
0.18
 45
0.0
 46
0.0
 47
0.0
 48
0.0
140
0.18
141
0.09
142
0.0
143
25.399999999999999
144
1.0
145
0.0
146
1.0
147
0.09
 71
     0
 72
     0
 73
     1
 74
     1
 75
     0
 76
     0
 77
     0
 78
     0
170
     0
171
     2
172
     0
173
     0
174
     0
175
     0
176
     0
177
     0
178
     0
  0
ENDTAB
  0
ENDSEC
  0
SECTION
  2
BLOCKS
  0
BLOCK
  8
0
  2
$MODEL_SPACE
 70
     0
 10
0.0
 20
0.0
 30
0.0
  3
$MODEL_SPACE
  1

  0
ENDBLK
  5
1BD
  8
0
  0
BLOCK
 67
     1
  8
0
  2
$PAPER_SPACE
 70
     0
 10
0.0
 20
0.0
 30
0.0
  3
$PAPER_SPACE
  1

  0
ENDBLK
  5
1BB
 67
     1
  8
0
  0
ENDSEC
  0
SECTION
  2
ENTITIES
  0
TEXT
  5
189A
  8
0
 62
     3
 10
0.0
 20
0.0
 30
0.0
 40
10.0
  1
ABLP12035-SUS
  7
STANDARD1
  0
LINE
  5
29FB
  8
0
 10
74.5
 20
169.40000000000001
 30
0.0
 11
74.0
 21
168.90000000000001
 31
0.0
  0
LINE
  5
29FC
  8
0
 10
86.0
 20
168.90000000000001
 30
0.0
 11
85.5
 21
169.40000000000001
 31
0.0
  0
LINE
  5
29FD
  8
0
 10
85.5
 20
169.40000000000001
 30
0.0
 11
74.5
 21
169.40000000000001
 31
0.0
  0
LINE
  5
29FE
  8
2
 10
74.0
 20
168.90000000000001
 30
0.0
 11
74.0
 21
163.42523684491701
 31
0.0
  0
LINE
  5
29FF
  8
2
 10
86.0
 20
163.42523684491701
 30
0.0
 11
86.0
 21
168.90000000000001
 31
0.0
  0
LINE
  5
2A00
  8
0
 10
85.13397459621558
 20
85.0
 30
0.0
 11
86.0
 21
86.5
 31
0.0
  0
LINE
  5
2A01
  8
0
 10
74.0
 20
86.5
 30
0.0
 11
74.866025403784406
 21
85.0
 31
0.0
  0
LINE
  5
2A02
  8
0
 10
85.13397459621558
 20
85.0
 30
0.0
 11
74.866025403784406
 21
85.0
 31
0.0
  0
LINE
  5
2A03
  8
0
 10
74.0
 20
129.90000000000001
 30
0.0
 11
74.0
 21
94.900000000000105
 31
0.0
  0
LINE
  5
2A04
  8
0
 10
74.0
 20
90.399999999999835
 30
0.0
 11
74.0
 21
86.5
 31
0.0
  0
LINE
  5
2A05
  8
0
 10
86.0
 20
86.5
 30
0.0
 11
86.0
 21
90.399999999999906
 31
0.0
  0
LINE
  5
2A06
  8
0
 10
86.0
 20
94.90000000000019
 30
0.0
 11
86.0
 21
129.90000000000001
 31
0.0
  0
LINE
  5
2A08
  8
0
 10
86.0
 20
86.5
 30
0.0
 11
74.0
 21
86.5
 31
0.0
  0
LINE
  5
2A0A
  8
0
 10
92.350000000000023
 20
146.90000000000001
 30
0.0
 11
67.649999999999963
 21
146.90000000000001
 31
0.0
  0
LINE
  5
2A0B
  8
0
 10
67.649999999999963
 20
148.40000000000001
 30
0.0
 11
67.649999999999963
 21
143.40000000000001
 31
0.0
  0
LINE
  5
2A0C
  8
0
 10
92.350000000000023
 20
143.40000000000001
 30
0.0
 11
92.350000000000023
 21
148.40000000000001
 31
0.0
  0
LINE
  5
2A0D
  8
0
 10
67.0
 20
142.75
 30
0.0
 11
67.0
 21
130.19999999999999
 31
0.0
  0
LINE
  5
2A0E
  8
0
 10
93.0
 20
130.19999999999999
 30
0.0
 11
93.0
 21
142.75
 31
0.0
  0
LINE
  5
2A0F
  8
0
 10
92.350000000000023
 20
148.40000000000001
 30
0.0
 11
93.0
 21
149.05000000000001
 31
0.0
  0
LINE
  5
2A10
  8
0
 10
67.0
 20
149.05000000000001
 30
0.0
 11
67.649999999999963
 21
148.40000000000001
 31
0.0
  0
LINE
  5
2A11
  8
0
 10
92.350000000000023
 20
148.40000000000001
 30
0.0
 11
67.649999999999963
 21
148.40000000000001
 31
0.0
  0
LINE
  5
2A12
  8
0
 10
67.0
 20
156.40000000000001
 30
0.0
 11
67.0
 21
149.05000000000001
 31
0.0
  0
LINE
  5
2A13
  8
0
 10
93.0
 20
149.05000000000001
 30
0.0
 11
93.0
 21
156.40000000000001
 31
0.0
  0
LINE
  5
2A14
  8
0
 10
93.0
 20
149.05000000000001
 30
0.0
 11
67.0
 21
149.05000000000001
 31
0.0
  0
LINE
  5
2A15
  8
0
 10
92.699999999999989
 20
129.90000000000001
 30
0.0
 11
93.0
 21
130.19999999999999
 31
0.0
  0
LINE
  5
2A16
  8
0
 10
67.0
 20
130.19999999999999
 30
0.0
 11
67.300000000000011
 21
129.90000000000001
 31
0.0
  0
LINE
  5
2A17
  8
0
 10
93.0
 20
130.19999999999999
 30
0.0
 11
67.0
 21
130.19999999999999
 31
0.0
  0
LINE
  5
2A18
  8
0
 10
92.699999999999989
 20
129.90000000000001
 30
0.0
 11
67.300000000000011
 21
129.90000000000001
 31
0.0
  0
LINE
  5
2A19
  8
0
 10
67.649999999999963
 20
143.40000000000001
 30
0.0
 11
67.0
 21
142.75
 31
0.0
  0
LINE
  5
2A1A
  8
0
 10
93.0
 20
142.75
 30
0.0
 11
92.350000000000023
 21
143.40000000000001
 31
0.0
  0
LINE
  5
2A1B
  8
0
 10
92.350000000000023
 20
143.40000000000001
 30
0.0
 11
67.649999999999963
 21
143.40000000000001
 31
0.0
  0
LINE
  5
2A1C
  8
0
 10
93.0
 20
142.75
 30
0.0
 11
67.0
 21
142.75
 31
0.0
  0
LINE
  5
2A1D
  8
0
 10
67.5
 20
156.90000000000001
 30
0.0
 11
67.0
 21
156.40000000000001
 31
0.0
  0
LINE
  5
2A1E
  8
0
 10
93.0
 20
156.40000000000001
 30
0.0
 11
92.5
 21
156.90000000000001
 31
0.0
  0
LINE
  5
2A1F
  8
0
 10
92.5
 20
156.90000000000001
 30
0.0
 11
67.5
 21
156.90000000000001
 31
0.0
  0
LINE
  5
2A20
  8
0
 10
93.0
 20
156.40000000000001
 30
0.0
 11
67.0
 21
156.40000000000001
 31
0.0
  0
LINE
  5
2A21
  8
2
 10
73.989999999999995
 20
163.42523684491701
 30
0.0
 11
86.009999999999991
 21
163.42523684491701
 31
0.0
  0
ARC
  5
2A22
  8
2
 10
74.700000000000045
 20
173.40000000000001
 30
0.0
 40
10.00000000000002
 50
208.43689014885581
 51
265.92857407983092
  0
ARC
  5
2A23
  8
2
 10
65.466907343690309
 20
168.40000000000001
 30
0.0
 40
0.5000000000000058
 50
28.436890148859099
 51
90.0
  0
LINE
  5
2A24
  8
0
 10
64.5
 20
168.90000000000001
 30
0.0
 11
95.5
 21
168.90000000000001
 31
0.0
  0
ARC
  5
2A25
  8
0
 10
95.004528723780425
 20
166.44959019459171
 30
0.0
 40
2.499999999999984
 50
3.4492218135920361
 51
78.568951989546875
  0
ARC
  5
2A26
  8
0
 10
64.995471276219575
 20
166.44959019459171
 30
0.0
 40
2.4999999999999809
 50
101.4310480104531
 51
176.55077818640791
  0
LINE
  5
2A29
  8
0
 10
62.5
 20
163.39882532633851
 30
0.0
 11
68.989999999999995
 21
156.90000000000001
 31
0.0
  0
LINE
  5
2A2B
  8
0
 10
62.5
 20
163.39882532633851
 30
0.0
 11
97.5
 21
163.39882532633851
 31
0.0
  0
LINE
  5
2A2C
  8
0
 10
62.5
 20
166.59999999999999
 30
0.0
 11
97.5
 21
166.59999999999999
 31
0.0
  0
LINE
  5
2A2D
  8
0
 10
97.5
 20
163.39882532633851
 30
0.0
 11
97.5
 21
166.59999999999999
 31
0.0
  0
LINE
  5
2A2E
  8
0
 10
62.5
 20
166.59999999999999
 30
0.0
 11
62.5
 21
163.39882532633851
 31
0.0
  0
LINE
  5
2A2F
  8
1
 10
80.0
 20
174.40000000000001
 30
0.0
 11
80.0
 21
80.0
 31
0.0
  0
CIRCLE
  5
2A37
  8
0
 10
80.0
 20
276.89999999999998
 30
0.0
 40
17.5
  0
CIRCLE
  5
2A38
  8
0
 10
80.0
 20
276.89999999999998
 30
0.0
 40
15.49999999999998
  0
ARC
  5
2A3A
  8
0
 10
80.0
 20
276.89999999999998
 30
0.0
 40
14.5330926563097
 50
5.1872105200469081
 51
354.8127894799531
  0
CIRCLE
  5
2A3D
  8
0
 10
80.0
 20
276.89999999999998
 30
0.0
 40
6.0
  0
CIRCLE
  5
2A3E
  8
0
 10
80.0
 20
276.89999999999998
 30
0.0
 40
5.5
  0
LINE
  5
2A3F
  8
1
 10
57.5
 20
276.89999999999998
 30
0.0
 11
102.5
 21
276.89999999999998
 31
0.0
  0
LINE
  5
2A40
  8
1
 10
80.0
 20
254.40000000000001
 30
0.0
 11
80.0
 21
299.39999999999998
 31
0.0
  0
LINE
  5
2A41
  8
2
 10
224.0
 20
168.90000000000001
 30
0.0
 11
224.0
 21
163.42523684491701
 31
0.0
  0
LINE
  5
2A42
  8
2
 10
236.0
 20
163.42523684491701
 30
0.0
 11
236.0
 21
168.90000000000001
 31
0.0
  0
LINE
  5
2A43
  8
0
 10
235.5
 20
169.40000000000001
 30
0.0
 11
224.5
 21
169.40000000000001
 31
0.0
  0
LINE
  5
2A44
  8
0
 10
224.5
 20
169.40000000000001
 30
0.0
 11
224.0
 21
168.90000000000001
 31
0.0
  0
LINE
  5
2A45
  8
0
 10
236.0
 20
168.90000000000001
 30
0.0
 11
235.5
 21
169.40000000000001
 31
0.0
  0
LINE
  5
2A46
  8
0
 10
235.13397459621561
 20
85.0
 30
0.0
 11
224.86602540378439
 21
85.0
 31
0.0
  0
LINE
  5
2A47
  8
0
 10
235.13397459621561
 20
85.0
 30
0.0
 11
236.0
 21
86.5
 31
0.0
  0
LINE
  5
2A48
  8
0
 10
224.0
 20
86.5
 30
0.0
 11
224.86602540378439
 21
85.0
 31
0.0
  0
LINE
  5
2A4A
  8
0
 10
236.0
 20
86.5
 30
0.0
 11
224.0
 21
86.5
 31
0.0
  0
LINE
  5
2A4B
  8
0
 10
224.0
 20
129.90000000000001
 30
0.0
 11
224.0
 21
86.5
 31
0.0
  0
LINE
  5
2A4C
  8
0
 10
236.0
 20
86.5
 30
0.0
 11
236.0
 21
129.90000000000001
 31
0.0
  0
LINE
  5
2A4D
  8
0
 10
217.65000000000001
 20
148.40000000000001
 30
0.0
 11
217.65000000000001
 21
143.40000000000001
 31
0.0
  0
LINE
  5
2A4E
  8
0
 10
242.34999999999999
 20
143.40000000000001
 30
0.0
 11
242.34999999999999
 21
148.40000000000001
 31
0.0
  0
LINE
  5
2A4F
  8
0
 10
217.0
 20
142.75
 30
0.0
 11
217.0
 21
130.19999999999999
 31
0.0
  0
LINE
  5
2A50
  8
0
 10
243.0
 20
130.19999999999999
 30
0.0
 11
243.0
 21
142.75
 31
0.0
  0
LINE
  5
2A51
  8
0
 10
243.0
 20
130.19999999999999
 30
0.0
 11
217.0
 21
130.19999999999999
 31
0.0
  0
LINE
  5
2A52
  8
0
 10
242.69999999999999
 20
129.90000000000001
 30
0.0
 11
217.30000000000001
 21
129.90000000000001
 31
0.0
  0
LINE
  5
2A53
  8
0
 10
242.69999999999999
 20
129.90000000000001
 30
0.0
 11
243.0
 21
130.19999999999999
 31
0.0
  0
LINE
  5
2A54
  8
0
 10
217.0
 20
130.19999999999999
 30
0.0
 11
217.30000000000001
 21
129.90000000000001
 31
0.0
  0
LINE
  5
2A55
  8
0
 10
242.34999999999999
 20
148.40000000000001
 30
0.0
 11
217.65000000000001
 21
148.40000000000001
 31
0.0
  0
LINE
  5
2A56
  8
0
 10
242.34999999999999
 20
148.40000000000001
 30
0.0
 11
243.0
 21
149.05000000000001
 31
0.0
  0
LINE
  5
2A57
  8
0
 10
217.0
 20
149.05000000000001
 30
0.0
 11
217.65000000000001
 21
148.40000000000001
 31
0.0
  0
LINE
  5
2A58
  8
0
 10
243.0
 20
149.05000000000001
 30
0.0
 11
217.0
 21
149.05000000000001
 31
0.0
  0
LINE
  5
2A59
  8
0
 10
217.0
 20
156.40000000000001
 30
0.0
 11
217.0
 21
149.05000000000001
 31
0.0
  0
LINE
  5
2A5A
  8
0
 10
243.0
 20
149.05000000000001
 30
0.0
 11
243.0
 21
156.40000000000001
 31
0.0
  0
LINE
  5
2A5B
  8
0
 10
242.5
 20
156.90000000000001
 30
0.0
 11
217.5
 21
156.90000000000001
 31
0.0
  0
LINE
  5
2A5C
  8
0
 10
243.0
 20
156.40000000000001
 30
0.0
 11
217.0
 21
156.40000000000001
 31
0.0
  0
LINE
  5
2A5D
  8
0
 10
217.5
 20
156.90000000000001
 30
0.0
 11
217.0
 21
156.40000000000001
 31
0.0
  0
LINE
  5
2A5E
  8
0
 10
243.0
 20
156.40000000000001
 30
0.0
 11
242.5
 21
156.90000000000001
 31
0.0
  0
LINE
  5
2A5F
  8
0
 10
242.34999999999999
 20
143.40000000000001
 30
0.0
 11
217.65000000000001
 21
143.40000000000001
 31
0.0
  0
LINE
  5
2A60
  8
0
 10
243.0
 20
142.75
 30
0.0
 11
217.0
 21
142.75
 31
0.0
  0
LINE
  5
2A61
  8
0
 10
217.65000000000001
 20
143.40000000000001
 30
0.0
 11
217.0
 21
142.75
 31
0.0
  0
LINE
  5
2A62
  8
0
 10
243.0
 20
142.75
 30
0.0
 11
242.34999999999999
 21
143.40000000000001
 31
0.0
  0
LINE
  5
2A63
  8
2
 10
223.99000000000001
 20
163.42523684491701
 30
0.0
 11
236.00999999999999
 21
163.42523684491701
 31
0.0
  0
ARC
  5
2A64
  8
2
 10
235.30000000000001
 20
173.40000000000001
 30
0.0
 40
10.00000000000003
 50
274.07142592016908
 51
331.56310985114408
  0
ARC
  5
2A65
  8
2
 10
224.69999999999999
 20
173.40000000000001
 30
0.0
 40
10.00000000000002
 50
208.43689014885581
 51
265.92857407983092
  0
ARC
  5
2A66
  8
2
 10
244.53309265630969
 20
168.40000000000001
 30
0.0
 40
0.5000000000000071
 50
90.0
 51
151.56310985114089
  0
ARC
  5
2A67
  8
2
 10
215.46690734369031
 20
168.40000000000001
 30
0.0
 40
0.5000000000000058
 50
28.436890148859099
 51
90.0
  0
POLYLINE
  5
2A68
  8
0
 66
     1
 10
0.0
 20
0.0
 30
0.0
  0
VERTEX
  5
2D04
  8
0
 10
228.5000000027992
 20
159.72532184823919
 30
0.0
  0
VERTEX
  5
2D05
  8
0
 10
228.50344394839371
 20
159.82617207597349
 30
0.0
  0
VERTEX
  5
2D06
  8
0
 10
228.56593029301479
 20
160.1565268806055
 30
0.0
  0
VERTEX
  5
2D07
  8
0
 10
228.67183178530141
 20
160.40279452284241
 30
0.0
  0
VERTEX
  5
2D08
  8
0
 10
228.836714618635
 20
160.63801998759831
 30
0.0
  0
VERTEX
  5
2D09
  8
0
 10
228.9942976597988
 20
160.79217958956261
 30
0.0
  0
VERTEX
  5
2D0A
  8
0
 10
229.19037369880181
 20
160.9300253688217
 30
0.0
  0
VERTEX
  5
2D0B
  8
0
 10
229.3659481807251
 20
161.0182940865806
 30
0.0
  0
VERTEX
  5
2D0C
  8
0
 10
229.56566802043699
 20
161.08763894639611
 30
0.0
  0
VERTEX
  5
2D0D
  8
0
 10
229.7754765344703
 20
161.13050074012341
 30
0.0
  0
VERTEX
  5
2D0E
  8
0
 10
230.00206677347819
 20
161.14576441301691
 30
0.0
  0
VERTEX
  5
2D0F
  8
0
 10
230.19241573841711
 20
161.13457287009041
 30
0.0
  0
VERTEX
  5
2D10
  8
0
 10
230.3827024601525
 20
161.10087984106721
 30
0.0
  0
VERTEX
  5
2D11
  8
0
 10
230.55575804563821
 20
161.04907462866689
 30
0.0
  0
VERTEX
  5
2D12
  8
0
 10
230.71922703592639
 20
160.9790218703267
 30
0.0
  0
VERTEX
  5
2D13
  8
0
 10
230.91811967459881
 20
160.859762886167
 30
0.0
  0
VERTEX
  5
2D14
  8
0
 10
231.09034701781459
 20
160.715463024424
 30
0.0
  0
VERTEX
  5
2D15
  8
0
 10
231.2665957319926
 20
160.5034818760542
 30
0.0
  0
VERTEX
  5
2D16
  8
0
 10
231.39390688639091
 20
160.26642496431421
 30
0.0
  0
VERTEX
  5
2D17
  8
0
 10
231.4826503833788
 20
159.9500389604946
 30
0.0
  0
VERTEX
  5
2D18
  8
0
 10
231.49999979767611
 20
159.72463750667859
 30
0.0
  0
SEQEND
  5
2D19
  8
0
  0
POLYLINE
  5
2A69
  8
0
 66
     1
 10
0.0
 20
0.0
 30
0.0
  0
VERTEX
  5
2D1A
  8
0
 10
231.49999979767611
 20
159.72463750667859
 30
0.0
  0
VERTEX
  5
2D1B
  8
0
 10
231.49589602737871
 20
159.61459061852719
 30
0.0
  0
VERTEX
  5
2D1C
  8
0
 10
231.4348173143924
 20
159.2829564325103
 30
0.0
  0
VERTEX
  5
2D1D
  8
0
 10
231.2950090177745
 20
158.95022529470251
 30
0.0
  0
VERTEX
  5
2D1E
  8
0
 10
231.1216580618869
 20
158.69573243659769
 30
0.0
  0
VERTEX
  5
2D1F
  8
0
 10
230.88085130745131
 20
158.45890040610919
 30
0.0
  0
SEQEND
  5
2D20
  8
0
  0
LINE
  5
2A6A
  8
0
 10
214.5
 20
168.90000000000001
 30
0.0
 11
245.5
 21
168.90000000000001
 31
0.0
  0
ARC
  5
2A6B
  8
0
 10
245.0045287237804
 20
166.44959019459171
 30
0.0
 40
2.499999999999984
 50
3.4492218135920361
 51
78.568951989546875
  0
ARC
  5
2A6C
  8
0
 10
214.9954712762196
 20
166.44959019459171
 30
0.0
 40
2.4999999999999809
 50
101.4310480104531
 51
176.55077818640791
  0
POLYLINE
  5
2A6D
  8
0
 66
     1
 10
0.0
 20
0.0
 30
0.0
  0
VERTEX
  5
2D21
  8
0
 10
230.88085130745131
 20
158.45890040610919
 30
0.0
  0
VERTEX
  5
2D22
  8
0
 10
230.72261654312049
 20
158.348476889637
 30
0.0
  0
VERTEX
  5
2D23
  8
0
 10
230.54023419044421
 20
158.25431070354759
 30
0.0
  0
VERTEX
  5
2D24
  8
0
 10
230.3742558832723
 20
158.1948914322744
 30
0.0
  0
VERTEX
  5
2D25
  8
0
 10
230.19258404180141
 20
158.1556315698414
 30
0.0
  0
VERTEX
  5
2D26
  8
0
 10
230.0091428247753
 20
158.14171751327891
 30
0.0
  0
VERTEX
  5
2D27
  8
0
 10
229.81887068888949
 20
158.15401686371339
 30
0.0
  0
VERTEX
  5
2D28
  8
0
 10
229.65726393104001
 20
158.18620571614761
 30
0.0
  0
VERTEX
  5
2D29
  8
0
 10
229.50037845141151
 20
158.23758286274611
 30
0.0
  0
VERTEX
  5
2D2A
  8
0
 10
229.3062869600837
 20
158.33135389455609
 30
0.0
  0
VERTEX
  5
2D2B
  8
0
 10
229.1303076895837
 20
158.45011234214419
 30
0.0
  0
VERTEX
  5
2D2C
  8
0
 10
228.92573381333341
 20
158.640829549383
 30
0.0
  0
VERTEX
  5
2D2D
  8
0
 10
228.7604483759678
 20
158.85735446800709
 30
0.0
  0
VERTEX
  5
2D2E
  8
0
 10
228.60408212213039
 20
159.1676676882586
 30
0.0
  0
VERTEX
  5
2D2F
  8
0
 10
228.5172567992567
 20
159.4976967516385
 30
0.0
  0
VERTEX
  5
2D30
  8
0
 10
228.5000000027992
 20
159.72532184823919
 30
0.0
  0
SEQEND
  5
2D31
  8
0
  0
LINE
  5
2A6E
  8
0
 10
241.00999999999999
 20
156.90000000000001
 30
0.0
 11
247.5
 21
163.39882532633851
 31
0.0
  0
LINE
  5
2A6F
  8
0
 10
212.5
 20
163.39882532633851
 30
0.0
 11
218.99000000000001
 21
156.90000000000001
 31
0.0
  0
LINE
  5
2A70
  8
0
 10
212.5
 20
163.39882532633851
 30
0.0
 11
247.5
 21
163.39882532633851
 31
0.0
  0
LINE
  5
2A71
  8
0
 10
212.5
 20
166.59999999999999
 30
0.0
 11
247.5
 21
166.59999999999999
 31
0.0
  0
LINE
  5
2A72
  8
0
 10
247.5
 20
163.39882532633851
 30
0.0
 11
247.5
 21
166.59999999999999
 31
0.0
  0
LINE
  5
2A73
  8
0
 10
212.5
 20
166.59999999999999
 30
0.0
 11
212.5
 21
163.39882532633851
 31
0.0
  0
LINE
  5
2A74
  8
1
 10
230.0
 20
174.40000000000001
 30
0.0
 11
230.0
 21
80.0
 31
0.0
  0
LINE
  5
2A75
  8
0
 10
242.34999999999999
 20
146.90000000000001
 30
0.0
 11
217.65000000000001
 21
146.90000000000001
 31
0.0
  0
ARC
  5
2A76
  8
2
 10
85.299999999999955
 20
173.40000000000001
 30
0.0
 40
10.00000000000002
 50
274.07142592016908
 51
331.56310985114408
  0
ARC
  5
2A77
  8
2
 10
94.533092656309677
 20
168.40000000000001
 30
0.0
 40
0.5000000000000058
 50
90.0
 51
151.56310985114089
  0
LINE
  5
2A8B
  8
0
 10
97.5
 20
163.39882532633851
 30
0.0
 11
91.009999999999991
 21
156.90000000000001
 31
0.0
  0
CIRCLE
  5
2ACF
  8
0
 10
93.75
 20
276.89999999999998
 30
0.0
 40
1.5
  0
CIRCLE
  5
2AD3
  8
0
 10
230.0
 20
92.649999999999821
 30
0.0
 40
2.2500000000002842
  0
LINE
  5
2C1D
  8
1
 10
222.74999999999969
 20
92.649999999999821
 30
0.0
 11
237.25000000000031
 21
92.649999999999807
 31
0.0
  0
ARC
  5
2C1E
  8
0
 10
84.999999999999943
 20
92.650000000000006
 30
0.0
 40
2.249999999999996
 50
294.24450582547701
 51
65.755494174519981
  0
ARC
  5
2C1F
  8
0
 10
91.572089587301321
 20
92.649999999999821
 30
0.0
 40
6.0092164521602198
 50
158.0112301569429
 51
201.9887698430571
  0
LINE
  5
2C20
  8
1
 10
82.562873135141103
 20
92.649999999999807
 30
0.0
 11
90.249999999999943
 21
92.649999999999807
 31
0.0
  0
ARC
  5
2C21
  8
0
 10
75.000000000000057
 20
92.650000000000006
 30
0.0
 40
2.249999999999996
 50
114.2445058254807
 51
245.75549417452279
  0
ARC
  5
2C22
  8
0
 10
68.427910412698679
 20
92.649999999999821
 30
0.0
 40
6.0092164521602198
 50
338.01123015694287
 51
21.988769843057099
  0
LINE
  5
2C23
  8
1
 10
77.437126864858897
 20
92.649999999999807
 30
0.0
 11
69.750000000000057
 21
92.649999999999807
 31
0.0
  0
LINE
  5
2C2B
  8
1
 10
93.75
 20
154.643725946713
 30
0.0
 11
93.75
 21
173.90000000000001
 31
0.0
  0
ENDSEC
  0
EOF
