  0
SECTION
  2
HEADER
  9
$ACADVER
  1
AC1009
  9
$INSBASE
 10
0.0
 20
0.0
 30
0.0
  9
$EXTMIN
 10
-0.0204638472032742
 20
-2.960436562073669
 30
0.0
  9
$EXTMAX
 10
162.5
 20
197.80000000000001
 30
0.0
  9
$LIMMIN
 10
0.0
 20
0.0
  9
$LIMMAX
 10
187.5
 20
135.0
  9
$ORTHOMODE
 70
     1
  9
$REGENMODE
 70
     1
  9
$FILLMODE
 70
     1
  9
$QTEXTMODE
 70
     0
  9
$MIRRTEXT
 70
     0
  9
$DRAGMODE
 70
     2
  9
$LTSCALE
 40
5.0
  9
$OSMODE
 70
    37
  9
$ATTMODE
 70
     1
  9
$TEXTSIZE
 40
4.0
  9
$TRACEWID
 40
0.05
  9
$TEXTSTYLE
  7
STANDARD
  9
$CLAYER
  8
0
  9
$CELTYPE
  6
BYLAYER
  9
$CECOLOR
 62
   256
  9
$DIMSCALE
 40
0.5
  9
$DIMASZ
 40
3.0
  9
$DIMEXO
 40
2.0
  9
$DIMDLI
 40
0.38
  9
$DIMRND
 40
0.0
  9
$DIMDLE
 40
0.0
  9
$DIMEXE
 40
2.0
  9
$DIMTP
 40
0.0
  9
$DIMTM
 40
0.0
  9
$DIMTXT
 40
3.0
  9
$DIMCEN
 40
0.0
  9
$DIMTSZ
 40
0.0
  9
$DIMTOL
 70
     0
  9
$DIMLIM
 70
     0
  9
$DIMTIH
 70
     0
  9
$DIMTOH
 70
     0
  9
$DIMSE1
 70
     0
  9
$DIMSE2
 70
     0
  9
$DIMTAD
 70
     1
  9
$DIMZIN
 70
     0
  9
$DIMBLK
  1

  9
$DIMASO
 70
     0
  9
$DIMSHO
 70
     0
  9
$DIMPOST
  1

  9
$DIMAPOST
  1

  9
$DIMALT
 70
     0
  9
$DIMALTD
 70
     2
  9
$DIMALTF
 40
25.399999999999999
  9
$DIMLFAC
 40
1.0
  9
$DIMTOFL
 70
     0
  9
$DIMTVP
 40
1.6000000000000001
  9
$DIMTIX
 70
     1
  9
$DIMSOXD
 70
     0
  9
$DIMSAH
 70
     0
  9
$DIMBLK1
  1

  9
$DIMBLK2
  1

  9
$DIMSTYLE
  2
STANDARD
  9
$DIMCLRD
 70
     0
  9
$DIMCLRE
 70
     0
  9
$DIMCLRT
 70
     0
  9
$DIMTFAC
 40
1.0
  9
$DIMGAP
 40
0.09
  9
$LUNITS
 70
     2
  9
$LUPREC
 70
     4
  9
$SKETCHINC
 40
0.1
  9
$FILLETRAD
 40
1.0
  9
$AUNITS
 70
     0
  9
$AUPREC
 70
     0
  9
$MENU
  1
E:\r13\win\SUPPORT\ACAD
  9
$ELEVATION
 40
0.0
  9
$PELEVATION
 40
0.0
  9
$THICKNESS
 40
0.0
  9
$LIMCHECK
 70
     0
  9
$BLIPMODE
 70
     0
  9
$CHAMFERA
 40
0.0
  9
$CHAMFERB
 40
0.0
  9
$SKPOLY
 70
     0
  9
$TDCREATE
 40
2449840.6143865739
  9
$TDUPDATE
 40
2458820.724241192
  9
$TDINDWG
 40
0.3931416667
  9
$TDUSRTIMER
 40
0.3931416667
  9
$USRTIMER
 70
     1
  9
$ANGBASE
 50
0.0
  9
$ANGDIR
 70
     0
  9
$PDMODE
 70
     0
  9
$PDSIZE
 40
0.0
  9
$PLINEWID
 40
0.0
  9
$COORDS
 70
     1
  9
$SPLFRAME
 70
     0
  9
$SPLINETYPE
 70
     6
  9
$SPLINESEGS
 70
     8
  9
$ATTDIA
 70
     0
  9
$ATTREQ
 70
     1
  9
$HANDLING
 70
     1
  9
$HANDSEED
  5
255E
  9
$SURFTAB1
 70
     6
  9
$SURFTAB2
 70
     6
  9
$SURFTYPE
 70
     6
  9
$SURFU
 70
     6
  9
$SURFV
 70
     6
  9
$UCSNAME
  2

  9
$UCSORG
 10
0.0
 20
0.0
 30
0.0
  9
$UCSXDIR
 10
1.0
 20
0.0
 30
0.0
  9
$UCSYDIR
 10
0.0
 20
1.0
 30
0.0
  9
$PUCSNAME
  2

  9
$PUCSORG
 10
0.0
 20
0.0
 30
0.0
  9
$PUCSXDIR
 10
1.0
 20
0.0
 30
0.0
  9
$PUCSYDIR
 10
0.0
 20
1.0
 30
0.0
  9
$USERI1
 70
     0
  9
$USERI2
 70
     1
  9
$USERI3
 70
     1
  9
$USERI4
 70
     0
  9
$USERI5
 70
     0
  9
$USERR1
 40
0.0
  9
$USERR2
 40
0.0
  9
$USERR3
 40
0.0
  9
$USERR4
 40
0.0
  9
$USERR5
 40
0.0
  9
$WORLDVIEW
 70
     1
  9
$SHADEDGE
 70
     3
  9
$SHADEDIF
 70
    70
  9
$TILEMODE
 70
     1
  9
$MAXACTVP
 70
    16
  9
$PLIMCHECK
 70
     0
  9
$PEXTMIN
 10
1.0000000000000000E+020
 20
1.0000000000000000E+020
 30
1.0000000000000000E+020
  9
$PEXTMAX
 10
-1.0000000000000000E+020
 20
-1.0000000000000000E+020
 30
-1.0000000000000000E+020
  9
$PLIMMIN
 10
0.0
 20
0.0
  9
$PLIMMAX
 10
12.0
 20
9.0
  9
$UNITMODE
 70
     0
  9
$VISRETAIN
 70
     0
  9
$PLINEGEN
 70
     0
  9
$PSLTSCALE
 70
     0
  0
ENDSEC
  0
SECTION
  2
TABLES
  0
TABLE
  2
VPORT
 70
     1
  0
VPORT
  2
*ACTIVE
 70
     0
 10
0.0
 20
0.0
 11
1.0
 21
1.0
 12
190.39527267495501
 22
97.419782186394968
 13
0.0
 23
0.0
 14
5.0
 24
5.0
 15
5.0
 25
5.0
 16
0.0
 26
0.0
 36
1.0
 17
0.0
 27
0.0
 37
0.0
 40
202.5160129300601
 41
2.415644171779141
 42
50.0
 43
0.0
 44
0.0
 50
0.0
 51
0.0
 71
     0
 72
   100
 73
     1
 74
     0
 75
     0
 76
     0
 77
     0
 78
     0
  0
ENDTAB
  0
TABLE
  2
LTYPE
 70
     4
  0
LTYPE
  2
CONTINUOUS
 70
     0
  3
Solid Line
 72
    65
 73
     0
 40
0.0
  0
LTYPE
  2
CENTER
 70
     0
  3
____ _ ____ _ ____ _ ____ _ ____ _ ____ _ ____
 72
    65
 73
     4
 40
2.0
 49
1.25
 49
-0.25
 49
0.25
 49
-0.25
  0
LTYPE
  2
HIDDEN
 70
     0
  3
_ _ _ _ _ _ _ _ _ _ _ _ _ _ _ _ _ _ _ _ _ _ _
 72
    65
 73
     2
 40
0.375
 49
0.25
 49
-0.125
  0
LTYPE
  2
PHANTOM2
 70
     0
  3
___ _ _ ___ _ _ ___ _ _ ___ _ _
 72
    65
 73
     6
 40
1.25
 49
0.625
 49
-0.125
 49
0.125
 49
-0.125
 49
0.125
 49
-0.125
  0
ENDTAB
  0
TABLE
  2
LAYER
 70
     3
  0
LAYER
  2
0
 70
     0
 62
     7
  6
CONTINUOUS
  0
LAYER
  2
1
 70
     0
 62
     1
  6
CENTER
  0
LAYER
  2
2
 70
     0
 62
     2
  6
HIDDEN
  0
ENDTAB
  0
TABLE
  2
STYLE
 70
     2
  0
STYLE
  2
STANDARD
 70
     0
 40
0.0
 41
1.0
 50
0.0
 71
     0
 42
4.0
  3
TXT
  4
BIGFONT
  0
STYLE
  2
STANDARD1
 70
     0
 40
0.0
 41
1.0
 50
0.0
 71
     0
 42
3.0
  3
txt
  4

  0
ENDTAB
  0
TABLE
  2
VIEW
 70
     1
  0
VIEW
  2
ALL
 70
     0
 40
179.66152299999999
 10
141.903918
 20
89.830760999999995
 41
0.0
 11
0.0
 21
0.0
 31
1.0
 12
0.0
 22
0.0
 32
0.0
 42
0.0
 43
0.0
 44
0.0
 50
0.0
 71
     0
  0
ENDTAB
  0
TABLE
  2
UCS
 70
     0
  0
ENDTAB
  0
TABLE
  2
APPID
 70
     5
  0
APPID
  2
ACAD
 70
     0
  0
APPID
  2
DCO15
 70
     0
  0
APPID
  2
ACAD_EXEMPT_FROM_CAD_STANDARDS
 70
     0
  0
APPID
  2
ACAD_MLEADERVER
 70
     0
  0
APPID
  2
ACAD_NAV_VCDISPLAY
 70
     0
  0
ENDTAB
  0
TABLE
  2
DIMSTYLE
 70
     1
  0
DIMSTYLE
  2
STANDARD
 70
     0
  3

  4

  5

  6

  7

 40
1.0
 41
0.18
 42
0.0625
 43
0.38
 44
0.18
 45
0.0
 46
0.0
 47
0.0
 48
0.0
140
0.18
141
0.09
142
0.0
143
25.399999999999999
144
1.0
145
0.0
146
1.0
147
0.09
 71
     0
 72
     0
 73
     1
 74
     1
 75
     0
 76
     0
 77
     0
 78
     0
170
     0
171
     2
172
     0
173
     0
174
     0
175
     0
176
     0
177
     0
178
     0
  0
ENDTAB
  0
ENDSEC
  0
SECTION
  2
BLOCKS
  0
BLOCK
  8
0
  2
$MODEL_SPACE
 70
     0
 10
0.0
 20
0.0
 30
0.0
  3
$MODEL_SPACE
  1

  0
ENDBLK
  5
1BD
  8
0
  0
BLOCK
 67
     1
  8
0
  2
$PAPER_SPACE
 70
     0
 10
0.0
 20
0.0
 30
0.0
  3
$PAPER_SPACE
  1

  0
ENDBLK
  5
1BB
 67
     1
  8
0
  0
ENDSEC
  0
SECTION
  2
ENTITIES
  0
TEXT
  5
189A
  8
0
 62
     3
 10
0.0
 20
0.0
 30
0.0
 40
10.0
  1
ABLP08020-SUS
  7
STANDARD1
  0
ARC
  5
22F8
  8
0
 10
53.25
 20
59.29999999999999
 30
0.0
 40
1.4999999999999929
 50
297.25839346225911
 51
62.741606537741568
  0
LINE
  5
22FC
  8
0
 10
46.5
 20
113.8
 30
0.0
 11
46.0
 21
113.3
 31
0.0
  0
LINE
  5
22FD
  8
0
 10
54.0
 20
113.3
 30
0.0
 11
53.5
 21
113.8
 31
0.0
  0
LINE
  5
22FE
  8
0
 10
53.5
 20
113.8
 30
0.0
 11
46.5
 21
113.8
 31
0.0
  0
LINE
  5
22FF
  8
2
 10
54.0
 20
108.2885694481121
 30
0.0
 11
54.0
 21
113.3
 31
0.0
  0
LINE
  5
2300
  8
0
 10
53.13397459621558
 20
53.0
 30
0.0
 11
54.0
 21
54.5
 31
0.0
  0
LINE
  5
2301
  8
0
 10
46.0
 20
54.5
 30
0.0
 11
46.86602540378442
 21
53.0
 31
0.0
  0
LINE
  5
2302
  8
0
 10
53.13397459621558
 20
53.0
 30
0.0
 11
46.86602540378442
 21
53.0
 31
0.0
  0
LINE
  5
2303
  8
0
 10
46.0
 20
80.799999999999997
 30
0.0
 11
46.0
 21
60.800000000000061
 31
0.0
  0
LINE
  5
2304
  8
0
 10
46.0
 20
57.799999999999862
 30
0.0
 11
46.0
 21
54.5
 31
0.0
  0
LINE
  5
2305
  8
0
 10
54.0
 20
54.5
 30
0.0
 11
54.0
 21
57.79999999999994
 31
0.0
  0
LINE
  5
2306
  8
0
 10
54.0
 20
60.800000000000118
 30
0.0
 11
54.0
 21
80.799999999999997
 31
0.0
  0
LINE
  5
2308
  8
0
 10
54.0
 20
54.5
 30
0.0
 11
46.0
 21
54.5
 31
0.0
  0
LINE
  5
230A
  8
0
 10
57.949999999999989
 20
95.799999999999997
 30
0.0
 11
42.049999999999997
 21
95.799999999999997
 31
0.0
  0
LINE
  5
230B
  8
0
 10
42.049999999999997
 20
97.049999999999997
 30
0.0
 11
42.049999999999997
 21
92.799999999999983
 31
0.0
  0
LINE
  5
230C
  8
0
 10
57.949999999999989
 20
92.799999999999983
 30
0.0
 11
57.949999999999989
 21
97.049999999999997
 31
0.0
  0
LINE
  5
230D
  8
0
 10
41.5
 20
92.249999999999986
 30
0.0
 11
41.5
 21
81.099999999999994
 31
0.0
  0
LINE
  5
230E
  8
0
 10
58.5
 20
81.099999999999994
 30
0.0
 11
58.5
 21
92.249999999999986
 31
0.0
  0
LINE
  5
230F
  8
0
 10
57.949999999999989
 20
97.049999999999997
 30
0.0
 11
58.5
 21
97.599999999999994
 31
0.0
  0
LINE
  5
2310
  8
0
 10
41.5
 20
97.599999999999994
 30
0.0
 11
42.049999999999997
 21
97.049999999999997
 31
0.0
  0
LINE
  5
2311
  8
0
 10
57.949999999999989
 20
97.049999999999997
 30
0.0
 11
42.049999999999997
 21
97.049999999999997
 31
0.0
  0
LINE
  5
2312
  8
0
 10
41.5
 20
102.8
 30
0.0
 11
41.5
 21
97.599999999999994
 31
0.0
  0
LINE
  5
2313
  8
0
 10
58.5
 20
97.599999999999994
 30
0.0
 11
58.5
 21
102.8
 31
0.0
  0
LINE
  5
2314
  8
0
 10
58.5
 20
97.599999999999994
 30
0.0
 11
41.5
 21
97.599999999999994
 31
0.0
  0
LINE
  5
2315
  8
0
 10
58.199999999999989
 20
80.799999999999997
 30
0.0
 11
58.5
 21
81.099999999999994
 31
0.0
  0
LINE
  5
2316
  8
0
 10
41.5
 20
81.099999999999994
 30
0.0
 11
41.800000000000011
 21
80.799999999999997
 31
0.0
  0
LINE
  5
2317
  8
0
 10
58.5
 20
81.099999999999994
 30
0.0
 11
41.5
 21
81.099999999999994
 31
0.0
  0
LINE
  5
2318
  8
0
 10
58.199999999999989
 20
80.799999999999997
 30
0.0
 11
41.800000000000011
 21
80.799999999999997
 31
0.0
  0
LINE
  5
2319
  8
0
 10
42.049999999999997
 20
92.799999999999983
 30
0.0
 11
41.5
 21
92.249999999999986
 31
0.0
  0
LINE
  5
231A
  8
0
 10
58.5
 20
92.249999999999986
 30
0.0
 11
57.949999999999989
 21
92.799999999999983
 31
0.0
  0
LINE
  5
231B
  8
0
 10
57.949999999999989
 20
92.799999999999983
 30
0.0
 11
42.049999999999997
 21
92.799999999999983
 31
0.0
  0
LINE
  5
231C
  8
0
 10
58.5
 20
92.249999999999986
 30
0.0
 11
41.5
 21
92.249999999999986
 31
0.0
  0
LINE
  5
231D
  8
0
 10
42.0
 20
103.3
 30
0.0
 11
41.5
 21
102.8
 31
0.0
  0
LINE
  5
231E
  8
0
 10
58.5
 20
102.8
 30
0.0
 11
58.0
 21
103.3
 31
0.0
  0
LINE
  5
231F
  8
0
 10
58.0
 20
103.3
 30
0.0
 11
42.0
 21
103.3
 31
0.0
  0
LINE
  5
2320
  8
0
 10
58.5
 20
102.8
 30
0.0
 11
41.5
 21
102.8
 31
0.0
  0
LINE
  5
2321
  8
2
 10
45.990000000000009
 20
108.2885694481121
 30
0.0
 11
54.009999999999991
 21
108.2885694481121
 31
0.0
  0
ARC
  5
2322
  8
2
 10
51.600000000000023
 20
122.2
 30
0.0
 40
15.00000000000002
 50
217.51537933277791
 51
248.03747978651859
  0
ARC
  5
2326
  8
2
 10
39.226237435605981
 20
112.7000000000001
 30
0.0
 40
0.5999999999998829
 50
37.5153793327692
 51
90.000000000003254
  0
LINE
  5
2327
  8
0
 10
38.199999999999989
 20
113.3
 30
0.0
 11
61.800000000000011
 21
113.3
 31
0.0
  0
ARC
  5
2328
  8
0
 10
60.500099538503378
 20
111.7800464513015
 30
0.0
 40
2.000000000000008
 50
0.5716365467038349
 51
49.462150409497838
  0
ARC
  5
2329
  8
0
 10
39.499900461496622
 20
111.7800464513015
 30
0.0
 40
2.0000000000000271
 50
130.53784959050219
 51
179.4283634532961
  0
LINE
  5
232C
  8
0
 10
37.5
 20
109.2526279781368
 30
0.0
 11
42.990000000000009
 21
103.3
 31
0.0
  0
LINE
  5
232E
  8
0
 10
37.5
 20
109.2526279781368
 30
0.0
 11
62.5
 21
109.2526279781368
 31
0.0
  0
LINE
  5
232F
  8
0
 10
37.5
 20
111.8
 30
0.0
 11
62.5
 21
111.8
 31
0.0
  0
LINE
  5
2330
  8
0
 10
62.5
 20
109.2526279781368
 30
0.0
 11
62.5
 21
111.8
 31
0.0
  0
LINE
  5
2331
  8
0
 10
37.5
 20
111.8
 30
0.0
 11
37.5
 21
109.2526279781368
 31
0.0
  0
LINE
  5
2332
  8
1
 10
50.0
 20
116.8
 30
0.0
 11
50.0
 21
50.0
 31
0.0
  0
LINE
  5
2334
  8
1
 10
59.5
 20
102.9998258042915
 30
0.0
 11
59.5
 21
116.3
 31
0.0
  0
ARC
  5
2339
  8
0
 10
49.999999999999659
 20
182.30000000000001
 30
0.0
 40
8.5000000000003251
 50
352.95152695186641
 51
7.0745476217519521
  0
CIRCLE
  5
233C
  8
0
 10
50.0
 20
182.30000000000001
 30
0.0
 40
12.5
  0
CIRCLE
  5
233D
  8
0
 10
50.0
 20
182.30000000000001
 30
0.0
 40
11.800000000000001
  0
ARC
  5
233E
  8
0
 10
50.0
 20
182.30000000000001
 30
0.0
 40
10.77376256439406
 50
4.4875057193255072
 51
355.5124942806745
  0
CIRCLE
  5
2341
  8
0
 10
50.0
 20
182.30000000000001
 30
0.0
 40
4.0
  0
CIRCLE
  5
2342
  8
0
 10
50.0
 20
182.30000000000001
 30
0.0
 40
3.5
  0
LINE
  5
2343
  8
1
 10
34.5
 20
182.30000000000001
 30
0.0
 11
65.5
 21
182.30000000000001
 31
0.0
  0
LINE
  5
2344
  8
1
 10
50.0
 20
166.80000000000001
 30
0.0
 11
50.0
 21
197.80000000000001
 31
0.0
  0
LINE
  5
2345
  8
0
 10
153.5
 20
113.8
 30
0.0
 11
146.5
 21
113.8
 31
0.0
  0
LINE
  5
2346
  8
0
 10
146.5
 20
113.8
 30
0.0
 11
146.0
 21
113.3
 31
0.0
  0
LINE
  5
2347
  8
0
 10
154.0
 20
113.3
 30
0.0
 11
153.5
 21
113.8
 31
0.0
  0
LINE
  5
2348
  8
0
 10
153.13397459621561
 20
53.0
 30
0.0
 11
146.86602540378439
 21
53.0
 31
0.0
  0
LINE
  5
2349
  8
0
 10
153.13397459621561
 20
53.0
 30
0.0
 11
154.0
 21
54.5
 31
0.0
  0
LINE
  5
234A
  8
0
 10
146.0
 20
54.5
 30
0.0
 11
146.86602540378439
 21
53.0
 31
0.0
  0
LINE
  5
234C
  8
0
 10
154.0
 20
54.5
 30
0.0
 11
146.0
 21
54.5
 31
0.0
  0
LINE
  5
234D
  8
0
 10
146.0
 20
80.799999999999997
 30
0.0
 11
146.0
 21
54.5
 31
0.0
  0
LINE
  5
234E
  8
0
 10
154.0
 20
54.5
 30
0.0
 11
154.0
 21
80.799999999999997
 31
0.0
  0
LINE
  5
2351
  8
0
 10
157.94999999999999
 20
95.799999999999997
 30
0.0
 11
142.05000000000001
 21
95.799999999999997
 31
0.0
  0
LINE
  5
2352
  8
0
 10
142.05000000000001
 20
97.049999999999997
 30
0.0
 11
142.05000000000001
 21
92.799999999999983
 31
0.0
  0
LINE
  5
2353
  8
0
 10
157.94999999999999
 20
92.799999999999983
 30
0.0
 11
157.94999999999999
 21
97.049999999999997
 31
0.0
  0
LINE
  5
2354
  8
0
 10
141.5
 20
92.249999999999986
 30
0.0
 11
141.5
 21
81.099999999999994
 31
0.0
  0
LINE
  5
2355
  8
0
 10
158.5
 20
81.099999999999994
 30
0.0
 11
158.5
 21
92.249999999999986
 31
0.0
  0
LINE
  5
2356
  8
0
 10
158.5
 20
81.099999999999994
 30
0.0
 11
141.5
 21
81.099999999999994
 31
0.0
  0
LINE
  5
2357
  8
0
 10
158.19999999999999
 20
80.799999999999997
 30
0.0
 11
141.80000000000001
 21
80.799999999999997
 31
0.0
  0
LINE
  5
2358
  8
0
 10
158.19999999999999
 20
80.799999999999997
 30
0.0
 11
158.5
 21
81.099999999999994
 31
0.0
  0
LINE
  5
2359
  8
0
 10
141.5
 20
81.099999999999994
 30
0.0
 11
141.80000000000001
 21
80.799999999999997
 31
0.0
  0
LINE
  5
235A
  8
0
 10
157.94999999999999
 20
97.049999999999997
 30
0.0
 11
142.05000000000001
 21
97.049999999999997
 31
0.0
  0
LINE
  5
235B
  8
0
 10
157.94999999999999
 20
97.049999999999997
 30
0.0
 11
158.5
 21
97.599999999999994
 31
0.0
  0
LINE
  5
235C
  8
0
 10
141.5
 20
97.599999999999994
 30
0.0
 11
142.05000000000001
 21
97.049999999999997
 31
0.0
  0
LINE
  5
235D
  8
0
 10
158.5
 20
97.599999999999994
 30
0.0
 11
141.5
 21
97.599999999999994
 31
0.0
  0
LINE
  5
235E
  8
0
 10
141.5
 20
102.8
 30
0.0
 11
141.5
 21
97.599999999999994
 31
0.0
  0
LINE
  5
235F
  8
0
 10
158.5
 20
97.599999999999994
 30
0.0
 11
158.5
 21
102.8
 31
0.0
  0
LINE
  5
2360
  8
0
 10
158.0
 20
103.3
 30
0.0
 11
142.0
 21
103.3
 31
0.0
  0
LINE
  5
2361
  8
0
 10
158.5
 20
102.8
 30
0.0
 11
141.5
 21
102.8
 31
0.0
  0
LINE
  5
2362
  8
0
 10
142.0
 20
103.3
 30
0.0
 11
141.5
 21
102.8
 31
0.0
  0
LINE
  5
2363
  8
0
 10
158.5
 20
102.8
 30
0.0
 11
158.0
 21
103.3
 31
0.0
  0
LINE
  5
2364
  8
0
 10
157.94999999999999
 20
92.799999999999983
 30
0.0
 11
142.05000000000001
 21
92.799999999999983
 31
0.0
  0
LINE
  5
2365
  8
0
 10
158.5
 20
92.249999999999986
 30
0.0
 11
141.5
 21
92.249999999999986
 31
0.0
  0
LINE
  5
2366
  8
0
 10
142.05000000000001
 20
92.799999999999983
 30
0.0
 11
141.5
 21
92.249999999999986
 31
0.0
  0
LINE
  5
2367
  8
0
 10
158.5
 20
92.249999999999986
 30
0.0
 11
157.94999999999999
 21
92.799999999999983
 31
0.0
  0
POLYLINE
  5
2368
  8
0
 66
     1
 10
0.0
 20
0.0
 30
0.0
  0
VERTEX
  5
2527
  8
0
 10
148.50000001281751
 20
106.12722541756369
 30
0.0
  0
VERTEX
  5
2528
  8
0
 10
148.50713136256491
 20
106.2827446318943
 30
0.0
  0
VERTEX
  5
2529
  8
0
 10
148.53631044253561
 20
106.4730432744243
 30
0.0
  0
VERTEX
  5
252A
  8
0
 10
148.590669792293
 20
106.6637147776061
 30
0.0
  0
VERTEX
  5
252B
  8
0
 10
148.67220833756079
 20
106.8497938761771
 30
0.0
  0
VERTEX
  5
252C
  8
0
 10
148.80406759972519
 20
107.05579290683271
 30
0.0
  0
VERTEX
  5
252D
  8
0
 10
148.9827225372527
 20
107.2478480826675
 30
0.0
  0
VERTEX
  5
252E
  8
0
 10
149.14943007770651
 20
107.3759464577997
 30
0.0
  0
VERTEX
  5
252F
  8
0
 10
149.34848870474269
 20
107.4859920283391
 30
0.0
  0
VERTEX
  5
2530
  8
0
 10
149.52451434226921
 20
107.5535675823392
 30
0.0
  0
VERTEX
  5
2531
  8
0
 10
149.71949549431699
 20
107.6014226931435
 30
0.0
  0
VERTEX
  5
2532
  8
0
 10
149.9186232795696
 20
107.6241581603186
 30
0.0
  0
VERTEX
  5
2533
  8
0
 10
150.12758299580679
 20
107.6211357873179
 30
0.0
  0
VERTEX
  5
2534
  8
0
 10
150.3077875476198
 20
107.5963015862492
 30
0.0
  0
VERTEX
  5
2535
  8
0
 10
150.48445541323221
 20
107.55071304776691
 30
0.0
  0
VERTEX
  5
2536
  8
0
 10
150.65180038611811
 20
107.4858599028576
 30
0.0
  0
VERTEX
  5
2537
  8
0
 10
150.80728935336469
 20
107.4033691557908
 30
0.0
  0
VERTEX
  5
2538
  8
0
 10
151.0039978166235
 20
107.2595521657807
 30
0.0
  0
VERTEX
  5
2539
  8
0
 10
151.1690133274482
 20
107.0896710485929
 30
0.0
  0
VERTEX
  5
253A
  8
0
 10
151.33385412056469
 20
106.8381098970755
 30
0.0
  0
VERTEX
  5
253B
  8
0
 10
151.44212880396071
 20
106.5603760217693
 30
0.0
  0
VERTEX
  5
253C
  8
0
 10
151.48113822642131
 20
106.3783796492494
 30
0.0
  0
VERTEX
  5
253D
  8
0
 10
151.49878925419171
 20
106.1917709809598
 30
0.0
  0
VERTEX
  5
253E
  8
0
 10
151.49999999239139
 20
106.1272736248916
 30
0.0
  0
SEQEND
  5
253F
  8
0
  0
POLYLINE
  5
2369
  8
0
 66
     1
 10
0.0
 20
0.0
 30
0.0
  0
VERTEX
  5
2540
  8
0
 10
151.49999999239139
 20
106.1272736248916
 30
0.0
  0
VERTEX
  5
2541
  8
0
 10
151.49526402321951
 20
105.99908647249291
 30
0.0
  0
VERTEX
  5
2542
  8
0
 10
151.4702906914448
 20
105.80427605357811
 30
0.0
  0
VERTEX
  5
2543
  8
0
 10
151.4254390974771
 20
105.6146308082597
 30
0.0
  0
VERTEX
  5
2544
  8
0
 10
151.3597288106468
 20
105.42548863146131
 30
0.0
  0
VERTEX
  5
2545
  8
0
 10
151.2706412632686
 20
105.235531635912
 30
0.0
  0
VERTEX
  5
2546
  8
0
 10
151.157258005914
 20
105.0496475303696
 30
0.0
  0
VERTEX
  5
2547
  8
0
 10
150.9677449655947
 20
104.817756851133
 30
0.0
  0
VERTEX
  5
2548
  8
0
 10
150.85161715432821
 20
104.7084102830206
 30
0.0
  0
VERTEX
  5
2549
  8
0
 10
150.72023341439581
 20
104.60746937234801
 30
0.0
  0
SEQEND
  5
254A
  8
0
  0
LINE
  5
236A
  8
0
 10
138.19999999999999
 20
113.3
 30
0.0
 11
161.7999999999999
 21
113.3
 31
0.0
  0
ARC
  5
236B
  8
0
 10
160.50009953850329
 20
111.7800464513015
 30
0.0
 40
2.000000000000008
 50
0.5716365467034278
 51
49.462150409497973
  0
ARC
  5
236C
  8
0
 10
139.49990046149659
 20
111.7800464513015
 30
0.0
 40
2.0000000000000271
 50
130.53784959050239
 51
179.4283634532961
  0
POLYLINE
  5
236D
  8
0
 66
     1
 10
0.0
 20
0.0
 30
0.0
  0
VERTEX
  5
254B
  8
0
 10
150.72023341439581
 20
104.60746937234801
 30
0.0
  0
VERTEX
  5
254C
  8
0
 10
150.5738385464158
 20
104.5191170427093
 30
0.0
  0
VERTEX
  5
254D
  8
0
 10
150.40953087913249
 20
104.44649249854091
 30
0.0
  0
VERTEX
  5
254E
  8
0
 10
150.2352360554242
 20
104.3972893485992
 30
0.0
  0
VERTEX
  5
254F
  8
0
 10
150.04560085468901
 20
104.37431734999861
 30
0.0
  0
VERTEX
  5
2550
  8
0
 10
149.88123805778071
 20
104.3794855718309
 30
0.0
  0
VERTEX
  5
2551
  8
0
 10
149.7153803844287
 20
104.4084406442115
 30
0.0
  0
VERTEX
  5
2552
  8
0
 10
149.5696798262797
 20
104.45422981264799
 30
0.0
  0
VERTEX
  5
2553
  8
0
 10
149.43070957478199
 20
104.5167431154288
 30
0.0
  0
VERTEX
  5
2554
  8
0
 10
149.23422457184441
 20
104.6399740157202
 30
0.0
  0
VERTEX
  5
2555
  8
0
 10
149.06049139236009
 20
104.7892238962865
 30
0.0
  0
VERTEX
  5
2556
  8
0
 10
148.85055313317909
 20
105.038420304453
 30
0.0
  0
VERTEX
  5
2557
  8
0
 10
148.6895107049329
 20
105.31409494506769
 30
0.0
  0
VERTEX
  5
2558
  8
0
 10
148.6109678821409
 20
105.50229073942219
 30
0.0
  0
VERTEX
  5
2559
  8
0
 10
148.55315873477579
 20
105.6945594061487
 30
0.0
  0
VERTEX
  5
255A
  8
0
 10
148.51580203558009
 20
105.8922093646752
 30
0.0
  0
VERTEX
  5
255B
  8
0
 10
148.50038276942831
 20
106.0910817591422
 30
0.0
  0
VERTEX
  5
255C
  8
0
 10
148.50000001281751
 20
106.12722541756369
 30
0.0
  0
SEQEND
  5
255D
  8
0
  0
LINE
  5
236E
  8
0
 10
157.00999999999999
 20
103.3
 30
0.0
 11
162.5
 21
109.2526279781368
 31
0.0
  0
LINE
  5
236F
  8
0
 10
137.5
 20
109.2526279781368
 30
0.0
 11
142.99000000000001
 21
103.3
 31
0.0
  0
LINE
  5
2370
  8
0
 10
137.5
 20
109.2526279781368
 30
0.0
 11
162.5
 21
109.2526279781368
 31
0.0
  0
LINE
  5
2371
  8
0
 10
137.5
 20
111.8
 30
0.0
 11
162.5
 21
111.8
 31
0.0
  0
LINE
  5
2372
  8
0
 10
162.5
 20
109.2526279781368
 30
0.0
 11
162.5
 21
111.8
 31
0.0
  0
LINE
  5
2373
  8
0
 10
137.5
 20
111.8
 30
0.0
 11
137.5
 21
109.2526279781368
 31
0.0
  0
LINE
  5
2374
  8
1
 10
150.0
 20
116.8
 30
0.0
 11
150.0
 21
50.0
 31
0.0
  0
LINE
  5
2375
  8
2
 10
46.0
 20
108.2885694481121
 30
0.0
 11
46.0
 21
113.3
 31
0.0
  0
LINE
  5
2381
  8
0
 10
62.5
 20
109.2526279781368
 30
0.0
 11
57.009999999999991
 21
103.3
 31
0.0
  0
ARC
  5
238E
  8
2
 10
48.399999999999977
 20
122.2
 30
0.0
 40
15.00000000000002
 50
291.96252021348141
 51
322.48462066722232
  0
ARC
  5
238F
  8
2
 10
60.773762564394019
 20
112.7000000000001
 30
0.0
 40
0.5999999999998829
 50
89.999999999996746
 51
142.4846206672307
  0
CIRCLE
  5
2395
  8
0
 10
150.0
 20
59.29999999999999
 30
0.0
 40
1.5
  0
LINE
  5
239E
  8
1
 10
145.50004288546171
 20
59.29999999999999
 30
0.0
 11
154.5
 21
59.29999999999999
 31
0.0
  0
CIRCLE
  5
239F
  8
0
 10
59.5
 20
182.30000000000001
 30
0.0
 40
1.500000000000014
  0
ARC
  5
23F2
  8
0
 10
57.714726391533368
 20
59.300000000000033
 30
0.0
 40
4.0061443014393356
 50
158.01123015693929
 51
201.9887698430606
  0
LINE
  5
2402
  8
1
 10
52.20858209009404
 20
59.29999999999999
 30
0.0
 11
56.25
 21
59.29999999999999
 31
0.0
  0
ARC
  5
2403
  8
0
 10
46.749999999999993
 20
59.29999999999999
 30
0.0
 40
1.4999999999999929
 50
117.2583934622581
 51
242.74160653774101
  0
ARC
  5
2404
  8
0
 10
42.285273608466618
 20
59.300000000000033
 30
0.0
 40
4.0061443014393356
 50
338.01123015693952
 51
21.988769843060592
  0
LINE
  5
2405
  8
1
 10
47.791417909905952
 20
59.29999999999999
 30
0.0
 11
43.75
 21
59.29999999999999
 31
0.0
  0
ENDSEC
  0
EOF
