  0
SECTION
  2
HEADER
  9
$ACADVER
  1
AC1009
  9
$INSBASE
 10
0.0
 20
0.0
 30
0.0
  9
$EXTMIN
 10
-0.0204638472032742
 20
-2.960436562073669
 30
0.0
  9
$EXTMAX
 10
139.5
 20
171.90001390050179
 30
0.0
  9
$LIMMIN
 10
0.0
 20
0.0
  9
$LIMMAX
 10
187.5
 20
135.0
  9
$ORTHOMODE
 70
     1
  9
$REGENMODE
 70
     1
  9
$FILLMODE
 70
     1
  9
$QTEXTMODE
 70
     0
  9
$MIRRTEXT
 70
     0
  9
$DRAGMODE
 70
     2
  9
$LTSCALE
 40
5.0
  9
$OSMODE
 70
    37
  9
$ATTMODE
 70
     1
  9
$TEXTSIZE
 40
4.0
  9
$TRACEWID
 40
0.05
  9
$TEXTSTYLE
  7
STANDARD
  9
$CLAYER
  8
0
  9
$CELTYPE
  6
BYLAYER
  9
$CECOLOR
 62
   256
  9
$DIMSCALE
 40
0.5
  9
$DIMASZ
 40
3.0
  9
$DIMEXO
 40
2.0
  9
$DIMDLI
 40
0.38
  9
$DIMRND
 40
0.0
  9
$DIMDLE
 40
0.0
  9
$DIMEXE
 40
2.0
  9
$DIMTP
 40
0.0
  9
$DIMTM
 40
0.0
  9
$DIMTXT
 40
3.0
  9
$DIMCEN
 40
0.0
  9
$DIMTSZ
 40
0.0
  9
$DIMTOL
 70
     0
  9
$DIMLIM
 70
     0
  9
$DIMTIH
 70
     0
  9
$DIMTOH
 70
     0
  9
$DIMSE1
 70
     0
  9
$DIMSE2
 70
     0
  9
$DIMTAD
 70
     1
  9
$DIMZIN
 70
     0
  9
$DIMBLK
  1

  9
$DIMASO
 70
     0
  9
$DIMSHO
 70
     0
  9
$DIMPOST
  1

  9
$DIMAPOST
  1

  9
$DIMALT
 70
     0
  9
$DIMALTD
 70
     2
  9
$DIMALTF
 40
25.399999999999999
  9
$DIMLFAC
 40
1.0
  9
$DIMTOFL
 70
     0
  9
$DIMTVP
 40
1.6000000000000001
  9
$DIMTIX
 70
     1
  9
$DIMSOXD
 70
     0
  9
$DIMSAH
 70
     0
  9
$DIMBLK1
  1

  9
$DIMBLK2
  1

  9
$DIMSTYLE
  2
STANDARD
  9
$DIMCLRD
 70
     0
  9
$DIMCLRE
 70
     0
  9
$DIMCLRT
 70
     0
  9
$DIMTFAC
 40
1.0
  9
$DIMGAP
 40
0.09
  9
$LUNITS
 70
     2
  9
$LUPREC
 70
     4
  9
$SKETCHINC
 40
0.1
  9
$FILLETRAD
 40
1.0
  9
$AUNITS
 70
     0
  9
$AUPREC
 70
     0
  9
$MENU
  1
E:\r13\win\SUPPORT\ACAD
  9
$ELEVATION
 40
0.0
  9
$PELEVATION
 40
0.0
  9
$THICKNESS
 40
0.0
  9
$LIMCHECK
 70
     0
  9
$BLIPMODE
 70
     0
  9
$CHAMFERA
 40
0.0
  9
$CHAMFERB
 40
0.0
  9
$SKPOLY
 70
     0
  9
$TDCREATE
 40
2449840.6143865739
  9
$TDUPDATE
 40
2458820.7241971181
  9
$TDINDWG
 40
0.3483772454
  9
$TDUSRTIMER
 40
0.3483772454
  9
$USRTIMER
 70
     1
  9
$ANGBASE
 50
0.0
  9
$ANGDIR
 70
     0
  9
$PDMODE
 70
     0
  9
$PDSIZE
 40
0.0
  9
$PLINEWID
 40
0.0
  9
$COORDS
 70
     1
  9
$SPLFRAME
 70
     0
  9
$SPLINETYPE
 70
     6
  9
$SPLINESEGS
 70
     8
  9
$ATTDIA
 70
     0
  9
$ATTREQ
 70
     1
  9
$HANDLING
 70
     1
  9
$HANDSEED
  5
1FA9
  9
$SURFTAB1
 70
     6
  9
$SURFTAB2
 70
     6
  9
$SURFTYPE
 70
     6
  9
$SURFU
 70
     6
  9
$SURFV
 70
     6
  9
$UCSNAME
  2

  9
$UCSORG
 10
0.0
 20
0.0
 30
0.0
  9
$UCSXDIR
 10
1.0
 20
0.0
 30
0.0
  9
$UCSYDIR
 10
0.0
 20
1.0
 30
0.0
  9
$PUCSNAME
  2

  9
$PUCSORG
 10
0.0
 20
0.0
 30
0.0
  9
$PUCSXDIR
 10
1.0
 20
0.0
 30
0.0
  9
$PUCSYDIR
 10
0.0
 20
1.0
 30
0.0
  9
$USERI1
 70
     0
  9
$USERI2
 70
     1
  9
$USERI3
 70
     1
  9
$USERI4
 70
     0
  9
$USERI5
 70
     0
  9
$USERR1
 40
0.0
  9
$USERR2
 40
0.0
  9
$USERR3
 40
0.0
  9
$USERR4
 40
0.0
  9
$USERR5
 40
0.0
  9
$WORLDVIEW
 70
     1
  9
$SHADEDGE
 70
     3
  9
$SHADEDIF
 70
    70
  9
$TILEMODE
 70
     1
  9
$MAXACTVP
 70
    16
  9
$PLIMCHECK
 70
     0
  9
$PEXTMIN
 10
1.0000000000000000E+020
 20
1.0000000000000000E+020
 30
1.0000000000000000E+020
  9
$PEXTMAX
 10
-1.0000000000000000E+020
 20
-1.0000000000000000E+020
 30
-1.0000000000000000E+020
  9
$PLIMMIN
 10
0.0
 20
0.0
  9
$PLIMMAX
 10
12.0
 20
9.0
  9
$UNITMODE
 70
     0
  9
$VISRETAIN
 70
     0
  9
$PLINEGEN
 70
     0
  9
$PSLTSCALE
 70
     0
  0
ENDSEC
  0
SECTION
  2
TABLES
  0
TABLE
  2
VPORT
 70
     1
  0
VPORT
  2
*ACTIVE
 70
     0
 10
0.0
 20
0.0
 11
1.0
 21
1.0
 12
164.81099710369239
 22
84.468348432841736
 13
0.0
 23
0.0
 14
5.0
 24
5.0
 15
5.0
 25
5.0
 16
0.0
 26
0.0
 36
1.0
 17
0.0
 27
0.0
 37
0.0
 40
176.39616243874769
 41
2.415644171779141
 42
50.0
 43
0.0
 44
0.0
 50
0.0
 51
0.0
 71
     0
 72
   100
 73
     1
 74
     0
 75
     0
 76
     0
 77
     0
 78
     0
  0
ENDTAB
  0
TABLE
  2
LTYPE
 70
     4
  0
LTYPE
  2
CONTINUOUS
 70
     0
  3
Solid Line
 72
    65
 73
     0
 40
0.0
  0
LTYPE
  2
CENTER
 70
     0
  3
____ _ ____ _ ____ _ ____ _ ____ _ ____ _ ____
 72
    65
 73
     4
 40
2.0
 49
1.25
 49
-0.25
 49
0.25
 49
-0.25
  0
LTYPE
  2
HIDDEN
 70
     0
  3
_ _ _ _ _ _ _ _ _ _ _ _ _ _ _ _ _ _ _ _ _ _ _
 72
    65
 73
     2
 40
0.375
 49
0.25
 49
-0.125
  0
LTYPE
  2
PHANTOM2
 70
     0
  3
___ _ _ ___ _ _ ___ _ _ ___ _ _
 72
    65
 73
     6
 40
1.25
 49
0.625
 49
-0.125
 49
0.125
 49
-0.125
 49
0.125
 49
-0.125
  0
ENDTAB
  0
TABLE
  2
LAYER
 70
     3
  0
LAYER
  2
0
 70
     0
 62
     7
  6
CONTINUOUS
  0
LAYER
  2
1
 70
     0
 62
     1
  6
CENTER
  0
LAYER
  2
2
 70
     0
 62
     2
  6
HIDDEN
  0
ENDTAB
  0
TABLE
  2
STYLE
 70
     2
  0
STYLE
  2
STANDARD
 70
     0
 40
0.0
 41
1.0
 50
0.0
 71
     0
 42
4.0
  3
TXT
  4
BIGFONT
  0
STYLE
  2
STANDARD1
 70
     0
 40
0.0
 41
1.0
 50
0.0
 71
     0
 42
3.0
  3
txt
  4

  0
ENDTAB
  0
TABLE
  2
VIEW
 70
     1
  0
VIEW
  2
ALL
 70
     0
 40
179.66152299999999
 10
141.903918
 20
89.830760999999995
 41
0.0
 11
0.0
 21
0.0
 31
1.0
 12
0.0
 22
0.0
 32
0.0
 42
0.0
 43
0.0
 44
0.0
 50
0.0
 71
     0
  0
ENDTAB
  0
TABLE
  2
UCS
 70
     0
  0
ENDTAB
  0
TABLE
  2
APPID
 70
     5
  0
APPID
  2
ACAD
 70
     0
  0
APPID
  2
DCO15
 70
     0
  0
APPID
  2
ACAD_EXEMPT_FROM_CAD_STANDARDS
 70
     0
  0
APPID
  2
ACAD_MLEADERVER
 70
     0
  0
APPID
  2
ACAD_NAV_VCDISPLAY
 70
     0
  0
ENDTAB
  0
TABLE
  2
DIMSTYLE
 70
     1
  0
DIMSTYLE
  2
STANDARD
 70
     0
  3

  4

  5

  6

  7

 40
1.0
 41
0.18
 42
0.0625
 43
0.38
 44
0.18
 45
0.0
 46
0.0
 47
0.0
 48
0.0
140
0.18
141
0.09
142
0.0
143
25.399999999999999
144
1.0
145
0.0
146
1.0
147
0.09
 71
     0
 72
     0
 73
     1
 74
     1
 75
     0
 76
     0
 77
     0
 78
     0
170
     0
171
     2
172
     0
173
     0
174
     0
175
     0
176
     0
177
     0
178
     0
  0
ENDTAB
  0
ENDSEC
  0
SECTION
  2
BLOCKS
  0
BLOCK
  8
0
  2
$MODEL_SPACE
 70
     0
 10
0.0
 20
0.0
 30
0.0
  3
$MODEL_SPACE
  1

  0
ENDBLK
  5
1BD
  8
0
  0
BLOCK
 67
     1
  8
0
  2
$PAPER_SPACE
 70
     0
 10
0.0
 20
0.0
 30
0.0
  3
$PAPER_SPACE
  1

  0
ENDBLK
  5
1BB
 67
     1
  8
0
  0
ENDSEC
  0
SECTION
  2
ENTITIES
  0
TEXT
  5
189A
  8
0
 62
     3
 10
0.0
 20
0.0
 30
0.0
 40
10.0
  1
ABLP05030-SUS
  7
STANDARD1
  0
LINE
  5
19F4
  8
0
 10
52.03811978464833
 20
53.0
 30
0.0
 11
52.500000000000028
 21
53.800000000000011
 31
0.0
  0
LINE
  5
19F5
  8
0
 10
47.500000000000021
 20
53.800000000000011
 30
0.0
 11
47.961880215351719
 21
53.0
 31
0.0
  0
LINE
  5
19F6
  8
0
 10
52.03811978464833
 20
53.0
 30
0.0
 11
47.961880215351719
 21
53.0
 31
0.0
  0
LINE
  5
19F7
  8
0
 10
47.500000000000021
 20
88.900000000000006
 30
0.0
 11
47.500000000000021
 21
58.900000000000048
 31
0.0
  0
LINE
  5
19F8
  8
0
 10
47.500000000000021
 20
57.399999999999963
 30
0.0
 11
47.500000000000021
 21
53.800000000000011
 31
0.0
  0
LINE
  5
19F9
  8
0
 10
52.500000000000028
 20
53.800000000000011
 30
0.0
 11
52.500000000000028
 21
57.399999999999963
 31
0.0
  0
LINE
  5
19FA
  8
0
 10
52.500000000000028
 20
58.900000000000048
 30
0.0
 11
52.500000000000028
 21
88.900000000000006
 31
0.0
  0
LINE
  5
19FC
  8
0
 10
52.500000000000028
 20
53.800000000000011
 30
0.0
 11
47.500000000000021
 21
53.800000000000011
 31
0.0
  0
LINE
  5
19FE
  8
0
 10
47.400000000000027
 20
113.90000000000001
 30
0.0
 11
47.000000000000021
 21
113.5
 31
0.0
  0
LINE
  5
19FF
  8
0
 10
53.000000000000028
 20
113.5
 30
0.0
 11
52.600000000000023
 21
113.90000000000001
 31
0.0
  0
LINE
  5
1A00
  8
0
 10
52.600000000000023
 20
113.90000000000001
 30
0.0
 11
47.400000000000027
 21
113.90000000000001
 31
0.0
  0
LINE
  5
1A01
  8
2
 10
47.000000000000021
 20
113.40000000000001
 30
0.0
 11
47.000000000000021
 21
109.29936704258689
 31
0.0
  0
LINE
  5
1A02
  8
0
 10
47.000000000000021
 20
113.5
 30
0.0
 11
47.000000000000021
 21
113.40000000000001
 31
0.0
  0
LINE
  5
1A03
  8
0
 10
53.000000000000028
 20
113.40000000000001
 30
0.0
 11
53.000000000000028
 21
113.5
 31
0.0
  0
LINE
  5
1A06
  8
0
 10
53.000000000000028
 20
113.5
 30
0.0
 11
47.000000000000021
 21
113.5
 31
0.0
  0
LINE
  5
1A1F
  8
0
 10
43.80000000000004
 20
101.09999999999999
 30
0.0
 11
43.80000000000004
 21
97.900000000000006
 31
0.0
  0
LINE
  5
1A20
  8
0
 10
56.20000000000001
 20
97.900000000000006
 30
0.0
 11
56.20000000000001
 21
101.09999999999999
 31
0.0
  0
LINE
  5
1A21
  8
0
 10
43.250000000000021
 20
97.349999999999994
 30
0.0
 11
43.250000000000021
 21
89.199999999999989
 31
0.0
  0
LINE
  5
1A22
  8
0
 10
56.750000000000028
 20
89.199999999999989
 30
0.0
 11
56.750000000000028
 21
97.349999999999994
 31
0.0
  0
LINE
  5
1A23
  8
0
 10
56.20000000000001
 20
101.09999999999999
 30
0.0
 11
56.750000000000028
 21
101.65000000000001
 31
0.0
  0
LINE
  5
1A24
  8
0
 10
43.250000000000021
 20
101.65000000000001
 30
0.0
 11
43.80000000000004
 21
101.09999999999999
 31
0.0
  0
LINE
  5
1A25
  8
0
 10
56.20000000000001
 20
101.09999999999999
 30
0.0
 11
43.80000000000004
 21
101.09999999999999
 31
0.0
  0
LINE
  5
1A26
  8
0
 10
43.250000000000021
 20
105.40000000000001
 30
0.0
 11
43.250000000000021
 21
101.65000000000001
 31
0.0
  0
LINE
  5
1A27
  8
0
 10
56.750000000000028
 20
101.65000000000001
 30
0.0
 11
56.750000000000028
 21
105.40000000000001
 31
0.0
  0
LINE
  5
1A28
  8
0
 10
56.750000000000028
 20
101.65000000000001
 30
0.0
 11
43.250000000000021
 21
101.65000000000001
 31
0.0
  0
LINE
  5
1A29
  8
0
 10
56.450000000000017
 20
88.900000000000006
 30
0.0
 11
56.750000000000028
 21
89.199999999999989
 31
0.0
  0
LINE
  5
1A2A
  8
0
 10
43.250000000000021
 20
89.199999999999989
 30
0.0
 11
43.550000000000033
 21
88.900000000000006
 31
0.0
  0
LINE
  5
1A2B
  8
0
 10
56.750000000000028
 20
89.199999999999989
 30
0.0
 11
43.250000000000021
 21
89.199999999999989
 31
0.0
  0
LINE
  5
1A2C
  8
0
 10
56.450000000000017
 20
88.900000000000006
 30
0.0
 11
43.550000000000033
 21
88.900000000000006
 31
0.0
  0
LINE
  5
1A2D
  8
0
 10
43.80000000000004
 20
97.900000000000006
 30
0.0
 11
43.250000000000021
 21
97.349999999999994
 31
0.0
  0
LINE
  5
1A2E
  8
0
 10
56.750000000000028
 20
97.349999999999994
 30
0.0
 11
56.20000000000001
 21
97.900000000000006
 31
0.0
  0
LINE
  5
1A2F
  8
0
 10
56.20000000000001
 20
97.900000000000006
 30
0.0
 11
43.80000000000004
 21
97.900000000000006
 31
0.0
  0
LINE
  5
1A30
  8
0
 10
56.750000000000028
 20
97.349999999999994
 30
0.0
 11
43.250000000000021
 21
97.349999999999994
 31
0.0
  0
LINE
  5
1A31
  8
0
 10
43.750000000000021
 20
105.90000000000001
 30
0.0
 11
43.250000000000021
 21
105.40000000000001
 31
0.0
  0
LINE
  5
1A32
  8
0
 10
56.750000000000028
 20
105.40000000000001
 30
0.0
 11
56.250000000000028
 21
105.90000000000001
 31
0.0
  0
LINE
  5
1A33
  8
0
 10
56.250000000000028
 20
105.90000000000001
 30
0.0
 11
43.750000000000021
 21
105.90000000000001
 31
0.0
  0
LINE
  5
1A34
  8
0
 10
56.750000000000028
 20
105.40000000000001
 30
0.0
 11
43.250000000000021
 21
105.40000000000001
 31
0.0
  0
LINE
  5
1A35
  8
2
 10
46.990000000000038
 20
109.29936704258689
 30
0.0
 11
53.010000000000012
 21
109.29936704258689
 31
0.0
  0
ARC
  5
1A36
  8
2
 10
50.400000000000027
 20
118.7
 30
0.0
 40
10.00000000000002
 50
213.82125088198501
 51
250.06218882016179
  0
ARC
  5
1A3A
  8
2
 10
41.593752217885338
 20
112.8
 30
0.0
 40
0.6000000000000283
 50
33.821233817143721
 51
90.0
  0
LINE
  5
1A3E
  8
0
 10
40.500000000000028
 20
110.2000551556264
 30
0.0
 11
44.490000000000038
 21
105.90000000000001
 31
0.0
  0
LINE
  5
1A40
  8
0
 10
40.80000000000004
 20
113.40000000000001
 30
0.0
 11
59.20000000000001
 21
113.40000000000001
 31
0.0
  0
ARC
  5
1A41
  8
0
 10
57.70000695025098
 20
112.4050020850752
 30
0.0
 40
1.7999999999999881
 50
359.84077848196898
 51
33.557709986017429
  0
ARC
  5
1A42
  8
0
 10
42.299993049749048
 20
112.4050020850753
 30
0.0
 40
1.7999999999999681
 50
146.44229001398111
 51
180.1592215180309
  0
LINE
  5
1A43
  8
0
 10
40.500000000000028
 20
110.2000551556264
 30
0.0
 11
59.500000000000021
 21
110.2000551556264
 31
0.0
  0
LINE
  5
1A44
  8
0
 10
40.500000000000028
 20
112.40000000000001
 30
0.0
 11
59.500000000000021
 21
112.40000000000001
 31
0.0
  0
LINE
  5
1A45
  8
0
 10
59.500000000000021
 20
110.2000551556264
 30
0.0
 11
59.500000000000021
 21
112.40000000000001
 31
0.0
  0
LINE
  5
1A46
  8
0
 10
40.500000000000028
 20
112.40000000000001
 30
0.0
 11
40.500000000000028
 21
110.2000551556264
 31
0.0
  0
LINE
  5
1A4B
  8
1
 10
50.000000000000028
 20
116.90000000000001
 30
0.0
 11
50.0
 21
50.0
 31
0.0
  0
LINE
  5
1A65
  8
0
 10
132.0381197846483
 20
53.0
 30
0.0
 11
127.9618802153517
 21
53.0
 31
0.0
  0
LINE
  5
1A66
  8
0
 10
132.0381197846483
 20
53.0
 30
0.0
 11
132.5
 21
53.79999999999999
 31
0.0
  0
LINE
  5
1A67
  8
0
 10
127.5
 20
53.79999999999999
 30
0.0
 11
127.9618802153517
 21
53.0
 31
0.0
  0
LINE
  5
1A69
  8
0
 10
132.5
 20
53.79999999999999
 30
0.0
 11
127.5
 21
53.79999999999999
 31
0.0
  0
LINE
  5
1A6A
  8
0
 10
127.5
 20
88.900000000000006
 30
0.0
 11
127.5
 21
53.79999999999999
 31
0.0
  0
LINE
  5
1A6B
  8
0
 10
132.5
 20
53.79999999999999
 30
0.0
 11
132.5
 21
88.900000000000006
 31
0.0
  0
LINE
  5
1A6D
  8
0
 10
132.59999999999999
 20
113.90000000000001
 30
0.0
 11
127.40000000000001
 21
113.90000000000001
 31
0.0
  0
LINE
  5
1A6E
  8
0
 10
127.40000000000001
 20
113.90000000000001
 30
0.0
 11
127.0
 21
113.5
 31
0.0
  0
LINE
  5
1A6F
  8
0
 10
133.0
 20
113.5
 30
0.0
 11
132.59999999999999
 21
113.90000000000001
 31
0.0
  0
LINE
  5
1A71
  8
0
 10
133.0
 20
113.5
 30
0.0
 11
127.0
 21
113.5
 31
0.0
  0
LINE
  5
1A72
  8
2
 10
127.0
 20
113.40000000000001
 30
0.0
 11
127.0
 21
109.29936704258699
 31
0.0
  0
LINE
  5
1A73
  8
0
 10
127.0
 20
113.5
 30
0.0
 11
127.0
 21
113.40000000000001
 31
0.0
  0
LINE
  5
1A74
  8
0
 10
133.0
 20
113.40000000000001
 30
0.0
 11
133.0
 21
113.5
 31
0.0
  0
LINE
  5
1A82
  8
0
 10
136.1999999999999
 20
99.899999999999977
 30
0.0
 11
123.8
 21
99.900000000000006
 31
0.0
  0
LINE
  5
1A8F
  8
0
 10
123.8
 20
101.09999999999999
 30
0.0
 11
123.8
 21
97.900000000000006
 31
0.0
  0
LINE
  5
1A90
  8
0
 10
136.19999999999999
 20
97.900000000000006
 30
0.0
 11
136.19999999999999
 21
101.09999999999999
 31
0.0
  0
LINE
  5
1A91
  8
0
 10
123.25
 20
97.349999999999994
 30
0.0
 11
123.25
 21
89.199999999999989
 31
0.0
  0
LINE
  5
1A92
  8
0
 10
136.75
 20
89.199999999999989
 30
0.0
 11
136.75
 21
97.349999999999994
 31
0.0
  0
LINE
  5
1A93
  8
0
 10
136.75
 20
89.199999999999989
 30
0.0
 11
123.25
 21
89.199999999999989
 31
0.0
  0
LINE
  5
1A94
  8
0
 10
136.44999999999999
 20
88.900000000000006
 30
0.0
 11
123.55
 21
88.900000000000006
 31
0.0
  0
LINE
  5
1A95
  8
0
 10
136.44999999999999
 20
88.900000000000006
 30
0.0
 11
136.75
 21
89.199999999999989
 31
0.0
  0
LINE
  5
1A96
  8
0
 10
123.25
 20
89.199999999999989
 30
0.0
 11
123.55
 21
88.900000000000006
 31
0.0
  0
LINE
  5
1A97
  8
0
 10
136.19999999999999
 20
101.09999999999999
 30
0.0
 11
123.8
 21
101.09999999999999
 31
0.0
  0
LINE
  5
1A98
  8
0
 10
136.19999999999999
 20
101.09999999999999
 30
0.0
 11
136.75
 21
101.65000000000001
 31
0.0
  0
LINE
  5
1A99
  8
0
 10
123.25
 20
101.65000000000001
 30
0.0
 11
123.8
 21
101.09999999999999
 31
0.0
  0
LINE
  5
1A9A
  8
0
 10
136.75
 20
101.65000000000001
 30
0.0
 11
123.25
 21
101.65000000000001
 31
0.0
  0
LINE
  5
1A9B
  8
0
 10
123.25
 20
105.40000000000001
 30
0.0
 11
123.25
 21
101.65000000000001
 31
0.0
  0
LINE
  5
1A9C
  8
0
 10
136.75
 20
101.65000000000001
 30
0.0
 11
136.75
 21
105.40000000000001
 31
0.0
  0
LINE
  5
1A9D
  8
0
 10
136.25
 20
105.90000000000001
 30
0.0
 11
123.75
 21
105.90000000000001
 31
0.0
  0
LINE
  5
1A9E
  8
0
 10
136.75
 20
105.40000000000001
 30
0.0
 11
123.25
 21
105.40000000000001
 31
0.0
  0
LINE
  5
1A9F
  8
0
 10
123.75
 20
105.90000000000001
 30
0.0
 11
123.25
 21
105.40000000000001
 31
0.0
  0
LINE
  5
1AA0
  8
0
 10
136.75
 20
105.40000000000001
 30
0.0
 11
136.25
 21
105.90000000000001
 31
0.0
  0
LINE
  5
1AA1
  8
0
 10
136.19999999999999
 20
97.900000000000006
 30
0.0
 11
123.8
 21
97.900000000000006
 31
0.0
  0
LINE
  5
1AA2
  8
0
 10
136.75
 20
97.349999999999994
 30
0.0
 11
123.25
 21
97.349999999999994
 31
0.0
  0
LINE
  5
1AA3
  8
0
 10
123.8
 20
97.900000000000006
 30
0.0
 11
123.25
 21
97.349999999999994
 31
0.0
  0
LINE
  5
1AA4
  8
0
 10
136.75
 20
97.349999999999994
 30
0.0
 11
136.19999999999999
 21
97.900000000000006
 31
0.0
  0
LINE
  5
1AA5
  8
2
 10
126.98999999999999
 20
109.29936704258699
 30
0.0
 11
133.00999999999999
 21
109.29936704258699
 31
0.0
  0
ARC
  5
1AA6
  8
2
 10
130.40000000000001
 20
118.7
 30
0.0
 40
10.00000000000002
 50
213.82125088198501
 51
250.06218882016179
  0
ARC
  5
1AA7
  8
2
 10
129.59999999999999
 20
118.7
 30
0.0
 40
9.9999999999999964
 50
289.93781117983821
 51
326.17874911801499
  0
ARC
  5
1AA8
  8
2
 10
138.40624778211469
 20
112.8
 30
0.0
 40
0.60000000000003
 50
89.999999999996746
 51
146.1787661828549
  0
ARC
  5
1AA9
  8
2
 10
121.5937522178853
 20
112.8
 30
0.0
 40
0.6000000000000283
 50
33.821233817145142
 51
90.0
  0
POLYLINE
  5
1AB0
  8
0
 66
     1
 10
0.0
 20
0.0
 30
0.0
  0
VERTEX
  5
1F70
  8
0
 10
128.7500000082313
 20
107.8903415460592
 30
0.0
  0
VERTEX
  5
1F71
  8
0
 10
128.7566767078124
 20
108.0263582483164
 30
0.0
  0
VERTEX
  5
1F72
  8
0
 10
128.7820022650516
 20
108.1835495407578
 30
0.0
  0
VERTEX
  5
1F73
  8
0
 10
128.82856065636861
 20
108.340911763699
 30
0.0
  0
VERTEX
  5
1F74
  8
0
 10
128.89806356463649
 20
108.4942327259086
 30
0.0
  0
VERTEX
  5
1F75
  8
0
 10
129.00861201618531
 20
108.6615789112865
 30
0.0
  0
VERTEX
  5
1F76
  8
0
 10
129.1576509822369
 20
108.8171861105823
 30
0.0
  0
VERTEX
  5
1F77
  8
0
 10
129.29724967974369
 20
108.92136188489791
 30
0.0
  0
VERTEX
  5
1F78
  8
0
 10
129.46353325668861
 20
109.01046344582009
 30
0.0
  0
VERTEX
  5
1F79
  8
0
 10
129.61133319571741
 20
109.0652136003592
 30
0.0
  0
VERTEX
  5
1F7A
  8
0
 10
129.7747301528201
 20
109.1035148149064
 30
0.0
  0
VERTEX
  5
1F7B
  8
0
 10
129.9411990772908
 20
109.1210750028913
 30
0.0
  0
VERTEX
  5
1F7C
  8
0
 10
130.11546801776609
 20
109.1174329334477
 30
0.0
  0
VERTEX
  5
1F7D
  8
0
 10
130.2664697399436
 20
109.09589721572971
 30
0.0
  0
VERTEX
  5
1F7E
  8
0
 10
130.41428590435021
 20
109.05717254138951
 30
0.0
  0
VERTEX
  5
1F7F
  8
0
 10
130.55451653159409
 20
109.00231273360571
 30
0.0
  0
VERTEX
  5
1F80
  8
0
 10
130.68458134096659
 20
108.93274615438629
 30
0.0
  0
VERTEX
  5
1F81
  8
0
 10
130.84791274251691
 20
108.8123300554014
 30
0.0
  0
VERTEX
  5
1F82
  8
0
 10
130.98441589465929
 20
108.6702795811162
 30
0.0
  0
VERTEX
  5
1F83
  8
0
 10
131.057925075627
 20
108.5686046949171
 30
0.0
  0
VERTEX
  5
1F84
  8
0
 10
131.1190765291
 20
108.4614164230548
 30
0.0
  0
VERTEX
  5
1F85
  8
0
 10
131.20636449944831
 20
108.2308884691117
 30
0.0
  0
VERTEX
  5
1F86
  8
0
 10
131.2368028951885
 20
108.08061235193711
 30
0.0
  0
VERTEX
  5
1F87
  8
0
 10
131.24953741572611
 20
107.926525183015
 30
0.0
  0
VERTEX
  5
1F88
  8
0
 10
131.2499999968002
 20
107.8903989097786
 30
0.0
  0
SEQEND
  5
1F89
  8
0
  0
POLYLINE
  5
1AB1
  8
0
 66
     1
 10
0.0
 20
0.0
 30
0.0
  0
VERTEX
  5
1F8A
  8
0
 10
131.2499999968002
 20
107.8903989097786
 30
0.0
  0
VERTEX
  5
1F8B
  8
0
 10
131.24469888865571
 20
107.7674055455426
 30
0.0
  0
VERTEX
  5
1F8C
  8
0
 10
131.22210385972761
 20
107.6065099937986
 30
0.0
  0
VERTEX
  5
1F8D
  8
0
 10
131.1831422322162
 20
107.4499010299634
 30
0.0
  0
VERTEX
  5
1F8E
  8
0
 10
131.12696240810811
 20
107.293691206498
 30
0.0
  0
VERTEX
  5
1F8F
  8
0
 10
131.0514819466633
 20
107.1368045244234
 30
0.0
  0
VERTEX
  5
1F90
  8
0
 10
130.95599312322079
 20
106.9832871016481
 30
0.0
  0
VERTEX
  5
1F91
  8
0
 10
130.79656386544141
 20
106.7912039012446
 30
0.0
  0
VERTEX
  5
1F92
  8
0
 10
130.6991008739451
 20
106.70071627335101
 30
0.0
  0
VERTEX
  5
1F93
  8
0
 10
130.58896854473079
 20
106.61732183786501
 30
0.0
  0
SEQEND
  5
1F94
  8
0
  0
POLYLINE
  5
1AB4
  8
0
 66
     1
 10
0.0
 20
0.0
 30
0.0
  0
VERTEX
  5
1F95
  8
0
 10
130.58896854473079
 20
106.61732183786501
 30
0.0
  0
VERTEX
  5
1F96
  8
0
 10
130.46770301361599
 20
106.5452526114442
 30
0.0
  0
VERTEX
  5
1F97
  8
0
 10
130.33188579182871
 20
106.4862391615662
 30
0.0
  0
VERTEX
  5
1F98
  8
0
 10
130.18808059392089
 20
106.4465821605442
 30
0.0
  0
VERTEX
  5
1F99
  8
0
 10
130.0319389310221
 20
106.4286083735753
 30
0.0
  0
VERTEX
  5
1F9A
  8
0
 10
129.89637702440029
 20
106.4336773616072
 30
0.0
  0
VERTEX
  5
1F9B
  8
0
 10
129.7597767097007
 20
106.4583481285719
 30
0.0
  0
VERTEX
  5
1F9C
  8
0
 10
129.6392213599224
 20
106.49698382374009
 30
0.0
  0
VERTEX
  5
1F9D
  8
0
 10
129.5243127013139
 20
106.54941266301
 30
0.0
  0
VERTEX
  5
1F9E
  8
0
 10
129.36013768262251
 20
106.6535798455872
 30
0.0
  0
VERTEX
  5
1F9F
  8
0
 10
129.21511392480249
 20
106.77943314546459
 30
0.0
  0
VERTEX
  5
1FA0
  8
0
 10
129.12174594685891
 20
106.88165261054679
 30
0.0
  0
VERTEX
  5
1FA1
  8
0
 10
129.03940315609279
 20
106.98987612777989
 30
0.0
  0
VERTEX
  5
1FA2
  8
0
 10
128.90492071506739
 20
107.2221902664264
 30
0.0
  0
VERTEX
  5
1FA3
  8
0
 10
128.8401925460816
 20
107.37885898034941
 30
0.0
  0
VERTEX
  5
1FA4
  8
0
 10
128.79268856218869
 20
107.53871572971229
 30
0.0
  0
VERTEX
  5
1FA5
  8
0
 10
128.7622506895423
 20
107.7028678950355
 30
0.0
  0
VERTEX
  5
1FA6
  8
0
 10
128.7501811279885
 20
107.8678627032586
 30
0.0
  0
VERTEX
  5
1FA7
  8
0
 10
128.7500000082313
 20
107.8903415460592
 30
0.0
  0
SEQEND
  5
1FA8
  8
0
  0
LINE
  5
1AB5
  8
0
 10
135.50999999999999
 20
105.90000000000001
 30
0.0
 11
139.5
 21
110.2000551556264
 31
0.0
  0
LINE
  5
1AB6
  8
0
 10
120.5
 20
110.2000551556264
 30
0.0
 11
124.48999999999999
 21
105.90000000000001
 31
0.0
  0
LINE
  5
1AB7
  8
0
 10
120.8
 20
113.40000000000001
 30
0.0
 11
139.19999999999999
 21
113.40000000000001
 31
0.0
  0
ARC
  5
1AB8
  8
0
 10
137.70000695025089
 20
112.4050020850753
 30
0.0
 40
1.7999999999999881
 50
359.84077848196898
 51
33.557709986017429
  0
ARC
  5
1AB9
  8
0
 10
122.29999304974901
 20
112.4050020850753
 30
0.0
 40
1.7999999999999681
 50
146.44229001398111
 51
180.1592215180309
  0
LINE
  5
1ABA
  8
0
 10
120.5
 20
110.2000551556264
 30
0.0
 11
139.5
 21
110.2000551556264
 31
0.0
  0
LINE
  5
1ABB
  8
0
 10
120.5
 20
112.40000000000001
 30
0.0
 11
139.5
 21
112.40000000000001
 31
0.0
  0
LINE
  5
1ABC
  8
0
 10
139.5
 20
110.2000551556264
 30
0.0
 11
139.5
 21
112.40000000000001
 31
0.0
  0
LINE
  5
1ABD
  8
0
 10
120.5
 20
112.40000000000001
 30
0.0
 11
120.5
 21
110.2000551556264
 31
0.0
  0
ARC
  5
1AC3
  8
0
 10
49.999999999999922
 20
159.40000695025091
 30
0.0
 40
6.2500000000001048
 50
353.67254207189762
 51
6.319826619834414
  0
ARC
  5
1AC4
  8
0
 10
49.999999999999943
 20
159.40000695025091
 30
0.0
 40
6.7500000000000888
 50
350.63665637667452
 51
9.3814570285779872
  0
CIRCLE
  5
1AC8
  8
0
 10
50.000000000000028
 20
159.40000695025091
 30
0.0
 40
9.1999999999999993
  0
CIRCLE
  5
1AC9
  8
0
 10
50.000000000000028
 20
159.40000695025091
 30
0.0
 40
9.5000069502509472
  0
ARC
  5
1ACC
  8
0
 10
50.000000000000028
 20
159.40000695025091
 30
0.0
 40
8.406247782114697
 50
3.4864262946255589
 51
356.51357370537443
  0
CIRCLE
  5
1ACE
  8
0
 10
50.000000000000028
 20
159.40000695025091
 30
0.0
 40
3.0
  0
CIRCLE
  5
1ACF
  8
0
 10
50.000000000000028
 20
159.40000695025091
 30
0.0
 40
2.6000000000000001
  0
LINE
  5
1AD1
  8
1
 10
37.499993049749122
 20
159.40000695025091
 30
0.0
 11
62.500006950250992
 21
159.40000695025091
 31
0.0
  0
LINE
  5
1AD2
  8
1
 10
50.000000000000028
 20
146.90000000000001
 30
0.0
 11
50.000000000000028
 21
171.90001390050179
 31
0.0
  0
LINE
  5
1AD5
  8
0
 10
43.80000000000004
 20
99.900000000000006
 30
0.0
 11
56.20000000000001
 21
99.900000000000006
 31
0.0
  0
LINE
  5
1B71
  8
2
 10
53.000000000000028
 20
113.40000000000001
 30
0.0
 11
53.000000000000028
 21
109.29936704258689
 31
0.0
  0
LINE
  5
1B72
  8
2
 10
133.0
 20
113.40000000000001
 30
0.0
 11
133.0
 21
109.29936704258699
 31
0.0
  0
CIRCLE
  5
1B7E
  8
0
 10
130.0
 20
58.149999999999999
 30
0.0
 40
0.75
  0
LINE
  5
1BCC
  8
1
 10
130.0
 20
116.90000000000001
 30
0.0
 11
130.0
 21
50.0
 31
0.0
  0
LINE
  5
1C35
  8
0
 10
59.500000000000021
 20
110.2000551556264
 30
0.0
 11
55.510000000000012
 21
105.90000000000001
 31
0.0
  0
ARC
  5
1C8B
  8
2
 10
49.600000000000023
 20
118.7
 30
0.0
 40
10.00000000000002
 50
289.93781117983821
 51
326.17874911801482
  0
ARC
  5
1C8C
  8
2
 10
58.406247782114718
 20
112.8
 30
0.0
 40
0.6000000000000283
 50
90.0
 51
146.17876618285609
  0
CIRCLE
  5
1C8F
  8
0
 10
57.249999999999972
 20
159.40000695025091
 30
0.0
 40
1.250000000000056
  0
LINE
  5
1E3B
  8
1
 10
126.25
 20
58.149999999999999
 30
0.0
 11
133.75
 21
58.149999999999999
 31
0.0
  0
LINE
  5
1E43
  8
1
 10
57.250000000000028
 20
104.7752120227544
 30
0.0
 11
57.250000000000028
 21
116.40000000000001
 31
0.0
  0
ARC
  5
1E98
  8
0
 10
52.000000000000057
 20
58.150000000000013
 30
0.0
 40
0.7499999999999969
 50
307.51755312538961
 51
52.482446874610453
  0
ARC
  5
1E99
  8
0
 10
54.890396557354329
 20
58.150000000000013
 30
0.0
 40
2.5052935359776138
 50
162.5804653183157
 51
197.41953468168421
  0
ARC
  5
1E9A
  8
0
 10
48.0
 20
58.150000000000013
 30
0.0
 40
0.7499999999999969
 50
127.5175531253892
 51
232.48244687461079
  0
ARC
  5
1E9B
  8
0
 10
45.109603442645728
 20
58.150000000000013
 30
0.0
 40
2.5052935359776138
 50
342.58046531831582
 51
17.419534681684649
  0
LINE
  5
1E9C
  8
1
 10
50.885103021376707
 20
58.150000000000013
 30
0.0
 11
54.24999999998397
 21
58.150000000000013
 31
0.0
  0
LINE
  5
1E9D
  8
1
 10
49.114896978623698
 20
58.15000000000007
 30
0.0
 11
45.750000000016449
 21
58.150000000000297
 31
0.0
  0
ENDSEC
  0
EOF
