  0
SECTION
  2
HEADER
  9
$ACADVER
  1
AC1009
  9
$INSBASE
 10
0.0
 20
0.0
 30
0.0
  9
$EXTMIN
 10
0.0
 20
-1.4802182810368341
 30
0.0
  9
$EXTMAX
 10
51.398187052239109
 20
57.982933628244822
 30
0.0
  9
$LIMMIN
 10
0.0
 20
0.0
  9
$LIMMAX
 10
297.0
 20
210.0
  9
$ORTHOMODE
 70
     1
  9
$REGENMODE
 70
     1
  9
$FILLMODE
 70
     1
  9
$QTEXTMODE
 70
     0
  9
$MIRRTEXT
 70
     0
  9
$DRAGMODE
 70
     2
  9
$LTSCALE
 40
5.0
  9
$OSMODE
 70
    55
  9
$ATTMODE
 70
     1
  9
$TEXTSIZE
 40
2.5
  9
$TRACEWID
 40
1.0
  9
$TEXTSTYLE
  7
STANDARD
  9
$CLAYER
  8
0
  9
$CELTYPE
  6
BYLAYER
  9
$CECOLOR
 62
   256
  9
$DIMSCALE
 40
1.0
  9
$DIMASZ
 40
1.5
  9
$DIMEXO
 40
1.0
  9
$DIMDLI
 40
6.0
  9
$DIMRND
 40
0.0
  9
$DIMDLE
 40
0.0
  9
$DIMEXE
 40
1.0
  9
$DIMTP
 40
495.0
  9
$DIMTM
 40
0.0
  9
$DIMTXT
 40
3.0
  9
$DIMCEN
 40
0.0
  9
$DIMTSZ
 40
0.0
  9
$DIMTOL
 70
     0
  9
$DIMLIM
 70
     0
  9
$DIMTIH
 70
     0
  9
$DIMTOH
 70
     0
  9
$DIMSE1
 70
     0
  9
$DIMSE2
 70
     0
  9
$DIMTAD
 70
     3
  9
$DIMZIN
 70
     0
  9
$DIMBLK
  1

  9
$DIMASO
 70
     0
  9
$DIMSHO
 70
     1
  9
$DIMPOST
  1

  9
$DIMAPOST
  1

  9
$DIMALT
 70
     0
  9
$DIMALTD
 70
     2
  9
$DIMALTF
 40
25.399999999999999
  9
$DIMLFAC
 40
1.0
  9
$DIMTOFL
 70
     1
  9
$DIMTVP
 40
0.0
  9
$DIMTIX
 70
     1
  9
$DIMSOXD
 70
     0
  9
$DIMSAH
 70
     1
  9
$DIMBLK1
  1

  9
$DIMBLK2
  1

  9
$DIMSTYLE
  2
ITM
  9
$DIMCLRD
 70
     0
  9
$DIMCLRE
 70
     0
  9
$DIMCLRT
 70
     0
  9
$DIMTFAC
 40
1.0
  9
$DIMGAP
 40
0.5
  9
$LUNITS
 70
     2
  9
$LUPREC
 70
     2
  9
$SKETCHINC
 40
1.0
  9
$FILLETRAD
 40
0.0
  9
$AUNITS
 70
     0
  9
$AUPREC
 70
     0
  9
$MENU
  1
.
  9
$ELEVATION
 40
0.0
  9
$PELEVATION
 40
0.0
  9
$THICKNESS
 40
0.0
  9
$LIMCHECK
 70
     0
  9
$BLIPMODE
 70
     0
  9
$CHAMFERA
 40
10.0
  9
$CHAMFERB
 40
10.0
  9
$SKPOLY
 70
     0
  9
$TDCREATE
 40
2450750.3805300351
  9
$TDUPDATE
 40
2456598.3928748379
  9
$TDINDWG
 40
0.0406141551
  9
$TDUSRTIMER
 40
0.0349076852
  9
$USRTIMER
 70
     1
  9
$ANGBASE
 50
0.0
  9
$ANGDIR
 70
     0
  9
$PDMODE
 70
     0
  9
$PDSIZE
 40
0.0
  9
$PLINEWID
 40
0.0
  9
$COORDS
 70
     1
  9
$SPLFRAME
 70
     0
  9
$SPLINETYPE
 70
     6
  9
$SPLINESEGS
 70
     8
  9
$ATTDIA
 70
     0
  9
$ATTREQ
 70
     1
  9
$HANDLING
 70
     1
  9
$HANDSEED
  5
1CB
  9
$SURFTAB1
 70
     6
  9
$SURFTAB2
 70
     6
  9
$SURFTYPE
 70
     6
  9
$SURFU
 70
     6
  9
$SURFV
 70
     6
  9
$UCSNAME
  2

  9
$UCSORG
 10
0.0
 20
0.0
 30
0.0
  9
$UCSXDIR
 10
1.0
 20
0.0
 30
0.0
  9
$UCSYDIR
 10
0.0
 20
1.0
 30
0.0
  9
$PUCSNAME
  2

  9
$PUCSORG
 10
0.0
 20
0.0
 30
0.0
  9
$PUCSXDIR
 10
1.0
 20
0.0
 30
0.0
  9
$PUCSYDIR
 10
0.0
 20
1.0
 30
0.0
  9
$USERI1
 70
     4
  9
$USERI2
 70
     1
  9
$USERI3
 70
     1
  9
$USERI4
 70
     0
  9
$USERI5
 70
     0
  9
$USERR1
 40
1.0
  9
$USERR2
 40
3.0
  9
$USERR3
 40
3.0
  9
$USERR4
 40
1.5
  9
$USERR5
 40
10.0
  9
$WORLDVIEW
 70
     1
  9
$SHADEDGE
 70
     3
  9
$SHADEDIF
 70
    70
  9
$TILEMODE
 70
     1
  9
$MAXACTVP
 70
    16
  9
$PLIMCHECK
 70
     0
  9
$PEXTMIN
 10
1.0000000000000000E+020
 20
1.0000000000000000E+020
 30
1.0000000000000000E+020
  9
$PEXTMAX
 10
-1.0000000000000000E+020
 20
-1.0000000000000000E+020
 30
-1.0000000000000000E+020
  9
$PLIMMIN
 10
0.0
 20
0.0
  9
$PLIMMAX
 10
420.0
 20
297.0
  9
$UNITMODE
 70
     0
  9
$VISRETAIN
 70
     0
  9
$PLINEGEN
 70
     0
  9
$PSLTSCALE
 70
     1
  0
ENDSEC
  0
SECTION
  2
TABLES
  0
TABLE
  2
VPORT
 70
     1
  0
VPORT
  2
*ACTIVE
 70
     0
 10
0.0
 20
0.0
 11
1.0
 21
1.0
 12
148.4954684853966
 22
153.48207604803741
 13
0.0
 23
0.0
 14
10.0
 24
10.0
 15
10.0
 25
10.0
 16
0.0
 26
0.0
 36
1.0
 17
0.0
 27
0.0
 37
0.0
 40
312.67169637996881
 41
1.7807262569832401
 42
50.0
 43
0.0
 44
0.0
 50
0.0
 51
0.0
 71
     0
 72
   100
 73
     1
 74
     0
 75
     0
 76
     0
 77
     0
 78
     0
  0
ENDTAB
  0
TABLE
  2
LTYPE
 70
     3
  0
LTYPE
  2
CONTINUOUS
 70
     0
  3
Solid Line
 72
    65
 73
     0
 40
0.0
  0
LTYPE
  2
CENTER
 70
     0
  3
____ _ ____ _ ____ _ ____ _ ____ _ ____ _ ____
 72
    65
 73
     4
 40
2.0
 49
1.25
 49
-0.25
 49
0.25
 49
-0.25
  0
LTYPE
  2
PHANTOM2
 70
     0
  3
___ _ _ ___ _ _ ___ _ _ ___ _ _
 72
    65
 73
     6
 40
1.25
 49
0.625
 49
-0.125
 49
0.125
 49
-0.125
 49
0.125
 49
-0.125
  0
ENDTAB
  0
TABLE
  2
LAYER
 70
     2
  0
LAYER
  2
0
 70
     0
 62
     7
  6
CONTINUOUS
  0
LAYER
  2
1
 70
     0
 62
     1
  6
CENTER
  0
ENDTAB
  0
TABLE
  2
STYLE
 70
     2
  0
STYLE
  2
STANDARD
 70
     0
 40
0.0
 41
1.0
 50
15.0
 71
     0
 42
2.5
  3
ROMANS
  4
BIGFONT
  0
STYLE
  2
STANDARD1
 70
     0
 40
0.0
 41
1.0
 50
0.0
 71
     0
 42
3.0
  3
txt
  4

  0
ENDTAB
  0
TABLE
  2
VIEW
 70
     0
  0
ENDTAB
  0
TABLE
  2
UCS
 70
     0
  0
ENDTAB
  0
TABLE
  2
APPID
 70
     3
  0
APPID
  2
ACAD
 70
     0
  0
APPID
  2
ACAD_MLEADERVER
 70
     0
  0
APPID
  2
ACAD_NAV_VCDISPLAY
 70
     0
  0
ENDTAB
  0
TABLE
  2
DIMSTYLE
 70
     2
  0
DIMSTYLE
  2
ITM
 70
     0
  3

  4

  5

  6

  7

 40
1.0
 41
1.5
 42
1.0
 43
6.0
 44
1.0
 45
0.0
 46
0.0
 47
495.0
 48
0.0
140
3.0
141
0.0
142
0.0
143
25.399999999999999
144
1.0
145
0.0
146
1.0
147
0.5
 71
     0
 72
     0
 73
     0
 74
     0
 75
     0
 76
     0
 77
     3
 78
     8
170
     0
171
     2
172
     1
173
     1
174
     1
175
     0
176
     0
177
     0
178
     0
  0
DIMSTYLE
  2
STANDARD
 70
     0
  3

  4

  5

  6

  7

 40
1.0
 41
0.18
 42
0.0625
 43
0.38
 44
0.18
 45
0.0
 46
0.0
 47
0.0
 48
0.0
140
0.18
141
0.09
142
0.0
143
25.399999999999999
144
1.0
145
0.0
146
1.0
147
0.09
 71
     0
 72
     0
 73
     1
 74
     1
 75
     0
 76
     0
 77
     0
 78
     0
170
     0
171
     2
172
     0
173
     0
174
     0
175
     0
176
     0
177
     0
178
     0
  0
ENDTAB
  0
ENDSEC
  0
SECTION
  2
BLOCKS
  0
BLOCK
  8
0
  2
$MODEL_SPACE
 70
     0
 10
0.0
 20
0.0
 30
0.0
  3
$MODEL_SPACE
  1

  0
ENDBLK
  5
20
  8
0
  0
BLOCK
 67
     1
  8
0
  2
$PAPER_SPACE
 70
     0
 10
0.0
 20
0.0
 30
0.0
  3
$PAPER_SPACE
  1

  0
ENDBLK
  5
1C
 67
     1
  8
0
  0
ENDSEC
  0
SECTION
  2
ENTITIES
  0
LINE
  5
36
  8
0
 10
49.126614052239091
 20
32.982933628244837
 30
0.0
 11
49.126614052239091
 21
15.98293362824484
 31
0.0
  0
LINE
  5
37
  8
0
 10
48.52046805223906
 20
32.982933628244837
 30
0.0
 11
48.52046805223906
 21
15.98293362824484
 31
0.0
  0
LINE
  5
38
  8
0
 10
47.828921052239082
 20
32.982933628244837
 30
0.0
 11
47.828921052239082
 21
15.98293362824484
 31
0.0
  0
LINE
  5
39
  8
0
 10
47.078548052239093
 20
32.982933628244837
 30
0.0
 11
47.078548052239093
 21
15.98293362824484
 31
0.0
  0
LINE
  5
3A
  8
0
 10
42.375046052239057
 20
32.982933628244837
 30
0.0
 11
42.375046052239057
 21
15.98293362824484
 31
0.0
  0
LINE
  5
3B
  8
0
 10
42.602669052239087
 20
32.982933628244837
 30
0.0
 11
42.602669052239087
 21
15.98293362824484
 31
0.0
  0
LINE
  5
3C
  8
0
 10
42.97230905223909
 20
32.982933628244837
 30
0.0
 11
42.97230905223909
 21
15.98293362824484
 31
0.0
  0
LINE
  5
3D
  8
0
 10
43.469760052239081
 20
32.982933628244837
 30
0.0
 11
43.469760052239081
 21
15.98293362824484
 31
0.0
  0
LINE
  5
3E
  8
0
 10
44.075906052239098
 20
32.982933628244837
 30
0.0
 11
44.075906052239098
 21
15.98293362824484
 31
0.0
  0
LINE
  5
3F
  8
0
 10
44.767453052239091
 20
32.982933628244837
 30
0.0
 11
44.767453052239091
 21
15.98293362824484
 31
0.0
  0
LINE
  5
40
  8
0
 10
45.51782605223908
 20
32.982933628244837
 30
0.0
 11
45.51782605223908
 21
15.98293362824484
 31
0.0
  0
LINE
  5
41
  8
0
 10
49.498187052239103
 20
40.182933628244818
 30
0.0
 11
49.498187052239103
 21
21.98293362824484
 31
0.0
  0
LINE
  5
42
  8
1
 10
46.298187052239079
 20
41.98293362824483
 30
0.0
 11
46.298187052239079
 21
14.98293362824483
 31
0.0
  0
LINE
  5
43
  8
0
 10
42.298187052239079
 20
40.182933628244818
 30
0.0
 11
42.298187052239079
 21
15.98293362824484
 31
0.0
  0
LINE
  5
46
  8
0
 10
42.298187052239079
 20
15.98293362824484
 30
0.0
 11
50.298187052239093
 21
15.98293362824484
 31
0.0
  0
LINE
  5
47
  8
0
 10
50.221328052239102
 20
21.98293362824484
 30
0.0
 11
50.221328052239102
 21
15.98293362824484
 31
0.0
  0
LINE
  5
48
  8
0
 10
49.993705052239072
 20
21.98293362824484
 30
0.0
 11
49.993705052239072
 21
15.98293362824484
 31
0.0
  0
LINE
  5
49
  8
0
 10
49.624066052239073
 20
21.98293362824484
 30
0.0
 11
49.624066052239073
 21
15.98293362824484
 31
0.0
  0
LINE
  5
4A
  8
0
 10
50.298187052239093
 20
21.98293362824484
 30
0.0
 11
50.298187052239093
 21
15.98293362824484
 31
0.0
  0
LINE
  5
4B
  8
0
 10
49.498187052239103
 20
21.98293362824484
 30
0.0
 11
50.298187052239093
 21
21.98293362824484
 31
0.0
  0
LINE
  5
4C
  8
1
 10
51.398187052239109
 20
37.382933628244828
 30
0.0
 11
46.398187052239109
 21
37.382933628244828
 31
0.0
  0
LINE
  5
4D
  8
0
 10
42.298187052239079
 20
32.982933628244837
 30
0.0
 11
49.498187052239103
 21
32.982933628244837
 31
0.0
  0
LINE
  5
4E
  8
0
 10
48.858187052239089
 20
40.982933628244837
 30
0.0
 11
49.498187052239103
 21
40.182933628244818
 31
0.0
  0
LINE
  5
4F
  8
0
 10
42.298187052239079
 20
40.182933628244818
 30
0.0
 11
49.498187052239103
 21
40.182933628244818
 31
0.0
  0
LINE
  5
50
  8
0
 10
43.098187052239098
 20
40.982933628244837
 30
0.0
 11
48.858187052239089
 21
40.982933628244837
 31
0.0
  0
LINE
  5
51
  8
0
 10
42.298187052239079
 20
40.182933628244818
 30
0.0
 11
43.098187052239098
 21
40.982933628244837
 31
0.0
  0
ARC
  5
52
  8
0
 10
48.698187052239099
 20
37.382933628244828
 30
0.0
 40
1.5
 50
302.23095263550198
 51
57.769047364497972
  0
LINE
  5
53
  8
1
 10
51.298187052239079
 20
52.982933628244837
 30
0.0
 11
41.298187052239079
 21
52.982933628244837
 31
0.0
  0
LINE
  5
55
  8
0
 10
48.858187052239089
 20
51.062933628244842
 30
0.0
 11
49.498187052239103
 21
50.582933628244831
 31
0.0
  0
LINE
  5
56
  8
0
 10
48.858187052239089
 20
54.902933628244817
 30
0.0
 11
49.498187052239103
 21
55.382933628244821
 31
0.0
  0
ARC
  5
57
  8
0
 10
46.298187052239079
 20
52.982933628244837
 30
0.0
 40
3.2000000000000002
 50
36.869897999999999
 51
323.13010200000002
  0
LINE
  5
58
  8
1
 10
46.298187052239079
 20
57.982933628244822
 30
0.0
 11
46.298187052239079
 21
47.98293362824483
 31
0.0
  0
LINE
  5
59
  8
0
 10
48.858187052239089
 20
51.062933628244842
 30
0.0
 11
48.858187052239089
 21
54.902933628244817
 31
0.0
  0
LINE
  5
5A
  8
0
 10
49.498187052239103
 20
55.382933628244821
 30
0.0
 11
49.498187052239103
 21
50.582933628244831
 31
0.0
  0
ARC
  5
5B
  8
0
 10
48.698187052239099
 20
52.982933628244837
 30
0.0
 40
1.5
 50
302.23095263550198
 51
57.769047364497972
  0
CIRCLE
  5
FF
  8
0
 10
46.298187052239079
 20
52.98293362824483
 30
0.0
 40
4.0000000000000071
  0
TEXT
  5
166
  8
0
 62
     3
 10
0.0
 20
0.0
 30
0.0
 40
5.0
  1
WP1N-8
  7
STANDARD1
  0
ENDSEC
  0
EOF
