  0
SECTION
  2
HEADER
  9
$ACADVER
  1
AC1009
  9
$INSBASE
 10
0.0
 20
0.0
 30
0.0
  9
$EXTMIN
 10
0.0
 20
-1.4802182810368341
 30
0.0
  9
$EXTMAX
 10
53.476925942115543
 20
61.461259516064061
 30
0.0
  9
$LIMMIN
 10
0.0
 20
0.0
  9
$LIMMAX
 10
297.0
 20
210.0
  9
$ORTHOMODE
 70
     0
  9
$REGENMODE
 70
     1
  9
$FILLMODE
 70
     1
  9
$QTEXTMODE
 70
     0
  9
$MIRRTEXT
 70
     0
  9
$DRAGMODE
 70
     2
  9
$LTSCALE
 40
5.0
  9
$OSMODE
 70
    55
  9
$ATTMODE
 70
     1
  9
$TEXTSIZE
 40
2.5
  9
$TRACEWID
 40
1.0
  9
$TEXTSTYLE
  7
STANDARD
  9
$CLAYER
  8
0
  9
$CELTYPE
  6
BYLAYER
  9
$CECOLOR
 62
   256
  9
$DIMSCALE
 40
1.0
  9
$DIMASZ
 40
1.5
  9
$DIMEXO
 40
1.0
  9
$DIMDLI
 40
6.0
  9
$DIMRND
 40
0.0
  9
$DIMDLE
 40
0.0
  9
$DIMEXE
 40
1.0
  9
$DIMTP
 40
495.0
  9
$DIMTM
 40
0.0
  9
$DIMTXT
 40
3.0
  9
$DIMCEN
 40
0.0
  9
$DIMTSZ
 40
0.0
  9
$DIMTOL
 70
     0
  9
$DIMLIM
 70
     0
  9
$DIMTIH
 70
     0
  9
$DIMTOH
 70
     0
  9
$DIMSE1
 70
     0
  9
$DIMSE2
 70
     0
  9
$DIMTAD
 70
     3
  9
$DIMZIN
 70
     0
  9
$DIMBLK
  1

  9
$DIMASO
 70
     0
  9
$DIMSHO
 70
     1
  9
$DIMPOST
  1

  9
$DIMAPOST
  1

  9
$DIMALT
 70
     0
  9
$DIMALTD
 70
     2
  9
$DIMALTF
 40
25.399999999999999
  9
$DIMLFAC
 40
1.0
  9
$DIMTOFL
 70
     1
  9
$DIMTVP
 40
0.0
  9
$DIMTIX
 70
     1
  9
$DIMSOXD
 70
     0
  9
$DIMSAH
 70
     1
  9
$DIMBLK1
  1

  9
$DIMBLK2
  1

  9
$DIMSTYLE
  2
ITM
  9
$DIMCLRD
 70
     0
  9
$DIMCLRE
 70
     0
  9
$DIMCLRT
 70
     0
  9
$DIMTFAC
 40
1.0
  9
$DIMGAP
 40
0.5
  9
$LUNITS
 70
     2
  9
$LUPREC
 70
     2
  9
$SKETCHINC
 40
1.0
  9
$FILLETRAD
 40
0.0
  9
$AUNITS
 70
     0
  9
$AUPREC
 70
     0
  9
$MENU
  1
.
  9
$ELEVATION
 40
0.0
  9
$PELEVATION
 40
0.0
  9
$THICKNESS
 40
0.0
  9
$LIMCHECK
 70
     0
  9
$BLIPMODE
 70
     0
  9
$CHAMFERA
 40
10.0
  9
$CHAMFERB
 40
10.0
  9
$SKPOLY
 70
     0
  9
$TDCREATE
 40
2450750.3805300351
  9
$TDUPDATE
 40
2456598.3927806951
  9
$TDINDWG
 40
0.0210148495
  9
$TDUSRTIMER
 40
0.0153083796
  9
$USRTIMER
 70
     1
  9
$ANGBASE
 50
0.0
  9
$ANGDIR
 70
     0
  9
$PDMODE
 70
     0
  9
$PDSIZE
 40
0.0
  9
$PLINEWID
 40
0.0
  9
$COORDS
 70
     1
  9
$SPLFRAME
 70
     0
  9
$SPLINETYPE
 70
     6
  9
$SPLINESEGS
 70
     8
  9
$ATTDIA
 70
     0
  9
$ATTREQ
 70
     1
  9
$HANDLING
 70
     1
  9
$HANDSEED
  5
23A
  9
$SURFTAB1
 70
     6
  9
$SURFTAB2
 70
     6
  9
$SURFTYPE
 70
     6
  9
$SURFU
 70
     6
  9
$SURFV
 70
     6
  9
$UCSNAME
  2

  9
$UCSORG
 10
0.0
 20
0.0
 30
0.0
  9
$UCSXDIR
 10
1.0
 20
0.0
 30
0.0
  9
$UCSYDIR
 10
0.0
 20
1.0
 30
0.0
  9
$PUCSNAME
  2

  9
$PUCSORG
 10
0.0
 20
0.0
 30
0.0
  9
$PUCSXDIR
 10
1.0
 20
0.0
 30
0.0
  9
$PUCSYDIR
 10
0.0
 20
1.0
 30
0.0
  9
$USERI1
 70
     4
  9
$USERI2
 70
     1
  9
$USERI3
 70
     1
  9
$USERI4
 70
     0
  9
$USERI5
 70
     0
  9
$USERR1
 40
1.0
  9
$USERR2
 40
3.0
  9
$USERR3
 40
3.0
  9
$USERR4
 40
1.5
  9
$USERR5
 40
10.0
  9
$WORLDVIEW
 70
     1
  9
$SHADEDGE
 70
     3
  9
$SHADEDIF
 70
    70
  9
$TILEMODE
 70
     1
  9
$MAXACTVP
 70
    16
  9
$PLIMCHECK
 70
     0
  9
$PEXTMIN
 10
1.0000000000000000E+020
 20
1.0000000000000000E+020
 30
1.0000000000000000E+020
  9
$PEXTMAX
 10
-1.0000000000000000E+020
 20
-1.0000000000000000E+020
 30
-1.0000000000000000E+020
  9
$PLIMMIN
 10
0.0
 20
0.0
  9
$PLIMMAX
 10
420.0
 20
297.0
  9
$UNITMODE
 70
     0
  9
$VISRETAIN
 70
     0
  9
$PLINEGEN
 70
     0
  9
$PSLTSCALE
 70
     1
  0
ENDSEC
  0
SECTION
  2
TABLES
  0
TABLE
  2
VPORT
 70
     1
  0
VPORT
  2
*ACTIVE
 70
     0
 10
0.0
 20
0.0
 11
1.0
 21
1.0
 12
148.4954684853966
 22
153.48445918231931
 13
0.0
 23
0.0
 14
10.0
 24
10.0
 15
10.0
 25
10.0
 16
0.0
 26
0.0
 36
1.0
 17
0.0
 27
0.0
 37
0.0
 40
312.65851226798259
 41
1.7807262569832401
 42
50.0
 43
0.0
 44
0.0
 50
0.0
 51
0.0
 71
     0
 72
   100
 73
     1
 74
     0
 75
     0
 76
     0
 77
     0
 78
     0
  0
ENDTAB
  0
TABLE
  2
LTYPE
 70
     3
  0
LTYPE
  2
CONTINUOUS
 70
     0
  3
Solid Line
 72
    65
 73
     0
 40
0.0
  0
LTYPE
  2
CENTER
 70
     0
  3
____ _ ____ _ ____ _ ____ _ ____ _ ____ _ ____
 72
    65
 73
     4
 40
2.0
 49
1.25
 49
-0.25
 49
0.25
 49
-0.25
  0
LTYPE
  2
PHANTOM2
 70
     0
  3
___ _ _ ___ _ _ ___ _ _ ___ _ _
 72
    65
 73
     6
 40
1.25
 49
0.625
 49
-0.125
 49
0.125
 49
-0.125
 49
0.125
 49
-0.125
  0
ENDTAB
  0
TABLE
  2
LAYER
 70
     2
  0
LAYER
  2
0
 70
     0
 62
     7
  6
CONTINUOUS
  0
LAYER
  2
1
 70
     0
 62
     1
  6
CENTER
  0
ENDTAB
  0
TABLE
  2
STYLE
 70
     2
  0
STYLE
  2
STANDARD
 70
     0
 40
0.0
 41
1.0
 50
15.0
 71
     0
 42
2.5
  3
ROMANS
  4
BIGFONT
  0
STYLE
  2
STANDARD1
 70
     0
 40
0.0
 41
1.0
 50
0.0
 71
     0
 42
3.0
  3
txt
  4

  0
ENDTAB
  0
TABLE
  2
VIEW
 70
     0
  0
ENDTAB
  0
TABLE
  2
UCS
 70
     0
  0
ENDTAB
  0
TABLE
  2
APPID
 70
     3
  0
APPID
  2
ACAD
 70
     0
  0
APPID
  2
ACAD_MLEADERVER
 70
     0
  0
APPID
  2
ACAD_NAV_VCDISPLAY
 70
     0
  0
ENDTAB
  0
TABLE
  2
DIMSTYLE
 70
     2
  0
DIMSTYLE
  2
ITM
 70
     0
  3

  4

  5

  6

  7

 40
1.0
 41
1.5
 42
1.0
 43
6.0
 44
1.0
 45
0.0
 46
0.0
 47
495.0
 48
0.0
140
3.0
141
0.0
142
0.0
143
25.399999999999999
144
1.0
145
0.0
146
1.0
147
0.5
 71
     0
 72
     0
 73
     0
 74
     0
 75
     0
 76
     0
 77
     3
 78
     8
170
     0
171
     2
172
     1
173
     1
174
     1
175
     0
176
     0
177
     0
178
     0
  0
DIMSTYLE
  2
STANDARD
 70
     0
  3

  4

  5

  6

  7

 40
1.0
 41
0.18
 42
0.0625
 43
0.38
 44
0.18
 45
0.0
 46
0.0
 47
0.0
 48
0.0
140
0.18
141
0.09
142
0.0
143
25.399999999999999
144
1.0
145
0.0
146
1.0
147
0.09
 71
     0
 72
     0
 73
     1
 74
     1
 75
     0
 76
     0
 77
     0
 78
     0
170
     0
171
     2
172
     0
173
     0
174
     0
175
     0
176
     0
177
     0
178
     0
  0
ENDTAB
  0
ENDSEC
  0
SECTION
  2
BLOCKS
  0
BLOCK
  8
0
  2
$MODEL_SPACE
 70
     0
 10
0.0
 20
0.0
 30
0.0
  3
$MODEL_SPACE
  1

  0
ENDBLK
  5
20
  8
0
  0
BLOCK
 67
     1
  8
0
  2
$PAPER_SPACE
 70
     0
 10
0.0
 20
0.0
 30
0.0
  3
$PAPER_SPACE
  1

  0
ENDBLK
  5
1C
 67
     1
  8
0
  0
ENDSEC
  0
SECTION
  2
ENTITIES
  0
LINE
  5
C1
  8
0
 10
52.380851942115541
 20
17.46125951606404
 30
0.0
 11
52.380851942115541
 21
10.46125951606405
 31
0.0
  0
LINE
  5
C2
  8
0
 10
52.096322942115528
 20
17.46125951606404
 30
0.0
 11
52.096322942115528
 21
10.46125951606405
 31
0.0
  0
LINE
  5
C3
  8
0
 10
51.634273942115541
 20
17.46125951606404
 30
0.0
 11
51.634273942115541
 21
10.46125951606405
 31
0.0
  0
LINE
  5
C4
  8
0
 10
51.012458942115529
 20
31.46125951606405
 30
0.0
 11
51.012458942115529
 21
10.46125951606405
 31
0.0
  0
LINE
  5
C5
  8
0
 10
50.254776942115541
 20
31.46125951606405
 30
0.0
 11
50.254776942115541
 21
10.46125951606405
 31
0.0
  0
LINE
  5
C6
  8
0
 10
49.390342942115538
 20
31.46125951606405
 30
0.0
 11
49.390342942115538
 21
10.46125951606405
 31
0.0
  0
LINE
  5
C7
  8
0
 10
48.452376942115542
 20
31.46125951606405
 30
0.0
 11
48.452376942115542
 21
10.46125951606405
 31
0.0
  0
LINE
  5
C8
  8
0
 10
42.572998942115547
 20
31.46125951606405
 30
0.0
 11
42.572998942115547
 21
10.46125951606405
 31
0.0
  0
LINE
  5
C9
  8
0
 10
42.857527942115532
 20
31.46125951606405
 30
0.0
 11
42.857527942115532
 21
10.46125951606405
 31
0.0
  0
LINE
  5
CA
  8
0
 10
43.319577942115536
 20
31.46125951606405
 30
0.0
 11
43.319577942115536
 21
10.46125951606405
 31
0.0
  0
LINE
  5
CB
  8
0
 10
43.94139194211553
 20
31.46125951606405
 30
0.0
 11
43.94139194211553
 21
10.46125951606405
 31
0.0
  0
LINE
  5
CC
  8
0
 10
44.699073942115547
 20
31.46125951606405
 30
0.0
 11
44.699073942115547
 21
10.46125951606405
 31
0.0
  0
LINE
  5
CD
  8
0
 10
45.563507942115521
 20
31.46125951606405
 30
0.0
 11
45.563507942115521
 21
10.46125951606405
 31
0.0
  0
LINE
  5
CE
  8
0
 10
46.501473942115531
 20
31.46125951606405
 30
0.0
 11
46.501473942115531
 21
10.46125951606405
 31
0.0
  0
LINE
  5
CF
  8
1
 10
47.476925942115543
 20
41.46125951606404
 30
0.0
 11
47.476925942115543
 21
9.4612595160640538
 31
0.0
  0
LINE
  5
D0
  8
0
 10
52.476925942115543
 20
17.46125951606404
 30
0.0
 11
52.476925942115543
 21
10.46125951606405
 31
0.0
  0
LINE
  5
D1
  8
0
 10
42.476925942115543
 20
39.461259516064047
 30
0.0
 11
42.476925942115543
 21
10.46125951606405
 31
0.0
  0
LINE
  5
D2
  8
0
 10
42.476925942115543
 20
10.46125951606405
 30
0.0
 11
52.476925942115543
 21
10.46125951606405
 31
0.0
  0
LINE
  5
D3
  8
1
 10
53.476925942115543
 20
36.261259516064058
 30
0.0
 11
47.476925942115543
 21
36.261259516064058
 31
0.0
  0
ARC
  5
D4
  8
0
 10
50.476925942115543
 20
36.261259516064058
 30
0.0
 40
2.0
 50
299.99999999999989
 51
60.000000000000071
  0
LINE
  5
D5
  8
0
 10
51.476925942115543
 20
17.46125951606404
 30
0.0
 11
52.476925942115543
 21
17.46125951606404
 31
0.0
  0
LINE
  5
D6
  8
0
 10
51.476925942115543
 20
40.461259516064047
 30
0.0
 11
51.476925942115543
 21
17.46125951606404
 31
0.0
  0
LINE
  5
D7
  8
0
 10
42.476925942115543
 20
31.46125951606405
 30
0.0
 11
51.476925942115543
 21
31.46125951606405
 31
0.0
  0
LINE
  5
D8
  8
0
 10
43.476925942115543
 20
40.461259516064047
 30
0.0
 11
42.476925942115543
 21
39.461259516064047
 31
0.0
  0
LINE
  5
D9
  8
0
 10
42.476925942115543
 20
39.461259516064047
 30
0.0
 11
51.476925942115543
 21
39.461259516064047
 31
0.0
  0
LINE
  5
DA
  8
0
 10
43.476925942115543
 20
40.461259516064047
 30
0.0
 11
51.476925942115543
 21
40.461259516064047
 31
0.0
  0
ARC
  5
DB
  8
0
 10
50.476925942115543
 20
55.461259516064061
 30
0.0
 40
2.0
 50
299.99999999999989
 51
60.000000000000071
  0
LINE
  5
DC
  8
1
 10
41.476925942115543
 20
55.461259516064061
 30
0.0
 11
53.476925942115543
 21
55.461259516064061
 31
0.0
  0
CIRCLE
  5
DD
  8
0
 10
47.476925942115543
 20
55.461259516064061
 30
0.0
 40
5.0
  0
LINE
  5
DE
  8
1
 10
47.476925942115543
 20
61.461259516064061
 30
0.0
 11
47.476925942115543
 21
49.46125951606404
 31
0.0
  0
CIRCLE
  5
DF
  8
0
 10
47.476925942115543
 20
55.461259516064061
 30
0.0
 40
4.0
  0
LINE
  5
E0
  8
0
 10
51.476925942115543
 20
58.461259516064061
 30
0.0
 11
51.476925942115543
 21
52.461259516064061
 31
0.0
  0
TEXT
  5
1A7
  8
0
 62
     3
 10
0.0
 20
0.0
 30
0.0
 40
5.0
  1
WP1N-10
  7
STANDARD1
  0
ENDSEC
  0
EOF
