  0
SECTION
  2
HEADER
  9
$ACADVER
  1
AC1009
  9
$INSBASE
 10
0.0
 20
0.0
 30
0.0
  9
$EXTMIN
 10
0.0
 20
-2.960436562073669
 30
0.0
  9
$EXTMAX
 10
124.5241322355068
 20
114.92223038136621
 30
0.0000000000000045
  9
$LIMMIN
 10
0.0
 20
0.0
  9
$LIMMAX
 10
375.0
 20
278.0
  9
$ORTHOMODE
 70
     1
  9
$REGENMODE
 70
     1
  9
$FILLMODE
 70
     1
  9
$QTEXTMODE
 70
     0
  9
$MIRRTEXT
 70
     0
  9
$DRAGMODE
 70
     2
  9
$LTSCALE
 40
10.0
  9
$OSMODE
 70
    55
  9
$ATTMODE
 70
     1
  9
$TEXTSIZE
 40
0.2
  9
$TRACEWID
 40
0.05
  9
$TEXTSTYLE
  7
STANDARD
  9
$CLAYER
  8
3
  9
$CELTYPE
  6
BYLAYER
  9
$CECOLOR
 62
   256
  9
$DIMSCALE
 40
1.0
  9
$DIMASZ
 40
3.0
  9
$DIMEXO
 40
1.0
  9
$DIMDLI
 40
6.0
  9
$DIMRND
 40
0.0
  9
$DIMDLE
 40
0.0
  9
$DIMEXE
 40
1.0
  9
$DIMTP
 40
495.0
  9
$DIMTM
 40
0.0
  9
$DIMTXT
 40
3.0
  9
$DIMCEN
 40
0.0
  9
$DIMTSZ
 40
0.0
  9
$DIMTOL
 70
     0
  9
$DIMLIM
 70
     0
  9
$DIMTIH
 70
     0
  9
$DIMTOH
 70
     0
  9
$DIMSE1
 70
     0
  9
$DIMSE2
 70
     0
  9
$DIMTAD
 70
     1
  9
$DIMZIN
 70
     0
  9
$DIMBLK
  1

  9
$DIMASO
 70
     1
  9
$DIMSHO
 70
     0
  9
$DIMPOST
  1

  9
$DIMAPOST
  1

  9
$DIMALT
 70
     0
  9
$DIMALTD
 70
     2
  9
$DIMALTF
 40
25.399999999999999
  9
$DIMLFAC
 40
1.0
  9
$DIMTOFL
 70
     1
  9
$DIMTVP
 40
0.0
  9
$DIMTIX
 70
     1
  9
$DIMSOXD
 70
     0
  9
$DIMSAH
 70
     0
  9
$DIMBLK1
  1

  9
$DIMBLK2
  1

  9
$DIMSTYLE
  2
STANDARD
  9
$DIMCLRD
 70
     0
  9
$DIMCLRE
 70
     0
  9
$DIMCLRT
 70
     4
  9
$DIMTFAC
 40
1.0
  9
$DIMGAP
 40
1.0
  9
$LUNITS
 70
     2
  9
$LUPREC
 70
     4
  9
$SKETCHINC
 40
0.1
  9
$FILLETRAD
 40
0.0
  9
$AUNITS
 70
     0
  9
$AUPREC
 70
     0
  9
$MENU
  1
C:\R13\WIN\SUPPORT\ACAD-I
  9
$ELEVATION
 40
0.0
  9
$PELEVATION
 40
0.0
  9
$THICKNESS
 40
0.0
  9
$LIMCHECK
 70
     0
  9
$BLIPMODE
 70
     0
  9
$CHAMFERA
 40
0.0
  9
$CHAMFERB
 40
0.0
  9
$SKPOLY
 70
     0
  9
$TDCREATE
 40
2451922.6672596182
  9
$TDUPDATE
 40
2456598.3919309732
  9
$TDINDWG
 40
0.0183313079
  9
$TDUSRTIMER
 40
0.0183313079
  9
$USRTIMER
 70
     1
  9
$ANGBASE
 50
0.0
  9
$ANGDIR
 70
     0
  9
$PDMODE
 70
     0
  9
$PDSIZE
 40
0.0
  9
$PLINEWID
 40
0.0
  9
$COORDS
 70
     1
  9
$SPLFRAME
 70
     0
  9
$SPLINETYPE
 70
     6
  9
$SPLINESEGS
 70
     8
  9
$ATTDIA
 70
     0
  9
$ATTREQ
 70
     1
  9
$HANDLING
 70
     1
  9
$HANDSEED
  5
33EB
  9
$SURFTAB1
 70
     6
  9
$SURFTAB2
 70
     6
  9
$SURFTYPE
 70
     6
  9
$SURFU
 70
     6
  9
$SURFV
 70
     6
  9
$UCSNAME
  2

  9
$UCSORG
 10
0.0
 20
0.0
 30
0.0
  9
$UCSXDIR
 10
1.0
 20
0.0
 30
0.0
  9
$UCSYDIR
 10
0.0
 20
1.0
 30
0.0
  9
$PUCSNAME
  2

  9
$PUCSORG
 10
0.0
 20
0.0
 30
0.0
  9
$PUCSXDIR
 10
1.0
 20
0.0
 30
0.0
  9
$PUCSYDIR
 10
0.0
 20
1.0
 30
0.0
  9
$USERI1
 70
     4
  9
$USERI2
 70
     1
  9
$USERI3
 70
     1
  9
$USERI4
 70
     0
  9
$USERI5
 70
     0
  9
$USERR1
 40
1.0
  9
$USERR2
 40
3.0
  9
$USERR3
 40
3.0
  9
$USERR4
 40
3.0
  9
$USERR5
 40
10.0
  9
$WORLDVIEW
 70
     1
  9
$SHADEDGE
 70
     3
  9
$SHADEDIF
 70
    70
  9
$TILEMODE
 70
     1
  9
$MAXACTVP
 70
    16
  9
$PLIMCHECK
 70
     0
  9
$PEXTMIN
 10
1.0000000000000000E+020
 20
1.0000000000000000E+020
 30
1.0000000000000000E+020
  9
$PEXTMAX
 10
-1.0000000000000000E+020
 20
-1.0000000000000000E+020
 30
-1.0000000000000000E+020
  9
$PLIMMIN
 10
0.0
 20
0.0
  9
$PLIMMAX
 10
12.0
 20
9.0
  9
$UNITMODE
 70
     0
  9
$VISRETAIN
 70
     0
  9
$PLINEGEN
 70
     0
  9
$PSLTSCALE
 70
     0
  0
ENDSEC
  0
SECTION
  2
TABLES
  0
TABLE
  2
VPORT
 70
     1
  0
VPORT
  2
*ACTIVE
 70
     0
 10
0.0
 20
0.0
 11
1.0
 21
1.0
 12
187.49427839065231
 22
202.91212308175699
 13
0.0
 23
0.0
 14
10.0
 24
10.0
 15
10.0
 25
10.0
 16
0.0
 26
0.0
 36
1.0
 17
0.0
 27
0.0
 37
0.0
 40
415.40545391498068
 41
1.7807262569832401
 42
50.0
 43
0.0
 44
0.0
 50
0.0
 51
0.0
 71
     0
 72
   100
 73
     1
 74
     0
 75
     0
 76
     0
 77
     0
 78
     0
  0
ENDTAB
  0
TABLE
  2
LTYPE
 70
     4
  0
LTYPE
  2
CONTINUOUS
 70
     0
  3
Solid Line
 72
    65
 73
     0
 40
0.0
  0
LTYPE
  2
CENTER
 70
     0
  3
____ _ ____ _ ____ _ ____ _ ____ _ ____ _ ____
 72
    65
 73
     4
 40
2.0
 49
1.25
 49
-0.25
 49
0.25
 49
-0.25
  0
LTYPE
  2
HIDDEN
 70
     0
  3
__ __ __ __ __ __ __ __ __ __ __ __ __ __ __ __
 72
    65
 73
     2
 40
0.375
 49
0.25
 49
-0.125
  0
LTYPE
  2
PHANTOM2
 70
     0
  3
___ _ _ ___ _ _ ___ _ _ ___ _ _
 72
    65
 73
     6
 40
1.25
 49
0.625
 49
-0.125
 49
0.125
 49
-0.125
 49
0.125
 49
-0.125
  0
ENDTAB
  0
TABLE
  2
LAYER
 70
     5
  0
LAYER
  2
0
 70
     0
 62
     7
  6
CONTINUOUS
  0
LAYER
  2
1
 70
     0
 62
     1
  6
CENTER
  0
LAYER
  2
3
 70
     0
 62
     3
  6
CONTINUOUS
  0
LAYER
  2
2
 70
     0
 62
     2
  6
HIDDEN
  0
LAYER
  2
ITTEN
 70
     0
 62
     1
  6
CENTER
  0
ENDTAB
  0
TABLE
  2
STYLE
 70
     2
  0
STYLE
  2
STANDARD
 70
     0
 40
0.0
 41
1.0
 50
0.0
 71
     0
 42
0.2
  3
SIMPLEX
  4
BIGFONT
  0
STYLE
  2
STANDARD1
 70
     0
 40
0.0
 41
1.0
 50
0.0
 71
     0
 42
3.0
  3
txt
  4

  0
ENDTAB
  0
TABLE
  2
VIEW
 70
     0
  0
ENDTAB
  0
TABLE
  2
UCS
 70
     0
  0
ENDTAB
  0
TABLE
  2
APPID
 70
    39
  0
APPID
  2
ACAD
 70
     0
  0
APPID
  2
GENIUS_GENOBJ_13
 70
     0
  0
APPID
  2
GENIUS_GENODEF_13
 70
     0
  0
APPID
  2
GENIUS_GENOENT_13
 70
     0
  0
APPID
  2
GENIUS_GENOLIS_13
 70
     0
  0
APPID
  2
GENIUS_GENOREF_13
 70
     0
  0
APPID
  2
GENIUS_GENOBJ-N-TIT_13
 70
     0
  0
APPID
  2
GENIUS_GENTITLE_13
 70
     0
  0
APPID
  2
GENIUS_GENZVEED_13
 70
     0
  0
APPID
  2
GENIUS_GENOBJ-N-FIL_13
 70
     0
  0
APPID
  2
GENIUS_GENOBJ-N-CRS_13
 70
     0
  0
APPID
  2
GENIUS_GEFINERT_13
 70
     0
  0
APPID
  2
GENIUS_GENOBJ-F-INER_13
 70
     0
  0
APPID
  2
GENIUS_GENOBJ-N-ZOO_13
 70
     0
  0
APPID
  2
GENIUS_GENZOO_13
 70
     0
  0
APPID
  2
GENIUS_GENOBJ-F-TOL_13
 70
     0
  0
APPID
  2
GENIUS_GENOBJ-N-RSSYM_13
 70
     0
  0
APPID
  2
GENIUS_GENSYMENT_13
 70
     0
  0
APPID
  2
GENIUS_GENBH_13
 70
     0
  0
APPID
  2
GENIUS_GENOBJ-NBEHI-BHF_13
 70
     0
  0
APPID
  2
GENIUS_GENOBJ-NBEHI-BHB_13
 70
     0
  0
APPID
  2
GENIUS_GENOBJ-F-PART_13
 70
     0
  0
APPID
  2
GENIUS_GEFSTDP_13
 70
     0
  0
APPID
  2
GENIUS_GENOBJ-N-LEADER_13
 70
     0
  0
APPID
  2
GENIUS_GENOBJ-N-REV_13
 70
     0
  0
APPID
  2
GENIUS_GENCFG_13
 70
     0
  0
APPID
  2
GENIUS_GENCFG0_13
 70
     0
  0
APPID
  2
GENIUS_GENCFG1_13
 70
     0
  0
APPID
  2
GENIUS_GENCFG2_13
 70
     0
  0
APPID
  2
GENIUS_GENCFG3_13
 70
     0
  0
APPID
  2
GENIUS_GEVCFG0_13
 70
     0
  0
APPID
  2
GENIUS_GENCFG4_13
 70
     0
  0
APPID
  2
GENIUS_GENOBJ-N-REC_13
 70
     0
  0
APPID
  2
GENIUS_GENFIL_13
 70
     0
  0
APPID
  2
GENIUS_GENOBJ-N-CHA_13
 70
     0
  0
APPID
  2
GENIUS_GENREC_13
 70
     0
  0
APPID
  2
GENIUS_GENOBJ-N-CEN_13
 70
     0
  0
APPID
  2
ACAD_MLEADERVER
 70
     0
  0
APPID
  2
ACAD_NAV_VCDISPLAY
 70
     0
  0
ENDTAB
  0
TABLE
  2
DIMSTYLE
 70
     1
  0
DIMSTYLE
  2
STANDARD
 70
     0
  3

  4

  5

  6

  7

 40
1.0
 41
0.18
 42
0.0625
 43
0.38
 44
0.18
 45
0.0
 46
0.0
 47
0.0
 48
0.0
140
0.18
141
0.09
142
0.0
143
25.399999999999999
144
1.0
145
0.0
146
1.0
147
0.09
 71
     0
 72
     0
 73
     1
 74
     1
 75
     0
 76
     0
 77
     0
 78
     0
170
     0
171
     2
172
     0
173
     0
174
     0
175
     0
176
     0
177
     0
178
     0
  0
ENDTAB
  0
ENDSEC
  0
SECTION
  2
BLOCKS
  0
BLOCK
  8
0
  2
$MODEL_SPACE
 70
     0
 10
0.0
 20
0.0
 30
0.0
  3
$MODEL_SPACE
  1

  0
ENDBLK
  5
3275
  8
0
  0
BLOCK
 67
     1
  8
0
  2
$PAPER_SPACE
 70
     0
 10
0.0
 20
0.0
 30
0.0
  3
$PAPER_SPACE
  1

  0
ENDBLK
  5
3273
 67
     1
  8
0
  0
BLOCK
  8
0
  2
STDGX5
 70
     0
 10
0.0
 20
0.0
 30
0.0
  3
STDGX5
  1

  0
ENDBLK
  5
4F
  8
0
  0
BLOCK
  8
0
  2
BATU
 70
     0
 10
0.0
 20
0.0
 30
0.0
  3
BATU
  1

  0
LINE
  5
197B
  8
ITTEN
 10
0.5
 20
0.0
 30
0.0
 11
-0.5
 21
0.0
 31
0.0
  0
LINE
  5
197C
  8
ITTEN
 10
0.0
 20
0.5
 30
0.0
 11
0.0
 21
-0.5
 31
0.0
  0
ENDBLK
  5
1980
  8
0
  0
ENDSEC
  0
SECTION
  2
ENTITIES
  0
INSERT
  5
DE
  8
0
  2
STDGX5
 10
0.0
 20
0.0
 30
0.0
  0
INSERT
  5
DF
  8
0
  2
STDGX5
 10
0.0
 20
0.0
 30
0.0
  0
INSERT
  5
15C
  8
0
  2
STDGX5
 10
275.0
 20
0.0
 30
0.0
  0
INSERT
  5
15D
  8
0
  2
STDGX5
 10
275.0
 20
0.0
 30
0.0
  0
INSERT
  5
314
  8
0
  2
STDGX5
 10
0.0
 20
0.0
 30
0.0
  0
INSERT
  5
315
  8
0
  2
STDGX5
 10
0.0
 20
0.0
 30
0.0
  0
INSERT
  5
316
  8
0
  2
STDGX5
 10
275.0
 20
0.0
 30
0.0
  0
INSERT
  5
317
  8
0
  2
STDGX5
 10
275.0
 20
0.0
 30
0.0
  0
INSERT
  5
4EF
  8
0
  2
STDGX5
 10
0.0
 20
0.0
 30
0.0
  0
INSERT
  5
4F0
  8
0
  2
STDGX5
 10
0.0
 20
0.0
 30
0.0
  0
INSERT
  5
4F1
  8
0
  2
STDGX5
 10
275.0
 20
0.0
 30
0.0
  0
INSERT
  5
4F2
  8
0
  2
STDGX5
 10
275.0
 20
0.0
 30
0.0
  0
LINE
  5
23DD
  8
3
 10
100.5755022355068
 20
104.7318733813662
 30
0.0
 11
101.4071422355067
 21
99.597183381366236
 31
0.0
  0
LINE
  5
23DE
  8
3
 10
111.8435822355067
 20
99.667927381366226
 30
0.0
 11
108.8494422355068
 21
107.8942513813662
 31
0.0
  0
LINE
  5
23F0
  8
3
 10
101.4071422355067
 20
99.597183381366236
 30
0.0
 11
102.33380223550679
 21
94.514774381366237
 31
0.0
  0
LINE
  5
249D
  8
3
 10
118.2265122355068
 20
94.514774381366237
 30
0.0
 11
102.33380223550679
 21
94.514774381366237
 31
0.0
  0
LINE
  5
249E
  8
1
 10
94.524133135508379
 20
89.922239881366238
 30
0.0
 11
124.5241322355068
 21
89.922239881366238
 31
0.0
1001
GENIUS_GENODEF_13
1002
{
1000
HIER
1070
     0
1002
}
1002
{
1000
MANEDIT
1070
     0
1002
}
1002
{
1000
NOSEL
1070
     0
1002
}
1002
{
1000
BEHIND
1070
     0
1002
}
1002
{
1000
REACTOR
1002
}
1001
GENIUS_GENOBJ-N-CEN_13
1002
{
1000
OWNER
1000
GEN
1002
}
  0
ARC
  5
249F
  8
0
 10
103.7741322355067
 20
108.6722453813662
 30
0.0
 40
6.2499740999999993
 50
356.57987000000003
 51
222.4112199999999
  0
ARC
  5
24A0
  8
0
 10
112.0094222355068
 20
108.1802263813662
 30
0.0
 40
2.0
 50
176.58417900000001
 51
200.0
  0
LINE
  5
24A1
  8
0
 10
121.5241322355067
 20
84.047245381366224
 30
0.0
 11
121.5241322355067
 21
95.797245381366224
 31
0.0
  0
LINE
  5
24A2
  8
0
 10
120.5241322355067
 20
96.797239381366253
 30
0.0
 11
117.2758822355068
 21
96.797239381366253
 31
0.0
  0
LINE
  5
24BC
  8
0
 10
112.8768722355068
 20
99.949317381366242
 30
0.0
 11
110.1300322355067
 21
107.4961853813662
 31
0.0
  0
ARC
  5
251F
  8
0
 10
106.9241322355067
 20
89.922245381366224
 30
0.0
 40
9.3999994000000004
 50
138.79281399999999
 51
180.0
  0
ARC
  5
2520
  8
0
 10
106.9241322355067
 20
89.922245381366224
 30
0.0
 40
9.3999990999999987
 50
180.0
 51
221.20719
  0
LINE
  5
2521
  8
0
 10
99.655792235506794
 20
103.4343333813662
 30
0.0
 11
100.3212922355068
 21
99.325444381366225
 31
0.0
  0
ARC
  5
2522
  8
0
 10
98.564722235506764
 20
97.661496381366234
 30
0.0
 40
2.0
 50
314.26962999999989
 51
9.1999999999999993
  0
ARC
  5
2523
  8
0
 10
101.3568722355067
 20
94.797245381366224
 30
0.0
 40
2.0
 50
134.26963499999999
 51
138.79281700000001
  0
ARC
  5
2534
  8
0
 10
97.682432235506781
 20
103.10894738136621
 30
0.0
 40
2.0
 50
9.1999999999999993
 51
42.382149999999967
  0
POLYLINE
  5
2547
  8
3
 66
     1
 10
0.0
 20
0.0
 30
0.0000000000000045
 70
     2
  0
VERTEX
  5
2548
  8
3
 10
64.96829283550673
 20
95.481575381366241
 30
0.0000000000000045
  0
VERTEX
  5
2549
  8
3
 10
65.015252835506743
 20
95.419937381366253
 30
0.0000000000000045
 42
0.0012513287
 70
     1
  0
VERTEX
  5
254A
  8
3
 10
65.062592835506734
 20
95.358421381366242
 30
0.0000000000000045
 42
0.0012314183
  0
VERTEX
  5
254B
  8
3
 10
65.110322835506736
 20
95.297043381366237
 30
0.0000000000000045
 42
0.0012415823
 70
     1
  0
VERTEX
  5
254C
  8
3
 10
65.158492835506735
 20
95.235727381366246
 30
0.0000000000000045
 42
0.0012797586
  0
VERTEX
  5
254D
  8
3
 10
65.207142835506716
 20
95.174465381366247
 30
0.0000000000000045
 42
0.0012491303
 70
     1
  0
VERTEX
  5
254E
  8
3
 10
65.255952835506704
 20
95.113592381366232
 30
0.0000000000000045
 42
0.0011690268
  0
VERTEX
  5
254F
  8
3
 10
65.304842835506719
 20
95.053237381366245
 30
0.0000000000000045
 42
0.0013023533
 70
     1
  0
VERTEX
  5
2550
  8
3
 10
65.354942835506733
 20
94.992114381366235
 30
0.0000000000000045
 42
0.0015726651
  0
VERTEX
  5
2551
  8
3
 10
65.406642835506716
 20
94.929796381366245
 30
0.0000000000000045
 42
0.0011916114
 70
     1
  0
VERTEX
  5
2552
  8
3
 10
65.455402835506732
 20
94.871392381366235
 30
0.0000000000000045
 42
0.000388449
  0
VERTEX
  5
2553
  8
3
 10
65.49966283550674
 20
94.818681381366247
 30
0.0000000000000045
 42
0.0017149589
 70
     1
  0
VERTEX
  5
2554
  8
3
 10
65.557292835506729
 20
94.751526381366247
 30
0.0000000000000045
 42
0.0029980963
  0
VERTEX
  5
2555
  8
3
 10
65.647062835506745
 20
94.648820381366249
 30
0.0000000000000045
 42
0.0014670857
 70
     1
  0
VERTEX
  5
2556
  8
3
 10
65.765222835506734
 20
94.514753381366219
 30
0.0000000000000045
 42
0.000773843
  0
SEQEND
  5
2557
  8
3
  0
LINE
  5
2558
  8
3
 10
61.119122835506722
 20
102.2426123813662
 30
0.0000000000000045
 11
61.119122835506722
 21
114.92223038136621
 31
0.0000000000000045
  0
POLYLINE
  5
2559
  8
3
 66
     1
 10
0.0
 20
0.0
 30
0.0000000000000045
 70
     2
  0
VERTEX
  5
255A
  8
3
 10
60.145292835506723
 20
97.966918381366241
 30
0.0000000000000045
  0
VERTEX
  5
255B
  8
3
 10
60.238302835506737
 20
98.167910381366241
 30
0.0000000000000045
 42
0.0053136752
 70
     1
  0
VERTEX
  5
255C
  8
3
 10
60.32704283550671
 20
98.37068838136625
 30
0.0000000000000045
 42
0.005291294
  0
VERTEX
  5
255D
  8
3
 10
60.41134283550673
 20
98.575333381366264
 30
0.0000000000000045
 42
0.005320836
 70
     1
  0
VERTEX
  5
255E
  8
3
 10
60.49130283550673
 20
98.781707381366246
 30
0.0000000000000045
 42
0.0054183758
  0
VERTEX
  5
255F
  8
3
 10
60.566612835506731
 20
98.98978238136624
 30
0.0000000000000045
 42
0.0054793841
 70
     1
  0
VERTEX
  5
2560
  8
3
 10
60.637352835506732
 20
99.199336381366237
 30
0.0000000000000045
 42
0.0055224361
  0
VERTEX
  5
2561
  8
3
 10
60.703272835506738
 20
99.410331381366234
 30
0.0000000000000045
 42
0.0056090133
 70
     1
  0
VERTEX
  5
2562
  8
3
 10
60.764502835506732
 20
99.622922381366237
 30
0.0000000000000045
 42
0.0057331431
  0
VERTEX
  5
2563
  8
3
 10
60.820822835506732
 20
99.837166381366245
 30
0.0000000000000045
 42
0.005569621
 70
     1
  0
VERTEX
  5
2564
  8
3
 10
60.87239283550673
 20
100.0516783813662
 30
0.0000000000000045
 42
0.0051848946
  0
VERTEX
  5
2565
  8
3
 10
60.918992835506707
 20
100.2659713813662
 30
0.0000000000000045
 42
0.0057034169
 70
     1
  0
VERTEX
  5
2566
  8
3
 10
60.960922835506722
 20
100.4847383813662
 30
0.0000000000000045
 42
0.006786435
  0
VERTEX
  5
2567
  8
3
 10
60.997992835506722
 20
100.7095783813662
 30
0.0000000000000045
 42
0.00515464
 70
     1
  0
VERTEX
  5
2568
  8
3
 10
61.029972835506719
 20
100.9212313813662
 30
0.0000000000000045
 42
0.0017733862
  0
VERTEX
  5
2569
  8
3
 10
61.056492835506731
 20
101.11303338136619
 30
0.0000000000000045
 42
0.0072543791
 70
     1
  0
VERTEX
  5
256A
  8
3
 10
61.079432835506744
 20
101.3602883813662
 30
0.0000000000000045
 42
0.012520165
  0
VERTEX
  5
256B
  8
3
 10
61.100362835506729
 20
101.7420603813662
 30
0.0000000000000045
 42
0.006127637
 70
     1
  0
VERTEX
  5
256C
  8
3
 10
61.119122835506722
 20
102.2426123813662
 30
0.0000000000000045
 42
0.0032424916
  0
SEQEND
  5
256D
  8
3
  0
POLYLINE
  5
256E
  8
3
 66
     1
 10
0.0
 20
0.0
 30
0.0000000000000045
 70
     2
  0
VERTEX
  5
256F
  8
3
 10
56.851674318207223
 20
95.653289873142967
 30
0.0000000000000045
  0
VERTEX
  5
2570
  8
3
 10
57.503982835506747
 20
96.22341838136623
 30
0.0000000000000045
 42
-0.0007125478
 70
     1
  0
VERTEX
  5
2571
  8
3
 10
57.611632835506718
 20
96.317022381366243
 30
0.0000000000000045
 42
-0.0005699763
  0
VERTEX
  5
2572
  8
3
 10
57.713682835506752
 20
96.405290381366228
 30
0.0000000000000045
 42
-0.0008545301
 70
     1
  0
VERTEX
  5
2573
  8
3
 10
57.811362835506742
 20
96.488931381366243
 30
0.0000000000000045
 42
-0.0016918219
  0
VERTEX
  5
2574
  8
3
 10
57.905672835506721
 20
96.568337381366263
 30
0.0000000000000045
 42
-0.0022829076
 70
     1
  0
VERTEX
  5
2575
  8
3
 10
57.99729283550672
 20
96.643957381366263
 30
0.0000000000000045
 42
-0.002686506
  0
VERTEX
  5
2576
  8
3
 10
58.086552835506723
 20
96.715874381366262
 30
0.0000000000000045
 42
-0.0030725732
 70
     1
  0
VERTEX
  5
2577
  8
3
 10
58.174002835506741
 20
96.784496381366239
 30
0.0000000000000045
 42
-0.0034550021
  0
VERTEX
  5
2578
  8
3
 10
58.259992835506722
 20
96.849952381366236
 30
0.0000000000000045
 42
-0.0036726748
 70
     1
  0
VERTEX
  5
2579
  8
3
 10
58.344772835506717
 20
96.912562381366243
 30
0.0000000000000045
 42
-0.0037108247
  0
VERTEX
  5
257A
  8
3
 10
58.428462835506743
 20
96.972400381366256
 30
0.0000000000000045
 42
-0.0037697714
 70
     1
  0
VERTEX
  5
257B
  8
3
 10
58.51127283550673
 20
97.029768381366239
 30
0.0000000000000045
 42
-0.0037989503
  0
VERTEX
  5
257C
  8
3
 10
58.593392835506727
 20
97.084769381366243
 30
0.0000000000000045
 42
-0.0038198857
 70
     1
  0
VERTEX
  5
257D
  8
3
 10
58.675012835506749
 20
97.137687381366248
 30
0.0000000000000045
 42
-0.0037876451
  0
VERTEX
  5
257E
  8
3
 10
58.756312835506741
 20
97.188634381366242
 30
0.0000000000000045
 42
-0.0037172241
 70
     1
  0
VERTEX
  5
257F
  8
3
 10
58.837492835506737
 20
97.237892381366251
 30
0.0000000000000045
 42
-0.0035545457
  0
VERTEX
  5
2580
  8
3
 10
58.918672835506733
 20
97.285605381366238
 30
0.0000000000000045
 42
-0.0032490873
 70
     1
  0
VERTEX
  5
2581
  8
3
 10
58.99986283550674
 20
97.332052381366239
 30
0.0000000000000045
 42
-0.0027145572
  0
VERTEX
  5
2582
  8
3
 10
59.081072835506717
 20
97.377422381366245
 30
0.0000000000000045
 42
-0.0022345189
 70
     1
  0
VERTEX
  5
2583
  8
3
 10
59.16244283550671
 20
97.422061381366234
 30
0.0000000000000045
 42
-0.00167129
  0
VERTEX
  5
2584
  8
3
 10
59.244042835506711
 20
97.466206381366263
 30
0.0000000000000045
 42
-0.0011922866
 70
     1
  0
VERTEX
  5
2585
  8
3
 10
59.325432835506753
 20
97.509847381366242
 30
0.0000000000000045
 42
-0.0007004694
  0
VERTEX
  5
2586
  8
3
 10
59.406492835506732
 20
97.553127381366224
 30
0.0000000000000045
 42
-0.000089912
 70
     1
  0
VERTEX
  5
2587
  8
3
 10
59.489022835506717
 20
97.597339381366254
 30
0.0000000000000045
 42
0.0007772288
  0
VERTEX
  5
2588
  8
3
 10
59.573662835506752
 20
97.643071381366241
 30
0.0000000000000045
 42
0.0007106618
 70
     1
  0
VERTEX
  5
2589
  8
3
 10
59.653272835506719
 20
97.686211381366235
 30
0.0000000000000045
 42
-0.0001142146
  0
VERTEX
  5
258A
  8
3
 10
59.725362835506729
 20
97.725396381366238
 30
0.0000000000000045
 42
0.0016865078
 70
     1
  0
VERTEX
  5
258B
  8
3
 10
59.817762835506763
 20
97.777142381366247
 30
0.0000000000000045
 42
0.0037941778
  0
VERTEX
  5
258C
  8
3
 10
59.959672835506723
 20
97.858805381366224
 30
0.0000000000000045
 42
0.001897836
 70
     1
  0
VERTEX
  5
258D
  8
3
 10
60.145292835506723
 20
97.966918381366241
 30
0.0000000000000045
 42
0.0009526613
  0
SEQEND
  5
258E
  8
3
  0
POLYLINE
  5
258F
  8
3
 66
     1
 10
0.0
 20
0.0
 30
0.0000000000000045
 70
     2
  0
VERTEX
  5
2590
  8
3
 10
62.46408283550673
 20
99.325428381366237
 30
0.0000000000000045
  0
VERTEX
  5
2591
  8
3
 10
62.473412835506743
 20
99.224907381366251
 30
0.0000000000000045
 42
0.0025662017
 70
     1
  0
VERTEX
  5
2592
  8
3
 10
62.483752835506721
 20
99.124505381366234
 30
0.0000000000000045
 42
0.0025477479
  0
VERTEX
  5
2593
  8
3
 10
62.495142835506734
 20
99.024248381366235
 30
0.0000000000000045
 42
0.0025665396
 70
     1
  0
VERTEX
  5
2594
  8
3
 10
62.507572835506721
 20
98.924002381366236
 30
0.0000000000000045
 42
0.0026145193
  0
VERTEX
  5
2595
  8
3
 10
62.521082835506753
 20
98.823737381366243
 30
0.0000000000000045
 42
0.0025378348
 70
     1
  0
VERTEX
  5
2596
  8
3
 10
62.535502835506719
 20
98.724003381366231
 30
0.0000000000000045
 42
0.0023678146
  0
VERTEX
  5
2597
  8
3
 10
62.550822835506722
 20
98.625004381366239
 30
0.0000000000000045
 42
0.0026098828
 70
     1
  0
VERTEX
  5
2598
  8
3
 10
62.567532835506739
 20
98.524590381366238
 30
0.0000000000000045
 42
0.0031069283
  0
VERTEX
  5
2599
  8
3
 10
62.585852835506721
 20
98.422037381366252
 30
0.0000000000000045
 42
0.002358173
 70
     1
  0
VERTEX
  5
259A
  8
3
 10
62.603652835506722
 20
98.325848381366256
 30
0.0000000000000045
 42
0.0008116148
  0
VERTEX
  5
259B
  8
3
 10
62.620242835506723
 20
98.238965381366214
 30
0.0000000000000045
 42
0.0033208361
 70
     1
  0
VERTEX
  5
259C
  8
3
 10
62.643832835506743
 20
98.127859381366264
 30
0.0000000000000045
 42
0.0057118294
  0
VERTEX
  5
259D
  8
3
 10
62.68310283550673
 20
97.957367381366254
 30
0.0000000000000045
 42
0.0027924129
 70
     1
  0
VERTEX
  5
259E
  8
3
 10
62.736302835506727
 20
97.73447638136625
 30
0.0000000000000045
 42
0.001479399
  0
SEQEND
  5
259F
  8
3
  0
LINE
  5
25C5
  8
3
 10
61.211162835506741
 20
114.92223038136621
 30
0.0000000000000045
 11
62.46408283550673
 21
99.325428381366237
 31
0.0000000000000045
  0
POLYLINE
  5
26C4
  8
0
 66
     1
 10
0.0
 20
0.0
 30
0.0000000000000045
 70
     2
  0
VERTEX
  5
26C5
  8
0
 10
61.119122835506722
 20
114.92223038136621
 30
0.0000000000000045
  0
VERTEX
  5
26C6
  8
0
 10
61.053402835506738
 20
114.92033338136621
 30
0.0000000000000045
 42
0.016283622
 70
     1
  0
VERTEX
  5
26C7
  8
0
 10
60.986732835506729
 20
114.9142353813662
 30
0.0000000000000045
 42
0.015331137
  0
VERTEX
  5
26C8
  8
0
 10
60.919002835506753
 20
114.9037943813662
 30
0.0000000000000045
 42
0.015037198
 70
     1
  0
VERTEX
  5
26C9
  8
0
 10
60.850672835506707
 20
114.8889713813662
 30
0.0000000000000045
 42
0.015814131
  0
VERTEX
  5
26CA
  8
0
 10
60.782262835506742
 20
114.86933838136621
 30
0.0000000000000045
 42
0.016169241
 70
     1
  0
VERTEX
  5
26CB
  8
0
 10
60.71422283550671
 20
114.84500038136621
 30
0.0000000000000045
 42
0.016375002
  0
VERTEX
  5
26CC
  8
0
 10
60.64704283550671
 20
114.8157213813662
 30
0.0000000000000045
 42
0.016510716
 70
     1
  0
VERTEX
  5
26CD
  8
0
 10
60.581182835506731
 20
114.7817203813662
 30
0.0000000000000045
 42
0.016804429
  0
VERTEX
  5
26CE
  8
0
 10
60.517222835506708
 20
114.7428713813662
 30
0.0000000000000045
 42
0.016900675
 70
     1
  0
VERTEX
  5
26CF
  8
0
 10
60.455582835506732
 20
114.6995583813662
 30
0.0000000000000045
 42
0.016966503
  0
VERTEX
  5
26D0
  8
0
 10
60.396832835506721
 20
114.6518233813662
 30
0.0000000000000045
 42
0.017131112
 70
     1
  0
VERTEX
  5
26D1
  8
0
 10
60.341312835506727
 20
114.6000523813662
 30
0.0000000000000045
 42
0.017449085
  0
VERTEX
  5
26D2
  8
0
 10
60.289572835506732
 20
114.54439838136619
 30
0.0000000000000045
 42
0.017075911
 70
     1
  0
VERTEX
  5
26D3
  8
0
 10
60.241812835506742
 20
114.48578838136621
 30
0.0000000000000045
 42
0.01614651
  0
VERTEX
  5
26D4
  8
0
 10
60.198522835506729
 20
114.42466638136619
 30
0.0000000000000045
 42
0.017353658
 70
     1
  0
VERTEX
  5
26D5
  8
0
 10
60.15964283550673
 20
114.3601813813662
 30
0.0000000000000045
 42
0.019901875
  0
VERTEX
  5
26D6
  8
0
 10
60.125512835506747
 20
114.2922463813662
 30
0.0000000000000045
 42
0.015787139
 70
     1
  0
VERTEX
  5
26D7
  8
0
 10
60.096362835506739
 20
114.2271393813662
 30
0.0000000000000045
 42
0.0071535527
  0
VERTEX
  5
26D8
  8
0
 10
60.072542835506709
 20
114.16728738136619
 30
0.0000000000000045
 42
0.020430105
 70
     1
  0
VERTEX
  5
26D9
  8
0
 10
60.052392835506737
 20
114.09069338136619
 30
0.0000000000000045
 42
0.034036619
  0
VERTEX
  5
26DA
  8
0
 10
60.03455283550673
 20
113.97413038136619
 30
0.0000000000000045
 42
0.017611401
 70
     1
  0
VERTEX
  5
26DB
  8
0
 10
60.019132835506717
 20
113.82223738136619
 30
0.0000000000000045
 42
0.0097085452
  0
SEQEND
  5
26DC
  8
0
  0
ARC
  5
26DD
  8
0
 10
51.269132835506717
 20
102.4184833813662
 30
0.0000000000000045
 40
8.75
 50
306.85665669444438
 51
0.0
  0
LINE
  5
26DE
  8
0
 10
60.019132835506717
 20
102.4184833813662
 30
0.0000000000000045
 11
60.019132835506717
 21
113.8222343813662
 31
0.0000000000000045
  0
LINE
  5
26FB
  8
0
 10
63.559902835506733
 20
99.597174381366244
 30
0.0000000000000045
 11
62.306802835506737
 21
113.9201603813662
 31
0.0000000000000045
  0
POLYLINE
  5
26FC
  8
0
 66
     1
 10
0.0
 20
0.0
 30
0.0000000000000045
 70
     2
  0
VERTEX
  5
26FD
  8
0
 10
62.307032835506732
 20
113.9175153813662
 30
0.0000000000000045
  0
VERTEX
  5
26FE
  8
0
 10
62.30625283550674
 20
113.9268133813662
 30
0.0000000000000045
 42
0.007248904
 70
     1
  0
VERTEX
  5
26FF
  8
0
 10
62.304812835506731
 20
113.9402233813662
 30
0.0000000000000045
 42
0.0046442706
  0
VERTEX
  5
2700
  8
0
 10
62.302562835506727
 20
113.9587513813662
 30
0.0000000000000045
 42
0.0021259777
 70
     1
  0
VERTEX
  5
2701
  8
0
 10
62.300282835506749
 20
113.97650038136619
 30
0.0000000000000045
 42
0.0018608246
  0
VERTEX
  5
2702
  8
0
 10
62.298562835506743
 20
113.9885593813662
 30
0.0000000000000045
 42
0.0058899482
 70
     1
  0
VERTEX
  5
2703
  8
0
 10
62.29637283550673
 20
114.0015843813662
 30
0.0000000000000045
 42
0.004514358
  0
VERTEX
  5
2704
  8
0
 10
62.292642835506712
 20
114.0223873813662
 30
0.0000000000000045
 42
0.002172481
 70
     1
  0
VERTEX
  5
2705
  8
0
 10
62.288032835506719
 20
114.0463763813662
 30
0.0000000000000045
 42
0.0046457992
  0
VERTEX
  5
2706
  8
0
 10
62.283272835506722
 20
114.0681863813662
 30
0.0000000000000045
 42
0.0069024224
 70
     1
  0
VERTEX
  5
2707
  8
0
 10
62.27824283550671
 20
114.0888503813662
 30
0.0000000000000045
 42
0.0049630758
  0
VERTEX
  5
2708
  8
0
 10
62.272652835506733
 20
114.1102163813662
 30
0.0000000000000045
 42
0.0038542901
 70
     1
  0
VERTEX
  5
2709
  8
0
 10
62.266592835506707
 20
114.1318313813662
 30
0.0000000000000045
 42
0.005089782
  0
VERTEX
  5
270A
  8
0
 10
62.260152835506737
 20
114.15295238136621
 30
0.0000000000000045
 42
0.005667186
 70
     1
  0
VERTEX
  5
270B
  8
0
 10
62.253322835506737
 20
114.17376138136621
 30
0.0000000000000045
 42
0.0050058678
  0
VERTEX
  5
270C
  8
0
 10
62.246052835506731
 20
114.1945433813662
 30
0.0000000000000045
 42
0.004688814
 70
     1
  0
VERTEX
  5
270D
  8
0
 10
62.238352835506731
 20
114.21526538136619
 30
0.0000000000000045
 42
0.0048942472
  0
VERTEX
  5
270E
  8
0
 10
62.23023283550674
 20
114.23583238136619
 30
0.0000000000000045
 42
0.0050091771
 70
     1
  0
VERTEX
  5
270F
  8
0
 10
62.221712835506729
 20
114.2562273813662
 30
0.0000000000000045
 42
0.0050173931
  0
VERTEX
  5
2710
  8
0
 10
62.212782835506736
 20
114.2764353813662
 30
0.0000000000000045
 42
0.0050246853
 70
     1
  0
VERTEX
  5
2711
  8
0
 10
62.203452835506702
 20
114.2964543813662
 30
0.0000000000000045
 42
0.0050327806
  0
VERTEX
  5
2712
  8
0
 10
62.193722835506719
 20
114.3162673813662
 30
0.0000000000000045
 42
0.0050309828
 70
     1
  0
VERTEX
  5
2713
  8
0
 10
62.183592835506722
 20
114.3358783813662
 30
0.0000000000000045
 42
0.0050136474
  0
VERTEX
  5
2714
  8
0
 10
62.17307283550673
 20
114.3552763813662
 30
0.0000000000000045
 42
0.0050006453
 70
     1
  0
VERTEX
  5
2715
  8
0
 10
62.16217283550673
 20
114.3744673813662
 30
0.0000000000000045
 42
0.0049896141
  0
VERTEX
  5
2716
  8
0
 10
62.150872835506732
 20
114.39343438136621
 30
0.0000000000000045
 42
0.0049808312
 70
     1
  0
VERTEX
  5
2717
  8
0
 10
62.139202835506723
 20
114.4121813813662
 30
0.0000000000000045
 42
0.0049751667
  0
VERTEX
  5
2718
  8
0
 10
62.127152835506728
 20
114.43068938136619
 30
0.0000000000000045
 42
0.0049728934
 70
     1
  0
VERTEX
  5
2719
  8
0
 10
62.114732835506743
 20
114.4489583813662
 30
0.0000000000000045
 42
0.0049739757
  0
VERTEX
  5
271A
  8
0
 10
62.101952835506722
 20
114.46697138136621
 30
0.0000000000000045
 42
0.0049773784
 70
     1
  0
VERTEX
  5
271B
  8
0
 10
62.088822835506733
 20
114.4847283813662
 30
0.0000000000000045
 42
0.004983968
  0
VERTEX
  5
271C
  8
0
 10
62.075332835506742
 20
114.50221238136621
 30
0.0000000000000045
 42
0.0049888922
 70
     1
  0
VERTEX
  5
271D
  8
0
 10
62.061492835506719
 20
114.5194263813662
 30
0.0000000000000045
 42
0.0049922344
  0
VERTEX
  5
271E
  8
0
 10
62.047312835506752
 20
114.5363523813662
 30
0.0000000000000045
 42
0.0049971344
 70
     1
  0
VERTEX
  5
271F
  8
0
 10
62.032802835506743
 20
114.5529953813662
 30
0.0000000000000045
 42
0.0050046761
  0
VERTEX
  5
2720
  8
0
 10
62.017952835506719
 20
114.5693363813662
 30
0.0000000000000045
 42
0.0050122814
 70
     1
  0
VERTEX
  5
2721
  8
0
 10
62.002782835506729
 20
114.5853813813662
 30
0.0000000000000045
 42
0.005021858
  0
VERTEX
  5
2722
  8
0
 10
61.987282835506733
 20
114.6011103813662
 30
0.0000000000000045
 42
0.0050198871
 70
     1
  0
VERTEX
  5
2723
  8
0
 10
61.971472835506717
 20
114.6165313813662
 30
0.0000000000000045
 42
0.0050062843
  0
VERTEX
  5
2724
  8
0
 10
61.955352835506737
 20
114.63162538136621
 30
0.0000000000000045
 42
0.0049962661
 70
     1
  0
VERTEX
  5
2725
  8
0
 10
61.938932835506733
 20
114.6464013813662
 30
0.0000000000000045
 42
0.004987471
  0
VERTEX
  5
2726
  8
0
 10
61.922212835506741
 20
114.6608383813662
 30
0.0000000000000045
 42
0.0049814641
 70
     1
  0
VERTEX
  5
2727
  8
0
 10
61.90522283550672
 20
114.6749453813662
 30
0.0000000000000045
 42
0.0049768899
  0
VERTEX
  5
2728
  8
0
 10
61.88794283550672
 20
114.6887033813662
 30
0.0000000000000045
 42
0.004974773
 70
     1
  0
VERTEX
  5
2729
  8
0
 10
61.870392835506721
 20
114.7021203813662
 30
0.0000000000000045
 42
0.0049747042
  0
VERTEX
  5
272A
  8
0
 10
61.85257283550672
 20
114.71517638136621
 30
0.0000000000000045
 42
0.004976432
 70
     1
  0
VERTEX
  5
272B
  8
0
 10
61.834502835506733
 20
114.7278813813662
 30
0.0000000000000045
 42
0.0049804764
  0
VERTEX
  5
272C
  8
0
 10
61.816172835506727
 20
114.7402143813662
 30
0.0000000000000045
 42
0.0049864723
 70
     1
  0
VERTEX
  5
272D
  8
0
 10
61.797602835506723
 20
114.75218438136621
 30
0.0000000000000045
 42
0.0049959851
  0
VERTEX
  5
272E
  8
0
 10
61.778802835506717
 20
114.7637713813662
 30
0.0000000000000045
 42
0.0050043289
 70
     1
  0
VERTEX
  5
272F
  8
0
 10
61.759762835506727
 20
114.77498538136621
 30
0.0000000000000045
 42
0.0050136503
  0
VERTEX
  5
2730
  8
0
 10
61.740502835506732
 20
114.7858053813662
 30
0.0000000000000045
 42
0.0050136778
 70
     1
  0
VERTEX
  5
2731
  8
0
 10
61.721032835506747
 20
114.7962423813662
 30
0.0000000000000045
 42
0.0050045119
  0
VERTEX
  5
2732
  8
0
 10
61.701352835506718
 20
114.8062793813662
 30
0.0000000000000045
 42
0.0049989392
 70
     1
  0
VERTEX
  5
2733
  8
0
 10
61.681472835506717
 20
114.8159263813662
 30
0.0000000000000045
 42
0.00499559
  0
VERTEX
  5
2734
  8
0
 10
61.661412835506752
 20
114.82516438136621
 30
0.0000000000000045
 42
0.0049955246
 70
     1
  0
VERTEX
  5
2735
  8
0
 10
61.641162835506748
 20
114.8340043813662
 30
0.0000000000000045
 42
0.0049986396
  0
VERTEX
  5
2736
  8
0
 10
61.620742835506718
 20
114.8424283813662
 30
0.0000000000000045
 42
0.0049985531
 70
     1
  0
VERTEX
  5
2737
  8
0
 10
61.600152835506719
 20
114.85044838136621
 30
0.0000000000000045
 42
0.0049955399
  0
VERTEX
  5
2738
  8
0
 10
61.57941283550673
 20
114.8580443813662
 30
0.0000000000000045
 42
0.0049948868
 70
     1
  0
VERTEX
  5
2739
  8
0
 10
61.558522835506722
 20
114.8652313813662
 30
0.0000000000000045
 42
0.004994753
  0
VERTEX
  5
273A
  8
0
 10
61.537482835506751
 20
114.8719903813662
 30
0.0000000000000045
 42
0.0049775443
 70
     1
  0
VERTEX
  5
273B
  8
0
 10
61.516332835506738
 20
114.8783343813662
 30
0.0000000000000045
 42
0.0049450828
  0
VERTEX
  5
273C
  8
0
 10
61.495052835506733
 20
114.8842453813662
 30
0.0000000000000045
 42
0.004986825
 70
     1
  0
VERTEX
  5
273D
  8
0
 10
61.473652835506734
 20
114.8897373813662
 30
0.0000000000000045
 42
0.0050882461
  0
VERTEX
  5
273E
  8
0
 10
61.452102835506743
 20
114.8947933813662
 30
0.0000000000000045
 42
0.0049483076
 70
     1
  0
VERTEX
  5
273F
  8
0
 10
61.430552835506738
 20
114.89942238136619
 30
0.0000000000000045
 42
0.0046285492
  0
VERTEX
  5
2740
  8
0
 10
61.40904283550671
 20
114.9036063813662
 30
0.0000000000000045
 42
0.0051105707
 70
     1
  0
VERTEX
  5
2741
  8
0
 10
61.387102835506738
 20
114.90737038136621
 30
0.0000000000000045
 42
0.0060937137
  0
VERTEX
  5
2742
  8
0
 10
61.364562835506753
 20
114.91069638136619
 30
0.0000000000000045
 42
0.0046485632
 70
     1
  0
VERTEX
  5
2743
  8
0
 10
61.343362835506753
 20
114.9135603813662
 30
0.0000000000000045
 42
0.0016598127
  0
VERTEX
  5
2744
  8
0
 10
61.324152835506737
 20
114.91593038136619
 30
0.0000000000000045
 42
0.006561833
 70
     1
  0
VERTEX
  5
2745
  8
0
 10
61.299412835506729
 20
114.9179753813662
 30
0.0000000000000045
 42
0.011171645
  0
VERTEX
  5
2746
  8
0
 10
61.261242835506721
 20
114.91984238136619
 30
0.0000000000000045
 42
0.0054607539
 70
     1
  0
VERTEX
  5
2747
  8
0
 10
61.211212835506728
 20
114.92151538136621
 30
0.0000000000000045
 42
0.0028987758
  0
SEQEND
  5
2748
  8
0
  0
LINE
  5
2749
  8
0
 10
61.211162835506741
 20
114.92223038136621
 30
0.0000000000000045
 11
61.119122835506722
 21
114.92223038136621
 31
0.0000000000000045
  0
ARC
  5
2768
  8
0
 10
72.27660283550675
 20
100.3597873813662
 30
0.0000000000000045
 40
8.75
 50
185.0
 51
221.9553550273825
  0
POLYLINE
  5
276B
  8
3
 66
     1
 10
0.0
 20
0.0
 30
0.0
 70
     2
  0
VERTEX
  5
276C
  8
3
 10
117.73583223550671
 20
41.931645381366231
 30
0.0
  0
VERTEX
  5
276D
  8
3
 10
117.6530422355067
 20
41.834045381366217
 30
0.0
 42
-0.013001776
 70
     1
  0
VERTEX
  5
276E
  8
3
 10
117.56597223550681
 20
41.74237538136623
 30
0.0
 42
-0.015468844
  0
VERTEX
  5
276F
  8
3
 10
117.47420223550679
 20
41.657135381366238
 30
0.0
 42
-0.013653261
 70
     1
  0
VERTEX
  5
2770
  8
3
 10
117.3797022355067
 20
41.576225381366228
 30
0.0
 42
-0.0068667587
  0
VERTEX
  5
2771
  8
3
 10
117.28432223550671
 20
41.497745381366229
 30
0.0
 42
-0.003659243
 70
     1
  0
VERTEX
  5
2772
  8
3
 10
117.1884622355068
 20
41.421035381366231
 30
0.0
 42
-0.0032632943
  0
VERTEX
  5
2773
  8
3
 10
117.0921822355068
 20
41.345905381366229
 30
0.0
 42
-0.0025710959
 70
     1
  0
VERTEX
  5
2774
  8
3
 10
116.99577223550681
 20
41.271875381366229
 30
0.0
 42
-0.0013957431
  0
VERTEX
  5
2775
  8
3
 10
116.89951223550671
 20
41.198595381366232
 30
0.0
 42
-0.0008582746
 70
     1
  0
VERTEX
  5
2776
  8
3
 10
116.8034322355067
 20
41.125975381366231
 30
0.0
 42
-0.0008304718
  0
VERTEX
  5
2777
  8
3
 10
116.7075922355067
 20
41.054015381366249
 30
0.0
 42
-0.0007147571
 70
     1
  0
VERTEX
  5
2778
  8
3
 10
116.61204223550681
 20
40.982625381366233
 30
0.0
 42
-0.0004769543
  0
VERTEX
  5
2779
  8
3
 10
116.5168722355067
 20
40.911745381366217
 30
0.0
 42
-0.0002771051
 70
     1
  0
VERTEX
  5
277A
  8
3
 10
116.42213223550679
 20
40.841285381366241
 30
0.0
 42
-0.0000630224
  0
VERTEX
  5
277B
  8
3
 10
116.3279022355068
 20
40.771195381366219
 30
0.0
 42
0.0000776527
 70
     1
  0
VERTEX
  5
277C
  8
3
 10
116.2342022355068
 20
40.701425381366228
 30
0.0
 42
0.0001795582
  0
VERTEX
  5
277D
  8
3
 10
116.14106223550669
 20
40.631945381366229
 30
0.0
 42
0.000226207
 70
     1
  0
VERTEX
  5
277E
  8
3
 10
116.0484922355068
 20
40.562755381366237
 30
0.0
 42
0.0002277343
  0
VERTEX
  5
277F
  8
3
 10
115.95651223550681
 20
40.49388538136624
 30
0.0
 42
0.000239913
 70
     1
  0
VERTEX
  5
2780
  8
3
 10
115.8651422355068
 20
40.425315381366239
 30
0.0
 42
0.0002652356
  0
VERTEX
  5
2781
  8
3
 10
115.7744122355068
 20
40.357075381366222
 30
0.0
 42
0.0002860871
 70
     1
  0
VERTEX
  5
2782
  8
3
 10
115.6843322355067
 20
40.289145381366218
 30
0.0
 42
0.0003065981
  0
VERTEX
  5
2783
  8
3
 10
115.5949322355068
 20
40.22156538136624
 30
0.0
 42
0.0003265602
 70
     1
  0
VERTEX
  5
2784
  8
3
 10
115.50621223550679
 20
40.154305381366243
 30
0.0
 42
0.0003497077
  0
VERTEX
  5
2785
  8
3
 10
115.4182222355068
 20
40.087395381366228
 30
0.0
 42
0.000371495
 70
     1
  0
VERTEX
  5
2786
  8
3
 10
115.3309622355068
 20
40.02082538136623
 30
0.0
 42
0.0003957947
  0
VERTEX
  5
2787
  8
3
 10
115.24447223550681
 20
39.954615381366253
 30
0.0
 42
0.0004186262
 70
     1
  0
VERTEX
  5
2788
  8
3
 10
115.15874223550679
 20
39.888755381366238
 30
0.0
 42
0.0004437831
  0
VERTEX
  5
2789
  8
3
 10
115.0738322355068
 20
39.82327538136623
 30
0.0
 42
0.0004692717
 70
     1
  0
VERTEX
  5
278A
  8
3
 10
114.9897222355068
 20
39.758155381366237
 30
0.0
 42
0.0004991857
  0
VERTEX
  5
278B
  8
3
 10
114.9064722355068
 20
39.693425381366239
 30
0.0
 42
0.000509508
 70
     1
  0
VERTEX
  5
278C
  8
3
 10
114.8240522355068
 20
39.629075381366242
 30
0.0
 42
0.0004993001
  0
VERTEX
  5
278D
  8
3
 10
114.74251223550669
 20
39.565155381366239
 30
0.0
 42
0.0004950897
 70
     1
  0
VERTEX
  5
278E
  8
3
 10
114.6618622355068
 20
39.501665381366251
 30
0.0
 42
0.0004931538
  0
VERTEX
  5
278F
  8
3
 10
114.5821622355068
 20
39.438665381366249
 30
0.0
 42
0.0004931757
 70
     1
  0
VERTEX
  5
2790
  8
3
 10
114.5034022355068
 20
39.376155381366253
 30
0.0
 42
0.0004917191
  0
VERTEX
  5
2791
  8
3
 10
114.42566223550671
 20
39.314205381366243
 30
0.0
 42
0.0004927096
 70
     1
  0
VERTEX
  5
2792
  8
3
 10
114.34892223550681
 20
39.252805381366237
 30
0.0
 42
0.0004926981
  0
VERTEX
  5
2793
  8
3
 10
114.27326223550671
 20
39.192025381366228
 30
0.0
 42
0.0004951699
 70
     1
  0
VERTEX
  5
2794
  8
3
 10
114.19867223550681
 20
39.131855381366229
 30
0.0
 42
0.000496643
  0
VERTEX
  5
2795
  8
3
 10
114.1252222355068
 20
39.072365381366261
 30
0.0
 42
0.0005004624
 70
     1
  0
VERTEX
  5
2796
  8
3
 10
114.0529122355067
 20
39.013545381366228
 30
0.0
 42
0.0005030354
  0
VERTEX
  5
2797
  8
3
 10
113.9817922355068
 20
38.955465381366253
 30
0.0
 42
0.0005092558
 70
     1
  0
VERTEX
  5
2798
  8
3
 10
113.91187223550681
 20
38.898115381366253
 30
0.0
 42
0.0005157069
  0
VERTEX
  5
2799
  8
3
 10
113.8432222355068
 20
38.841575381366241
 30
0.0
 42
0.0005213046
 70
     1
  0
VERTEX
  5
279A
  8
3
 10
113.77582223550669
 20
38.785825381366237
 30
0.0
 42
0.0005215217
  0
VERTEX
  5
279B
  8
3
 10
113.7097622355068
 20
38.730935381366251
 30
0.0
 42
0.000559244
 70
     1
  0
VERTEX
  5
279C
  8
3
 10
113.6450122355068
 20
38.676885381366247
 30
0.0
 42
0.0006405692
  0
VERTEX
  5
279D
  8
3
 10
113.5816822355067
 20
38.62371538136626
 30
0.0
 42
0.0006860586
 70
     1
  0
VERTEX
  5
279E
  8
3
 10
113.5197622355068
 20
38.571445381366232
 30
0.0
 42
0.0006965172
  0
VERTEX
  5
279F
  8
3
 10
113.45937223550671
 20
38.520165381366262
 30
0.0
 42
0.0007246018
 70
     1
  0
VERTEX
  5
27A0
  8
3
 10
113.4004222355068
 20
38.469805381366243
 30
0.0
 42
0.0007659376
  0
VERTEX
  5
27A1
  8
3
 10
113.3430022355068
 20
38.420445381366243
 30
0.0
 42
0.0007772851
 70
     1
  0
VERTEX
  5
27A2
  8
3
 10
113.2873022355068
 20
38.372255381366251
 30
0.0
 42
0.0007564788
  0
VERTEX
  5
27A3
  8
3
 10
113.2335022355068
 20
38.325415381366263
 30
0.0
 42
0.0008702536
 70
     1
  0
VERTEX
  5
27A4
  8
3
 10
113.1807322355067
 20
38.279115381366253
 30
0.0
 42
0.001093455
  0
VERTEX
  5
27A5
  8
3
 10
113.1288122355068
 20
38.233155381366252
 30
0.0
 42
0.0008907716
 70
     1
  0
VERTEX
  5
27A6
  8
3
 10
113.0810522355068
 20
38.190665381366237
 30
0.0
 42
0.0003245759
  0
VERTEX
  5
27A7
  8
3
 10
113.0387022355068
 20
38.152825381366242
 30
0.0
 42
0.0013383573
 70
     1
  0
VERTEX
  5
27A8
  8
3
 10
112.9885822355068
 20
38.107225381366227
 30
0.0
 42
0.0026416663
  0
VERTEX
  5
27A9
  8
3
 10
112.91698223550669
 20
38.040975381366238
 30
0.0
 42
0.0014813944
 70
     1
  0
VERTEX
  5
27AA
  8
3
 10
112.82658223550681
 20
37.956585381366239
 30
0.0
 42
0.0008386353
  0
SEQEND
  5
27AB
  8
3
  0
POLYLINE
  5
27AC
  8
3
 66
     1
 10
0.0
 20
0.0
 30
0.0
 70
     2
  0
VERTEX
  5
27AD
  8
3
 10
111.79292223550679
 20
39.014225381366231
 30
0.0
  0
VERTEX
  5
27AE
  8
3
 10
111.8348022355068
 20
39.043205381366228
 30
0.0
 42
-0.0018953536
 70
     1
  0
VERTEX
  5
27AF
  8
3
 10
111.87865223550681
 20
39.073105381366247
 30
0.0
 42
-0.0017358807
  0
VERTEX
  5
27B0
  8
3
 10
111.9245722355068
 20
39.103945381366231
 30
0.0
 42
-0.001607587
 70
     1
  0
VERTEX
  5
27B1
  8
3
 10
111.9724322355067
 20
39.135665381366252
 30
0.0
 42
-0.001523893
  0
VERTEX
  5
27B2
  8
3
 10
112.0222622355068
 20
39.168255381366237
 30
0.0
 42
-0.0014411983
 70
     1
  0
VERTEX
  5
27B3
  8
3
 10
112.07394223550681
 20
39.201655381366237
 30
0.0
 42
-0.0013717192
  0
VERTEX
  5
27B4
  8
3
 10
112.1275222355067
 20
39.235855381366243
 30
0.0
 42
-0.001307004
 70
     1
  0
VERTEX
  5
27B5
  8
3
 10
112.18287223550681
 20
39.270805381366252
 30
0.0
 42
-0.001258276
  0
VERTEX
  5
27B6
  8
3
 10
112.2400222355068
 20
39.306485381366251
 30
0.0
 42
-0.0012103961
 70
     1
  0
VERTEX
  5
27B7
  8
3
 10
112.29887223550681
 20
39.342845381366232
 30
0.0
 42
-0.0011741121
  0
VERTEX
  5
27B8
  8
3
 10
112.35945223550679
 20
39.379865381366251
 30
0.0
 42
-0.0011378239
 70
     1
  0
VERTEX
  5
27B9
  8
3
 10
112.42164223550679
 20
39.41750538136624
 30
0.0
 42
-0.001111732
  0
VERTEX
  5
27BA
  8
3
 10
112.48548223550669
 20
39.455745381366228
 30
0.0
 42
-0.001084658
 70
     1
  0
VERTEX
  5
27BB
  8
3
 10
112.5508522355068
 20
39.494535381366248
 30
0.0
 42
-0.0010664151
  0
VERTEX
  5
27BC
  8
3
 10
112.61778223550679
 20
39.533855381366237
 30
0.0
 42
-0.0010464261
 70
     1
  0
VERTEX
  5
27BD
  8
3
 10
112.6861722355068
 20
39.573655381366237
 30
0.0
 42
-0.0010341288
  0
VERTEX
  5
27BE
  8
3
 10
112.7560422355068
 20
39.613925381366229
 30
0.0
 42
-0.0010204114
 70
     1
  0
VERTEX
  5
27BF
  8
3
 10
112.8272922355068
 20
39.654605381366238
 30
0.0
 42
-0.001014608
  0
VERTEX
  5
27C0
  8
3
 10
112.8999322355068
 20
39.695685381366253
 30
0.0
 42
-0.0009953512
 70
     1
  0
VERTEX
  5
27C1
  8
3
 10
112.9738622355068
 20
39.737125381366241
 30
0.0
 42
-0.000969709
  0
VERTEX
  5
27C2
  8
3
 10
113.04910223550679
 20
39.778905381366251
 30
0.0
 42
-0.0009452244
 70
     1
  0
VERTEX
  5
27C3
  8
3
 10
113.12556223550681
 20
39.820995381366231
 30
0.0
 42
-0.0009249044
  0
VERTEX
  5
27C4
  8
3
 10
113.2032722355067
 20
39.863395381366232
 30
0.0
 42
-0.0009048648
 70
     1
  0
VERTEX
  5
27C5
  8
3
 10
113.2821422355067
 20
39.906065381366247
 30
0.0
 42
-0.000888531
  0
VERTEX
  5
27C6
  8
3
 10
113.3621922355067
 20
39.948995381366231
 30
0.0
 42
-0.0008721887
 70
     1
  0
VERTEX
  5
27C7
  8
3
 10
113.4433322355067
 20
39.992165381366249
 30
0.0
 42
-0.0008591212
  0
VERTEX
  5
27C8
  8
3
 10
113.52559223550681
 20
40.035565381366247
 30
0.0
 42
-0.0008459132
 70
     1
  0
VERTEX
  5
27C9
  8
3
 10
113.6088822355068
 20
40.079145381366232
 30
0.0
 42
-0.0008358138
  0
VERTEX
  5
27CA
  8
3
 10
113.69322223550679
 20
40.122915381366248
 30
0.0
 42
-0.0008252791
 70
     1
  0
VERTEX
  5
27CB
  8
3
 10
113.7785322355067
 20
40.166845381366223
 30
0.0
 42
-0.000817507
  0
VERTEX
  5
27CC
  8
3
 10
113.8648322355068
 20
40.210905381366253
 30
0.0
 42
-0.0008096961
 70
     1
  0
VERTEX
  5
27CD
  8
3
 10
113.95203223550681
 20
40.255095381366232
 30
0.0
 42
-0.000805069
  0
VERTEX
  5
27CE
  8
3
 10
114.0401522355068
 20
40.299375381366232
 30
0.0
 42
-0.0007983103
 70
     1
  0
VERTEX
  5
27CF
  8
3
 10
114.1291222355068
 20
40.343735381366237
 30
0.0
 42
-0.0007924366
  0
VERTEX
  5
27D0
  8
3
 10
114.2189322355067
 20
40.388145381366222
 30
0.0
 42
-0.0007920511
 70
     1
  0
VERTEX
  5
27D1
  8
3
 10
114.30953223550669
 20
40.432605381366237
 30
0.0
 42
-0.0008009442
  0
VERTEX
  5
27D2
  8
3
 10
114.4009222355068
 20
40.477075381366227
 30
0.0
 42
-0.0008003529
 70
     1
  0
VERTEX
  5
27D3
  8
3
 10
114.4930622355068
 20
40.521545381366217
 30
0.0
 42
-0.0007938176
  0
VERTEX
  5
27D4
  8
3
 10
114.5859622355067
 20
40.566025381366231
 30
0.0
 42
-0.0007709934
 70
     1
  0
VERTEX
  5
27D5
  8
3
 10
114.67956223550669
 20
40.610495381366228
 30
0.0
 42
-0.0007301844
  0
VERTEX
  5
27D6
  8
3
 10
114.7738722355068
 20
40.654965381366253
 30
0.0
 42
-0.0006974664
 70
     1
  0
VERTEX
  5
27D7
  8
3
 10
114.8688422355067
 20
40.699435381366243
 30
0.0
 42
-0.000667201
  0
VERTEX
  5
27D8
  8
3
 10
114.9644522355068
 20
40.743895381366229
 30
0.0
 42
-0.0006391846
 70
     1
  0
VERTEX
  5
27D9
  8
3
 10
115.0606722355068
 20
40.78834538136622
 30
0.0
 42
-0.000608697
  0
VERTEX
  5
27DA
  8
3
 10
115.15749223550679
 20
40.83278538136625
 30
0.0
 42
-0.0005817086
 70
     1
  0
VERTEX
  5
27DB
  8
3
 10
115.25486223550681
 20
40.87722538136623
 30
0.0
 42
-0.0005533067
  0
VERTEX
  5
27DC
  8
3
 10
115.35278223550679
 20
40.921645381366233
 30
0.0
 42
-0.000528116
 70
     1
  0
VERTEX
  5
27DD
  8
3
 10
115.4512122355068
 20
40.966055381366239
 30
0.0
 42
-0.0005013309
  0
VERTEX
  5
27DE
  8
3
 10
115.55013223550669
 20
41.010455381366242
 30
0.0
 42
-0.0004770312
 70
     1
  0
VERTEX
  5
27DF
  8
3
 10
115.6495022355068
 20
41.054835381366239
 30
0.0
 42
-0.0004503306
  0
VERTEX
  5
27E0
  8
3
 10
115.74931223550669
 20
41.099195381366222
 30
0.0
 42
-0.000428791
 70
     1
  0
VERTEX
  5
27E1
  8
3
 10
115.8495322355068
 20
41.143535381366249
 30
0.0
 42
-0.0004079333
  0
VERTEX
  5
27E2
  8
3
 10
115.9501422355067
 20
41.187865381366251
 30
0.0
 42
-0.0003828721
 70
     1
  0
VERTEX
  5
27E3
  8
3
 10
116.0511022355068
 20
41.232165381366237
 30
0.0
 42
-0.0003480377
  0
VERTEX
  5
27E4
  8
3
 10
116.1524122355068
 20
41.276475381366232
 30
0.0
 42
-0.0002294239
 70
     1
  0
VERTEX
  5
27E5
  8
3
 10
116.2539922355068
 20
41.320845381366233
 30
0.0
 42
0.000001589
  0
VERTEX
  5
27E6
  8
3
 10
116.35578223550669
 20
41.365345381366218
 30
0.0
 42
0.0001671684
 70
     1
  0
VERTEX
  5
27E7
  8
3
 10
116.45768223550679
 20
41.41001538136625
 30
0.0
 42
0.0003106689
  0
VERTEX
  5
27E8
  8
3
 10
116.55962223550679
 20
41.454915381366241
 30
0.0
 42
0.0005599147
 70
     1
  0
VERTEX
  5
27E9
  8
3
 10
116.66161223550669
 20
41.500195381366218
 30
0.0
 42
0.0009763559
  0
VERTEX
  5
27EA
  8
3
 10
116.7635822355067
 20
41.545975381366233
 30
0.0
 42
0.0008726624
 70
     1
  0
VERTEX
  5
27EB
  8
3
 10
116.8652022355068
 20
41.591865381366247
 30
0.0
 42
0.0002342419
  0
VERTEX
  5
27EC
  8
3
 10
116.9662622355067
 20
41.637855381366229
 30
0.0
 42
0.0019555901
 70
     1
  0
VERTEX
  5
27ED
  8
3
 10
117.0675222355068
 20
41.685945381366217
 30
0.0
 42
0.006329076
  0
VERTEX
  5
27EE
  8
3
 10
117.1689322355067
 20
41.737125381366241
 30
0.0
 42
0.0029115084
 70
     1
  0
VERTEX
  5
27EF
  8
3
 10
117.2660822355067
 20
41.784725381366229
 30
0.0
 42
-0.0092866864
  0
VERTEX
  5
27F0
  8
3
 10
117.3569222355067
 20
41.826905381366252
 30
0.0
 42
0.011637816
 70
     1
  0
VERTEX
  5
27F1
  8
3
 10
117.4563522355068
 20
41.892015381366242
 30
0.0
 42
0.052779937
  0
VERTEX
  5
27F2
  8
3
 10
117.5798922355067
 20
42.009855381366229
 30
0.0
 42
0.031904025
 70
     1
  0
VERTEX
  5
27F3
  8
3
 10
117.7245422355068
 20
42.174445381366219
 30
0.0
 42
0.015656034
  0
SEQEND
  5
27F4
  8
3
  0
POLYLINE
  5
27F5
  8
3
 66
     1
 10
0.0
 20
0.0
 30
0.0
 70
     2
  0
VERTEX
  5
27F6
  8
3
 10
118.2265122355068
 20
32.931155381366239
 30
0.0
  0
VERTEX
  5
27F7
  8
3
 10
118.18408223550669
 20
33.018065381366263
 30
0.0
 42
0.073905744
 70
     1
  0
VERTEX
  5
27F8
  8
3
 10
118.1127822355068
 20
33.093565381366247
 30
0.0
 42
0.076649936
  0
VERTEX
  5
27F9
  8
3
 10
118.00947223550681
 20
33.156665381366253
 30
0.0
 42
0.047945139
 70
     1
  0
VERTEX
  5
27FA
  8
3
 10
117.88872223550671
 20
33.211355381366253
 30
0.0
 42
0.0174358
  0
VERTEX
  5
27FB
  8
3
 10
117.76431223550669
 20
33.261335381366251
 30
0.0
 42
0.007061863
 70
     1
  0
VERTEX
  5
27FC
  8
3
 10
117.6381622355068
 20
33.30838538136625
 30
0.0
 42
0.0056440663
  0
VERTEX
  5
27FD
  8
3
 10
117.50956223550671
 20
33.353425381366243
 30
0.0
 42
0.0040937127
 70
     1
  0
VERTEX
  5
27FE
  8
3
 10
117.3796122355068
 20
33.397125381366237
 30
0.0
 42
0.002261947
  0
VERTEX
  5
27FF
  8
3
 10
117.24940223550669
 20
33.439915381366248
 30
0.0
 42
0.0013016532
 70
     1
  0
VERTEX
  5
2800
  8
3
 10
117.11911223550671
 20
33.482105381366239
 30
0.0
 42
0.0009029498
  0
VERTEX
  5
2801
  8
3
 10
116.98875223550669
 20
33.523865381366249
 30
0.0
 42
0.0006642238
 70
     1
  0
VERTEX
  5
2802
  8
3
 10
116.85846223550671
 20
33.565275381366227
 30
0.0
 42
0.000528299
  0
VERTEX
  5
2803
  8
3
 10
116.7284322355067
 20
33.606325381366233
 30
0.0
 42
0.0003938472
 70
     1
  0
VERTEX
  5
2804
  8
3
 10
116.5987222355068
 20
33.647095381366228
 30
0.0
 42
0.000223602
  0
VERTEX
  5
2805
  8
3
 10
116.4693822355068
 20
33.687665381366237
 30
0.0
 42
0.0000891726
 70
     1
  0
VERTEX
  5
2806
  8
3
 10
116.3404522355068
 20
33.728095381366231
 30
0.0
 42
-0.0000439083
  0
VERTEX
  5
2807
  8
3
 10
116.21201223550671
 20
33.76841538136626
 30
0.0
 42
-0.0001052549
 70
     1
  0
VERTEX
  5
2808
  8
3
 10
116.0840922355067
 20
33.808635381366251
 30
0.0
 42
-0.0001094583
  0
VERTEX
  5
2809
  8
3
 10
115.9567522355068
 20
33.848745381366228
 30
0.0
 42
-0.0001193657
 70
     1
  0
VERTEX
  5
280A
  8
3
 10
115.8300222355068
 20
33.888725381366228
 30
0.0
 42
-0.0001373189
  0
VERTEX
  5
280B
  8
3
 10
115.70396223550669
 20
33.92857538136623
 30
0.0
 42
-0.000152267
 70
     1
  0
VERTEX
  5
280C
  8
3
 10
115.57860223550681
 20
33.968285381366243
 30
0.0
 42
-0.000167525
  0
VERTEX
  5
280D
  8
3
 10
115.4540222355068
 20
34.007855381366241
 30
0.0
 42
-0.000182308
 70
     1
  0
VERTEX
  5
280E
  8
3
 10
115.33021223550671
 20
34.047285381366251
 30
0.0
 42
-0.0001997517
  0
VERTEX
  5
280F
  8
3
 10
115.2072822355068
 20
34.086545381366243
 30
0.0
 42
-0.000215301
 70
     1
  0
VERTEX
  5
2810
  8
3
 10
115.08522223550681
 20
34.125645381366233
 30
0.0
 42
-0.0002320113
  0
VERTEX
  5
2811
  8
3
 10
114.9641322355068
 20
34.164575381366241
 30
0.0
 42
-0.0002507962
 70
     1
  0
VERTEX
  5
2812
  8
3
 10
114.8439922355068
 20
34.203325381366241
 30
0.0
 42
-0.0002753831
  0
VERTEX
  5
2813
  8
3
 10
114.7249222355068
 20
34.241895381366227
 30
0.0
 42
-0.000283375
 70
     1
  0
VERTEX
  5
2814
  8
3
 10
114.60690223550679
 20
34.280255381366253
 30
0.0
 42
-0.0002747033
  0
VERTEX
  5
2815
  8
3
 10
114.4900322355067
 20
34.318385381366241
 30
0.0
 42
-0.0002546078
 70
     1
  0
VERTEX
  5
2816
  8
3
 10
114.3743322355068
 20
34.356265381366264
 30
0.0
 42
-0.0002156493
  0
VERTEX
  5
2817
  8
3
 10
114.2598922355068
 20
34.393825381366241
 30
0.0
 42
-0.0001838278
 70
     1
  0
VERTEX
  5
2818
  8
3
 10
114.1467122355068
 20
34.431055381366242
 30
0.0
 42
-0.0001495873
  0
VERTEX
  5
2819
  8
3
 10
114.03490223550681
 20
34.46789538136624
 30
0.0
 42
-0.000118138
 70
     1
  0
VERTEX
  5
281A
  8
3
 10
113.92446223550679
 20
34.504345381366242
 30
0.0
 42
-0.000080184
  0
VERTEX
  5
281B
  8
3
 10
113.8154922355067
 20
34.540335381366248
 30
0.0
 42
-0.0000460293
 70
     1
  0
VERTEX
  5
281C
  8
3
 10
113.7080022355068
 20
34.575855381366239
 30
0.0
 42
-0.0000062278
  0
VERTEX
  5
281D
  8
3
 10
113.6020922355067
 20
34.610835381366243
 30
0.0
 42
0.0000342581
 70
     1
  0
VERTEX
  5
281E
  8
3
 10
113.4977622355068
 20
34.64527538136624
 30
0.0
 42
0.0000861634
  0
VERTEX
  5
281F
  8
3
 10
113.39517223550671
 20
34.679085381366249
 30
0.0
 42
0.000135496
 70
     1
  0
VERTEX
  5
2820
  8
3
 10
113.29430223550681
 20
34.712255381366241
 30
0.0
 42
0.0001940693
  0
VERTEX
  5
2821
  8
3
 10
113.1953122355068
 20
34.744705381366252
 30
0.0
 42
0.0002502594
 70
     1
  0
VERTEX
  5
2822
  8
3
 10
113.0981922355068
 20
34.776425381366238
 30
0.0
 42
0.0003160586
  0
VERTEX
  5
2823
  8
3
 10
113.0030822355068
 20
34.807345381366233
 30
0.0
 42
0.000381858
 70
     1
  0
VERTEX
  5
2824
  8
3
 10
112.91000223550679
 20
34.837425381366231
 30
0.0
 42
0.0004606826
  0
VERTEX
  5
2825
  8
3
 10
112.8191222355068
 20
34.866585381366249
 30
0.0
 42
0.0005648311
 70
     1
  0
VERTEX
  5
2826
  8
3
 10
112.7303622355068
 20
34.894825381366232
 30
0.0
 42
0.000715044
  0
VERTEX
  5
2827
  8
3
 10
112.6438622355068
 20
34.922045381366232
 30
0.0
 42
0.0008074216
 70
     1
  0
VERTEX
  5
2828
  8
3
 10
112.55993223550669
 20
34.948145381366231
 30
0.0
 42
0.0008565121
  0
VERTEX
  5
2829
  8
3
 10
112.4788722355068
 20
34.973015381366253
 30
0.0
 42
0.0011438976
 70
     1
  0
VERTEX
  5
282A
  8
3
 10
112.3994022355068
 20
34.996905381366247
 30
0.0
 42
0.0016877503
  0
VERTEX
  5
282B
  8
3
 10
112.3212922355067
 20
35.01980538136624
 30
0.0
 42
0.0014014446
 70
     1
  0
VERTEX
  5
282C
  8
3
 10
112.24945223550679
 20
35.040605381366241
 30
0.0
 42
0.000311799
  0
VERTEX
  5
282D
  8
3
 10
112.1857722355068
 20
35.058805381366227
 30
0.0
 42
0.0025238913
 70
     1
  0
VERTEX
  5
282E
  8
3
 10
112.11074223550681
 20
35.078755381366243
 30
0.0
 42
0.0057860003
  0
VERTEX
  5
282F
  8
3
 10
112.0041122355067
 20
35.104925381366229
 30
0.0
 42
0.0034069909
 70
     1
  0
VERTEX
  5
2830
  8
3
 10
111.8698022355068
 20
35.136475381366239
 30
0.0
 42
0.001926077
  0
SEQEND
  5
2831
  8
3
  0
POLYLINE
  5
2832
  8
3
 66
     1
 10
0.0
 20
0.0
 30
0.0
 70
     2
  0
VERTEX
  5
2833
  8
3
 10
112.8989222355067
 20
36.230125381366243
 30
0.0
  0
VERTEX
  5
2834
  8
3
 10
112.9506722355067
 20
36.209775381366242
 30
0.0
 42
-0.0051763014
 70
     1
  0
VERTEX
  5
2835
  8
3
 10
113.0056522355068
 20
36.186915381366248
 30
0.0
 42
-0.0045810762
  0
VERTEX
  5
2836
  8
3
 10
113.06401223550669
 20
36.161455381366238
 30
0.0
 42
-0.003947821
 70
     1
  0
VERTEX
  5
2837
  8
3
 10
113.12552223550681
 20
36.133555381366243
 30
0.0
 42
-0.0033411846
  0
VERTEX
  5
2838
  8
3
 10
113.1901922355067
 20
36.103235381366247
 30
0.0
 42
-0.002875999
 70
     1
  0
VERTEX
  5
2839
  8
3
 10
113.2577922355068
 20
36.070655381366237
 30
0.0
 42
-0.002512729
  0
VERTEX
  5
283A
  8
3
 10
113.32838223550679
 20
36.035795381366228
 30
0.0
 42
-0.002204269
 70
     1
  0
VERTEX
  5
283B
  8
3
 10
113.4017222355067
 20
35.998835381366248
 30
0.0
 42
-0.0019369277
  0
VERTEX
  5
283C
  8
3
 10
113.4778522355068
 20
35.959745381366233
 30
0.0
 42
-0.0017128769
 70
     1
  0
VERTEX
  5
283D
  8
3
 10
113.5565522355068
 20
35.918705381366237
 30
0.0
 42
-0.0015173111
  0
VERTEX
  5
283E
  8
3
 10
113.6378522355068
 20
35.875695381366228
 30
0.0
 42
-0.0013518634
 70
     1
  0
VERTEX
  5
283F
  8
3
 10
113.7215422355067
 20
35.830885381366251
 30
0.0
 42
-0.0012039114
  0
VERTEX
  5
2840
  8
3
 10
113.8076322355067
 20
35.784275381366228
 30
0.0
 42
-0.0010736761
 70
     1
  0
VERTEX
  5
2841
  8
3
 10
113.89594223550679
 20
35.73600538136624
 30
0.0
 42
-0.0009489274
  0
VERTEX
  5
2842
  8
3
 10
113.9864722355068
 20
35.68608538136624
 30
0.0
 42
-0.000837961
 70
     1
  0
VERTEX
  5
2843
  8
3
 10
114.0790622355067
 20
35.634665381366247
 30
0.0
 42
-0.0007269707
  0
VERTEX
  5
2844
  8
3
 10
114.1737122355067
 20
35.581745381366233
 30
0.0
 42
-0.0006327388
 70
     1
  0
VERTEX
  5
2845
  8
3
 10
114.27026223550681
 20
35.52747538136623
 30
0.0
 42
-0.0005405683
  0
VERTEX
  5
2846
  8
3
 10
114.36872223550679
 20
35.471865381366243
 30
0.0
 42
-0.0004629058
 70
     1
  0
VERTEX
  5
2847
  8
3
 10
114.4689222355068
 20
35.415055381366237
 30
0.0
 42
-0.0003856949
  0
VERTEX
  5
2848
  8
3
 10
114.5708822355067
 20
35.357045381366241
 30
0.0
 42
-0.000322373
 70
     1
  0
VERTEX
  5
2849
  8
3
 10
114.6744722355068
 20
35.297955381366243
 30
0.0
 42
-0.0002600679
  0
VERTEX
  5
284A
  8
3
 10
114.77971223550669
 20
35.237785381366251
 30
0.0
 42
-0.0002066052
 70
     1
  0
VERTEX
  5
284B
  8
3
 10
114.88649223550669
 20
35.176645381366228
 30
0.0
 42
-0.0001505131
  0
VERTEX
  5
284C
  8
3
 10
114.9948122355068
 20
35.114545381366227
 30
0.0
 42
-0.0001012653
 70
     1
  0
VERTEX
  5
284D
  8
3
 10
115.10457223550679
 20
35.051575381366241
 30
0.0
 42
-0.0000472891
  0
VERTEX
  5
284E
  8
3
 10
115.2157622355068
 20
34.987765381366238
 30
0.0
 42
-0.0000064442
 70
     1
  0
VERTEX
  5
284F
  8
3
 10
115.32829223550679
 20
34.923195381366227
 30
0.0
 42
0.0000320302
  0
VERTEX
  5
2850
  8
3
 10
115.4421522355068
 20
34.857895381366241
 30
0.0
 42
0.000037052
 70
     1
  0
VERTEX
  5
2851
  8
3
 10
115.55725223550679
 20
34.791895381366231
 30
0.0
 42
0.0000117628
  0
VERTEX
  5
2852
  8
3
 10
115.6735822355068
 20
34.725185381366252
 30
0.0
 42
-0.000007904
 70
     1
  0
VERTEX
  5
2853
  8
3
 10
115.7910522355068
 20
34.657815381366248
 30
0.0
 42
-0.0000271362
  0
VERTEX
  5
2854
  8
3
 10
115.9096522355068
 20
34.589765381366249
 30
0.0
 42
-0.0000430523
 70
     1
  0
VERTEX
  5
2855
  8
3
 10
116.0292922355067
 20
34.521095381366237
 30
0.0
 42
-0.00006003
  0
VERTEX
  5
2856
  8
3
 10
116.14996223550671
 20
34.451795381366232
 30
0.0
 42
-0.0000790674
 70
     1
  0
VERTEX
  5
2857
  8
3
 10
116.2715822355067
 20
34.381885381366253
 30
0.0
 42
-0.0001052732
  0
VERTEX
  5
2858
  8
3
 10
116.3941322355067
 20
34.311355381366241
 30
0.0
 42
-0.000109971
 70
     1
  0
VERTEX
  5
2859
  8
3
 10
116.5175122355068
 20
34.240295381366217
 30
0.0
 42
-0.000095763
  0
VERTEX
  5
285A
  8
3
 10
116.6416722355068
 20
34.168705381366237
 30
0.0
 42
-0.000152199
 70
     1
  0
VERTEX
  5
285B
  8
3
 10
116.7666922355067
 20
34.096475381366233
 30
0.0
 42
-0.0002911013
  0
VERTEX
  5
285C
  8
3
 10
116.8926022355068
 20
34.023565381366261
 30
0.0
 42
-0.0000692748
 70
     1
  0
VERTEX
  5
285D
  8
3
 10
117.01865223550681
 20
33.95072538136624
 30
0.0
 42
0.0005620498
  0
VERTEX
  5
285E
  8
3
 10
117.1445822355067
 20
33.878275381366237
 30
0.0
 42
-0.0001156571
 70
     1
  0
VERTEX
  5
285F
  8
3
 10
117.27281223550671
 20
33.803705381366242
 30
0.0
 42
-0.002199729
  0
VERTEX
  5
2860
  8
3
 10
117.4042022355068
 20
33.725905381366253
 30
0.0
 42
-0.000481776
 70
     1
  0
VERTEX
  5
2861
  8
3
 10
117.5289722355068
 20
33.653635381366243
 30
0.0
 42
0.0056591021
  0
VERTEX
  5
2862
  8
3
 10
117.6436322355068
 20
33.589625381366233
 30
0.0
 42
-0.0044125721
 70
     1
  0
VERTEX
  5
2863
  8
3
 10
117.7861222355067
 20
33.497865381366253
 30
0.0
 42
-0.022055807
  0
VERTEX
  5
2864
  8
3
 10
117.9963022355068
 20
33.340525381366227
 30
0.0
 42
-0.011561484
 70
     1
  0
VERTEX
  5
2865
  8
3
 10
118.2662222355068
 20
33.125175381366233
 30
0.0
 42
-0.0052928672
  0
SEQEND
  5
2866
  8
3
  0
LINE
  5
2867
  8
1
 10
124.5241322355068
 20
38.047245381366231
 30
0.0
 11
94.524133335506761
 21
38.047245381366231
 31
0.0
1001
GENIUS_GENODEF_13
1002
{
1000
HIER
1070
     0
1002
}
1002
{
1000
MANEDIT
1070
     0
1002
}
1002
{
1000
NOSEL
1070
     0
1002
}
1002
{
1000
BEHIND
1070
     0
1002
}
1002
{
1000
REACTOR
1002
}
1001
GENIUS_GENOBJ-N-CEN_13
1002
{
1000
OWNER
1000
GEN
1002
}
  0
LINE
  5
2868
  8
0
 10
120.5241322355067
 20
44.922245381366217
 30
0.0
 11
101.3568722355067
 21
44.922245381366217
 31
0.0
  0
LINE
  5
2869
  8
0
 10
101.3568722355067
 20
31.172245381366231
 30
0.0
 11
120.5241322355067
 21
31.172245381366231
 31
0.0
  0
LINE
  5
286A
  8
0
 10
102.2105622355068
 20
42.174445381366219
 30
0.0
 11
117.7245422355068
 21
42.174445381366219
 31
0.0
  0
LINE
  5
286B
  8
0
 10
118.2265122355068
 20
32.931155381366239
 30
0.0
 11
102.33379223550681
 21
32.931155381366239
 31
0.0
  0
ARC
  5
286C
  8
0
 10
106.9241322355067
 20
38.047245381366231
 30
0.0
 40
9.3999988999999982
 50
138.79280900000001
 51
180.0
  0
POLYLINE
  5
286D
  8
3
 66
     1
 10
0.0
 20
0.0
 30
0.0
 70
     2
  0
VERTEX
  5
286E
  8
3
 10
108.8494522355068
 20
35.862365381366253
 30
0.0
  0
VERTEX
  5
286F
  8
3
 10
108.8805522355068
 20
35.880395381366228
 30
0.0
 42
0.029546123
 70
     1
  0
VERTEX
  5
2870
  8
3
 10
108.9034422355068
 20
35.898485381366243
 30
0.0
 42
0.044955065
  0
VERTEX
  5
2871
  8
3
 10
108.91778223550671
 20
35.91665538136624
 30
0.0
 42
0.071351647
 70
     1
  0
VERTEX
  5
2872
  8
3
 10
108.9239022355068
 20
35.93487538136624
 30
0.0
 42
0.10322329
  0
VERTEX
  5
2873
  8
3
 10
108.92145223550681
 20
35.953095381366232
 30
0.0
 42
0.11282868
 70
     1
  0
VERTEX
  5
2874
  8
3
 10
108.9107422355068
 20
35.971285381366251
 30
0.0
 42
0.086075035
  0
VERTEX
  5
2875
  8
3
 10
108.8914422355068
 20
35.989425381366232
 30
0.0
 42
0.054741264
 70
     1
  0
VERTEX
  5
2876
  8
3
 10
108.86392223550671
 20
36.007485381366251
 30
0.0
 42
0.035356832
  0
VERTEX
  5
2877
  8
3
 10
108.8279022355068
 20
36.025425381366233
 30
0.0
 42
0.023589434
 70
     1
  0
VERTEX
  5
2878
  8
3
 10
108.78379223550679
 20
36.043235381366237
 30
0.0
 42
0.016840999
  0
VERTEX
  5
2879
  8
3
 10
108.73136223550679
 20
36.06087538136623
 30
0.0
 42
0.012441124
 70
     1
  0
VERTEX
  5
287A
  8
3
 10
108.6710022355068
 20
36.078325381366241
 30
0.0
 42
0.0096609376
  0
VERTEX
  5
287B
  8
3
 10
108.6024922355068
 20
36.095535381366247
 30
0.0
 42
0.0076688138
 70
     1
  0
VERTEX
  5
287C
  8
3
 10
108.5262022355068
 20
36.11249538136623
 30
0.0
 42
0.0063096052
  0
VERTEX
  5
287D
  8
3
 10
108.4418922355067
 20
36.129155381366253
 30
0.0
 42
0.0052207674
 70
     1
  0
VERTEX
  5
287E
  8
3
 10
108.3500322355067
 20
36.145525381366241
 30
0.0
 42
0.0044052348
  0
VERTEX
  5
287F
  8
3
 10
108.2505022355068
 20
36.161545381366231
 30
0.0
 42
0.0037586154
 70
     1
  0
VERTEX
  5
2880
  8
3
 10
108.14379223550679
 20
36.177215381366253
 30
0.0
 42
0.0032732806
  0
VERTEX
  5
2881
  8
3
 10
108.02980223550681
 20
36.192485381366239
 30
0.0
 42
0.0028756078
 70
     1
  0
VERTEX
  5
2882
  8
3
 10
107.9090222355068
 20
36.207365381366238
 30
0.0
 42
0.0025697791
  0
VERTEX
  5
2883
  8
3
 10
107.7813422355067
 20
36.221795381366242
 30
0.0
 42
0.0023099003
 70
     1
  0
VERTEX
  5
2884
  8
3
 10
107.6472522355068
 20
36.235765381366249
 30
0.0
 42
0.0021056657
  0
VERTEX
  5
2885
  8
3
 10
107.50666223550679
 20
36.249245381366237
 30
0.0
 42
0.00192974
 70
     1
  0
VERTEX
  5
2886
  8
3
 10
107.3600222355067
 20
36.262225381366228
 30
0.0
 42
0.0017919331
  0
VERTEX
  5
2887
  8
3
 10
107.2072622355068
 20
36.274655381366237
 30
0.0
 42
0.001655264
 70
     1
  0
VERTEX
  5
2888
  8
3
 10
107.0488922355068
 20
36.286545381366217
 30
0.0
 42
0.0015319022
  0
VERTEX
  5
2889
  8
3
 10
106.88497223550669
 20
36.29784538136623
 30
0.0
 42
0.0014240028
 70
     1
  0
VERTEX
  5
288A
  8
3
 10
106.7160122355068
 20
36.308575381366239
 30
0.0
 42
0.0013347979
  0
VERTEX
  5
288B
  8
3
 10
106.5421222355067
 20
36.318695381366233
 30
0.0
 42
0.0012577304
 70
     1
  0
VERTEX
  5
288C
  8
3
 10
106.3637822355067
 20
36.328215381366249
 30
0.0
 42
0.0011954756
  0
VERTEX
  5
288D
  8
3
 10
106.18112223550671
 20
36.337075381366233
 30
0.0
 42
0.0011408582
 70
     1
  0
VERTEX
  5
288E
  8
3
 10
105.9945922355068
 20
36.345315381366248
 30
0.0
 42
0.0010971473
  0
VERTEX
  5
288F
  8
3
 10
105.8043522355068
 20
36.352865381366243
 30
0.0
 42
0.0010595164
 70
     1
  0
VERTEX
  5
2890
  8
3
 10
105.61084223550679
 20
36.359745381366217
 30
0.0
 42
0.001031524
  0
VERTEX
  5
2891
  8
3
 10
105.4142222355068
 20
36.365925381366239
 30
0.0
 42
0.0010050957
 70
     1
  0
VERTEX
  5
2892
  8
3
 10
105.21492223550671
 20
36.371395381366227
 30
0.0
 42
0.0009838022
  0
VERTEX
  5
2893
  8
3
 10
105.0131222355067
 20
36.37613538136624
 30
0.0
 42
0.0009583364
 70
     1
  0
VERTEX
  5
2894
  8
3
 10
104.8092822355067
 20
36.380165381366247
 30
0.0
 42
0.0009307468
  0
VERTEX
  5
2895
  8
3
 10
104.6036622355068
 20
36.383455381366247
 30
0.0
 42
0.0009096882
 70
     1
  0
VERTEX
  5
2896
  8
3
 10
104.3966922355068
 20
36.386035381366241
 30
0.0
 42
0.0008946384
  0
VERTEX
  5
2897
  8
3
 10
104.1886622355068
 20
36.387865381366261
 30
0.0
 42
0.0008840458
 70
     1
  0
VERTEX
  5
2898
  8
3
 10
103.9799522355068
 20
36.388975381366237
 30
0.0
 42
0.0008780321
  0
VERTEX
  5
2899
  8
3
 10
103.7709122355068
 20
36.389335381366251
 30
0.0
 42
0.0008760812
 70
     1
  0
VERTEX
  5
289A
  8
3
 10
103.5618922355068
 20
36.388975381366237
 30
0.0
 42
0.0008785836
  0
VERTEX
  5
289B
  8
3
 10
103.3532422355067
 20
36.387855381366244
 30
0.0
 42
0.0008861376
 70
     1
  0
VERTEX
  5
289C
  8
3
 10
103.14531223550679
 20
36.386015381366249
 30
0.0
 42
0.0008997671
  0
VERTEX
  5
289D
  8
3
 10
102.9384822355067
 20
36.383415381366248
 30
0.0
 42
0.0009128846
 70
     1
  0
VERTEX
  5
289E
  8
3
 10
102.7330222355067
 20
36.380085381366243
 30
0.0
 42
0.000925513
  0
VERTEX
  5
289F
  8
3
 10
102.52935223550681
 20
36.376005381366241
 30
0.0
 42
0.0009379296
 70
     1
  0
VERTEX
  5
28A0
  8
3
 10
102.3276922355068
 20
36.371215381366248
 30
0.0
 42
0.0009478404
  0
VERTEX
  5
28A1
  8
3
 10
102.1284622355068
 20
36.36570538136624
 30
0.0
 42
0.000965456
 70
     1
  0
VERTEX
  5
28A2
  8
3
 10
101.9318722355067
 20
36.359505381366233
 30
0.0
 42
0.0009880749
  0
VERTEX
  5
28A3
  8
3
 10
101.7383522355068
 20
36.352615381366249
 30
0.0
 42
0.0010178592
 70
     1
  0
VERTEX
  5
28A4
  8
3
 10
101.54811223550681
 20
36.345055381366237
 30
0.0
 42
0.0010525472
  0
VERTEX
  5
28A5
  8
3
 10
101.36160223550679
 20
36.336825381366239
 30
0.0
 42
0.0010959139
 70
     1
  0
VERTEX
  5
28A6
  8
3
 10
101.17898223550669
 20
36.327965381366262
 30
0.0
 42
0.0011458733
  0
VERTEX
  5
28A7
  8
3
 10
101.0007522355067
 20
36.318445381366232
 30
0.0
 42
0.0012085024
 70
     1
  0
VERTEX
  5
28A8
  8
3
 10
100.8270422355068
 20
36.308315381366263
 30
0.0
 42
0.0012828226
  0
VERTEX
  5
28A9
  8
3
 10
100.6583722355067
 20
36.297565381366248
 30
0.0
 42
0.001363296
 70
     1
  0
VERTEX
  5
28AA
  8
3
 10
100.4948122355068
 20
36.286235381366239
 30
0.0
 42
0.0014444361
  0
VERTEX
  5
28AB
  8
3
 10
100.3368122355068
 20
36.274305381366247
 30
0.0
 42
0.0015391522
 70
     1
  0
VERTEX
  5
28AC
  8
3
 10
100.1843722355068
 20
36.261845381366228
 30
0.0
 42
0.001638491
  0
VERTEX
  5
28AD
  8
3
 10
100.0379322355067
 20
36.248845381366237
 30
0.0
 42
0.0017649952
 70
     1
  0
VERTEX
  5
28AE
  8
3
 10
99.897472235506768
 20
36.23535538136624
 30
0.0
 42
0.001910712
  0
VERTEX
  5
28AF
  8
3
 10
99.763462235506807
 20
36.221375381366229
 30
0.0
 42
0.0020934988
 70
     1
  0
VERTEX
  5
28B0
  8
3
 10
99.635852235506803
 20
36.206945381366232
 30
0.0
 42
0.0023055974
  0
VERTEX
  5
28B1
  8
3
 10
99.515152235506804
 20
36.192065381366248
 30
0.0
 42
0.0025752131
 70
     1
  0
VERTEX
  5
28B2
  8
3
 10
99.401282235506784
 20
36.17679538136624
 30
0.0
 42
0.0028964228
  0
VERTEX
  5
28B3
  8
3
 10
99.294762235506795
 20
36.161125381366233
 30
0.0
 42
0.0033151836
 70
     1
  0
VERTEX
  5
28B4
  8
3
 10
99.195502235506794
 20
36.145095381366232
 30
0.0
 42
0.0038330559
  0
VERTEX
  5
28B5
  8
3
 10
99.104012235506787
 20
36.128715381366248
 30
0.0
 42
0.0044884049
 70
     1
  0
VERTEX
  5
28B6
  8
3
 10
99.02009223550678
 20
36.11203538136624
 30
0.0
 42
0.0052592446
  0
VERTEX
  5
28B7
  8
3
 10
98.944152235506778
 20
36.095065381366261
 30
0.0
 42
0.0063220333
 70
     1
  0
VERTEX
  5
28B8
  8
3
 10
98.875932235506795
 20
36.077835381366249
 30
0.0
 42
0.0076919219
  0
VERTEX
  5
28B9
  8
3
 10
98.815852235506796
 20
36.060385381366252
 30
0.0
 42
0.0096960617
 70
     1
  0
VERTEX
  5
28BA
  8
3
 10
98.763652235506783
 20
36.042735381366242
 30
0.0
 42
0.012483981
  0
VERTEX
  5
28BB
  8
3
 10
98.719742235506786
 20
36.024915381366263
 30
0.0
 42
0.016887435
 70
     1
  0
VERTEX
  5
28BC
  8
3
 10
98.683872235506755
 20
36.006965381366243
 30
0.0
 42
0.023617747
  0
VERTEX
  5
28BD
  8
3
 10
98.656462235506808
 20
35.988895381366227
 30
0.0
 42
0.035391117
 70
     1
  0
VERTEX
  5
28BE
  8
3
 10
98.63724223550679
 20
35.970755381366253
 30
0.0
 42
0.0549712
  0
VERTEX
  5
28BF
  8
3
 10
98.626652235506782
 20
35.952565381366263
 30
0.0
 42
0.087013439
 70
     1
  0
VERTEX
  5
28C0
  8
3
 10
98.624392235506775
 20
35.934355381366238
 30
0.0
 42
0.11491577
  0
VERTEX
  5
28C1
  8
3
 10
98.630862235506811
 20
35.916145381366242
 30
0.0
 42
0.10367139
 70
     1
  0
VERTEX
  5
28C2
  8
3
 10
98.645632235506781
 20
35.897975381366237
 30
0.0
 42
0.07006526
  0
VERTEX
  5
28C3
  8
3
 10
98.668972235506786
 20
35.879865381366237
 30
0.0
 42
0.043779504
 70
     1
  0
VERTEX
  5
28C4
  8
3
 10
98.700472235506766
 20
35.861845381366237
 30
0.0
 42
0.028888418
  0
VERTEX
  5
28C5
  8
3
 10
98.740372235506754
 20
35.843955381366243
 30
0.0
 42
0.019850516
 70
     1
  0
VERTEX
  5
28C6
  8
3
 10
98.788282235506784
 20
35.826205381366243
 30
0.0
 42
0.014553068
  0
VERTEX
  5
28C7
  8
3
 10
98.844472235506785
 20
35.808655381366243
 30
0.0
 42
0.010947216
 70
     1
  0
VERTEX
  5
28C8
  8
3
 10
98.908462235506789
 20
35.791305381366243
 30
0.0
 42
0.0085946564
  0
VERTEX
  5
28C9
  8
3
 10
98.98048223550677
 20
35.774205381366251
 30
0.0
 42
0.0069791626
 70
     1
  0
VERTEX
  5
28CA
  8
3
 10
99.060372235506776
 20
35.757365381366263
 30
0.0
 42
0.0059078668
  0
VERTEX
  5
28CB
  8
3
 10
99.148452235506795
 20
35.740805381366243
 30
0.0
 42
0.0048001578
 70
     1
  0
VERTEX
  5
28CC
  8
3
 10
99.243412235506824
 20
35.724615381366249
 30
0.0
 42
0.0038576332
  0
VERTEX
  5
28CD
  8
3
 10
99.345122235506764
 20
35.708845381366231
 30
0.0
 42
0.003664079
 70
     1
  0
VERTEX
  5
28CE
  8
3
 10
99.456532235506785
 20
35.693255381366242
 30
0.0
 42
0.0037400476
  0
VERTEX
  5
28CF
  8
3
 10
99.578902235506803
 20
35.677785381366249
 30
0.0
 42
0.0024702336
 70
     1
  0
VERTEX
  5
28D0
  8
3
 10
99.698052235506793
 20
35.66348538136625
 30
0.0
 42
0.000795902
  0
VERTEX
  5
28D1
  8
3
 10
99.809322235506755
 20
35.650735381366253
 30
0.0
 42
0.0030577291
 70
     1
  0
VERTEX
  5
28D2
  8
3
 10
99.966212235506788
 20
35.635495381366233
 30
0.0
 42
0.0044105829
  0
VERTEX
  5
28D3
  8
3
 10
100.2254422355068
 20
35.613545381366237
 30
0.0
 42
0.0018733683
 70
     1
  0
VERTEX
  5
28D4
  8
3
 10
100.5755022355068
 20
35.585705381366239
 30
0.0
 42
0.0009305554
  0
SEQEND
  5
28D5
  8
3
  0
POLYLINE
  5
28D6
  8
3
 66
     1
 10
0.0
 20
0.0
 30
0.0
 70
     2
  0
VERTEX
  5
28D7
  8
3
 10
110.0241322355067
 20
37.034795381366237
 30
0.0
  0
VERTEX
  5
28D8
  8
3
 10
110.01923223550671
 20
37.052365381366243
 30
0.0
 42
0.12611573
 70
     1
  0
VERTEX
  5
28D9
  8
3
 10
110.0049422355068
 20
37.069925381366232
 30
0.0
 42
0.082153489
  0
VERTEX
  5
28DA
  8
3
 10
109.9808522355068
 20
37.087475381366232
 30
0.0
 42
0.047430661
 70
     1
  0
VERTEX
  5
28DB
  8
3
 10
109.9474022355068
 20
37.104985381366248
 30
0.0
 42
0.029703733
  0
VERTEX
  5
28DC
  8
3
 10
109.9042722355067
 20
37.12237538136624
 30
0.0
 42
0.019581154
 70
     1
  0
VERTEX
  5
28DD
  8
3
 10
109.85193223550669
 20
37.13962538136623
 30
0.0
 42
0.013863168
  0
VERTEX
  5
28DE
  8
3
 10
109.79010223550679
 20
37.156715381366247
 30
0.0
 42
0.010211619
 70
     1
  0
VERTEX
  5
28DF
  8
3
 10
109.7192422355067
 20
37.173625381366243
 30
0.0
 42
0.0079375154
  0
VERTEX
  5
28E0
  8
3
 10
109.6390722355067
 20
37.190315381366247
 30
0.0
 42
0.0063076414
 70
     1
  0
VERTEX
  5
28E1
  8
3
 10
109.55003223550671
 20
37.206775381366242
 30
0.0
 42
0.0051929157
  0
VERTEX
  5
28E2
  8
3
 10
109.4518422355067
 20
37.222955381366241
 30
0.0
 42
0.004302079
 70
     1
  0
VERTEX
  5
28E3
  8
3
 10
109.3450222355067
 20
37.238865381366253
 30
0.0
 42
0.0036358167
  0
VERTEX
  5
28E4
  8
3
 10
109.2294222355068
 20
37.254445381366232
 30
0.0
 42
0.0031046508
 70
     1
  0
VERTEX
  5
28E5
  8
3
 10
109.10560223550679
 20
37.269705381366236
 30
0.0
 42
0.0027040569
  0
VERTEX
  5
28E6
  8
3
 10
108.97343223550671
 20
37.284595381366231
 30
0.0
 42
0.002375772
 70
     1
  0
VERTEX
  5
28E7
  8
3
 10
108.8334622355068
 20
37.299125381366238
 30
0.0
 42
0.0021229973
  0
VERTEX
  5
28E8
  8
3
 10
108.6855722355067
 20
37.313235381366241
 30
0.0
 42
0.0019077079
 70
     1
  0
VERTEX
  5
28E9
  8
3
 10
108.5303022355068
 20
37.326925381366237
 30
0.0
 42
0.001737785
  0
VERTEX
  5
28EA
  8
3
 10
108.36755223550681
 20
37.340155381366237
 30
0.0
 42
0.0015918866
 70
     1
  0
VERTEX
  5
28EB
  8
3
 10
108.19782223550671
 20
37.352925381366227
 30
0.0
 42
0.001477879
  0
VERTEX
  5
28EC
  8
3
 10
108.02102223550671
 20
37.365195381366242
 30
0.0
 42
0.0013669042
 70
     1
  0
VERTEX
  5
28ED
  8
3
 10
107.8377122355067
 20
37.376955381366251
 30
0.0
 42
0.0012686463
  0
VERTEX
  5
28EE
  8
3
 10
107.64790223550681
 20
37.388175381366239
 30
0.0
 42
0.0011791303
 70
     1
  0
VERTEX
  5
28EF
  8
3
 10
107.4521822355067
 20
37.398865381366249
 30
0.0
 42
0.0011024569
  0
VERTEX
  5
28F0
  8
3
 10
107.25065223550681
 20
37.408995381366232
 30
0.0
 42
0.0010366169
 70
     1
  0
VERTEX
  5
28F1
  8
3
 10
107.0438722355067
 20
37.418555381366247
 30
0.0
 42
0.0009834316
  0
VERTEX
  5
28F2
  8
3
 10
106.83196223550679
 20
37.427515381366248
 30
0.0
 42
0.0009366222
 70
     1
  0
VERTEX
  5
28F3
  8
3
 10
106.6154422355068
 20
37.435895381366237
 30
0.0
 42
0.0008987828
  0
VERTEX
  5
28F4
  8
3
 10
106.39446223550679
 20
37.443645381366217
 30
0.0
 42
0.0008653754
 70
     1
  0
VERTEX
  5
28F5
  8
3
 10
106.1695222355067
 20
37.450775381366242
 30
0.0
 42
0.0008391094
  0
VERTEX
  5
28F6
  8
3
 10
105.94080223550679
 20
37.457245381366242
 30
0.0
 42
0.0008167421
 70
     1
  0
VERTEX
  5
28F7
  8
3
 10
105.7087622355068
 20
37.463075381366238
 30
0.0
 42
0.0008011428
  0
VERTEX
  5
28F8
  8
3
 10
105.47361223550681
 20
37.46821538136625
 30
0.0
 42
0.0007813741
 70
     1
  0
VERTEX
  5
28F9
  8
3
 10
105.2358222355067
 20
37.472695381366243
 30
0.0
 42
0.0007597808
  0
VERTEX
  5
28FA
  8
3
 10
104.9956722355067
 20
37.476475381366242
 30
0.0
 42
0.0007410359
 70
     1
  0
VERTEX
  5
28FB
  8
3
 10
104.7536322355067
 20
37.479595381366231
 30
0.0
 42
0.000725203
  0
VERTEX
  5
28FC
  8
3
 10
104.51001223550681
 20
37.482005381366243
 30
0.0
 42
0.0007134414
 70
     1
  0
VERTEX
  5
28FD
  8
3
 10
104.2652722355067
 20
37.483755381366237
 30
0.0
 42
0.000705593
  0
VERTEX
  5
28FE
  8
3
 10
104.0197622355068
 20
37.484795381366233
 30
0.0
 42
0.000700988
 70
     1
  0
VERTEX
  5
28FF
  8
3
 10
103.7738822355067
 20
37.485155381366241
 30
0.0
 42
0.0006998612
  0
VERTEX
  5
2900
  8
3
 10
103.52801223550679
 20
37.484815381366253
 30
0.0
 42
0.00070176
 70
     1
  0
VERTEX
  5
2901
  8
3
 10
103.2825522355068
 20
37.483785381366253
 30
0.0
 42
0.0007071563
  0
VERTEX
  5
2902
  8
3
 10
103.0378922355067
 20
37.482055381366237
 30
0.0
 42
0.0007160199
 70
     1
  0
VERTEX
  5
2903
  8
3
 10
102.79439223550681
 20
37.479635381366251
 30
0.0
 42
0.0007291691
  0
VERTEX
  5
2904
  8
3
 10
102.5524922355067
 20
37.476505381366238
 30
0.0
 42
0.000739274
 70
     1
  0
VERTEX
  5
2905
  8
3
 10
102.3124722355067
 20
37.472695381366243
 30
0.0
 42
0.0007454374
  0
VERTEX
  5
2906
  8
3
 10
102.0747722355068
 20
37.46818538136624
 30
0.0
 42
0.000755462
 70
     1
  0
VERTEX
  5
2907
  8
3
 10
101.8396522355068
 20
37.463025381366243
 30
0.0
 42
0.0007672543
  0
VERTEX
  5
2908
  8
3
 10
101.6075622355068
 20
37.457195381366233
 30
0.0
 42
0.000784392
 70
     1
  0
VERTEX
  5
2909
  8
3
 10
101.37874223550681
 20
37.45072538136624
 30
0.0
 42
0.0008048859
  0
VERTEX
  5
290A
  8
3
 10
101.15368223550681
 20
37.44361538136625
 30
0.0
 42
0.0008313
 70
     1
  0
VERTEX
  5
290B
  8
3
 10
100.9325822355067
 20
37.435885381366248
 30
0.0
 42
0.0008619159
  0
VERTEX
  5
290C
  8
3
 10
100.7159722355067
 20
37.427525381366237
 30
0.0
 42
0.000899637
 70
     1
  0
VERTEX
  5
290D
  8
3
 10
100.5040022355068
 20
37.418575381366239
 30
0.0
 42
0.0009429201
  0
VERTEX
  5
290E
  8
3
 10
100.2972422355068
 20
37.409025381366227
 30
0.0
 42
0.00099609
 70
     1
  0
VERTEX
  5
290F
  8
3
 10
100.0958222355067
 20
37.398905381366241
 30
0.0
 42
0.001058216
  0
VERTEX
  5
2910
  8
3
 10
99.900322235506763
 20
37.388215381366251
 30
0.0
 42
0.0011235484
 70
     1
  0
VERTEX
  5
2911
  8
3
 10
99.710772235506766
 20
37.376975381366243
 30
0.0
 42
0.0011863601
  0
VERTEX
  5
2912
  8
3
 10
99.527662235506796
 20
37.365195381366242
 30
0.0
 42
0.0012633747
 70
     1
  0
VERTEX
  5
2913
  8
3
 10
99.350992235506794
 20
37.352915381366252
 30
0.0
 42
0.0013478994
  0
VERTEX
  5
2914
  8
3
 10
99.181262235506807
 20
37.340145381366227
 30
0.0
 42
0.0014534259
 70
     1
  0
VERTEX
  5
2915
  8
3
 10
99.018422235506762
 20
37.326905381366252
 30
0.0
 42
0.0015733324
  0
VERTEX
  5
2916
  8
3
 10
98.86302223550679
 20
37.313225381366237
 30
0.0
 42
0.0017254416
 70
     1
  0
VERTEX
  5
2917
  8
3
 10
98.714992235506784
 20
37.299125381366238
 30
0.0
 42
0.0019041639
  0
VERTEX
  5
2918
  8
3
 10
98.574892235506795
 20
37.284615381366251
 30
0.0
 42
0.0021222406
 70
     1
  0
VERTEX
  5
2919
  8
3
 10
98.442632235506778
 20
37.269735381366253
 30
0.0
 42
0.0023718896
  0
VERTEX
  5
291A
  8
3
 10
98.31880223550678
 20
37.254495381366233
 30
0.0
 42
0.0027333717
 70
     1
  0
VERTEX
  5
291B
  8
3
 10
98.203282235506776
 20
37.238905381366237
 30
0.0
 42
0.0032217899
  0
VERTEX
  5
291C
  8
3
 10
98.096632235506775
 20
37.222955381366241
 30
0.0
 42
0.0036738662
 70
     1
  0
VERTEX
  5
291D
  8
3
 10
97.998652235506796
 20
37.206805381366237
 30
0.0
 42
0.0039961362
  0
VERTEX
  5
291E
  8
3
 10
97.909832235506769
 20
37.190475381366241
 30
0.0
 42
0.005221972
 70
     1
  0
VERTEX
  5
291F
  8
3
 10
97.829672235506763
 20
37.173645381366228
 30
0.0
 42
0.0077396926
  0
VERTEX
  5
2920
  8
3
 10
97.758542235506795
 20
37.156175381366239
 30
0.0
 42
0.0077028056
 70
     1
  0
VERTEX
  5
2921
  8
3
 10
97.697022235506751
 20
37.13962538136623
 30
0.0
 42
0.0031381243
  0
VERTEX
  5
2922
  8
3
 10
97.645832235506759
 20
37.124555381366228
 30
0.0
 42
0.014767718
 70
     1
  0
VERTEX
  5
2923
  8
3
 10
97.601412235506785
 20
37.104985381366248
 30
0.0
 42
0.049892277
  0
VERTEX
  5
2924
  8
3
 10
97.56074223550678
 20
37.074645381366231
 30
0.0
 42
0.05320504
 70
     1
  0
VERTEX
  5
2925
  8
3
 10
97.524132235506784
 20
37.034785381366248
 30
0.0
 42
0.042617134
  0
SEQEND
  5
2926
  8
3
  0
LINE
  5
2927
  8
3
 10
111.84122223550681
 20
37.577245381366232
 30
0.0
 11
97.524132235506784
 21
37.577245381366232
 31
0.0
  0
POLYLINE
  5
2928
  8
0
 66
     1
 10
0.0
 20
0.0
 30
0.0
 70
     2
  0
VERTEX
  5
2929
  8
0
 10
97.524132235506784
 20
37.034675381366242
 30
0.0
  0
VERTEX
  5
292A
  8
0
 10
97.530072235506765
 20
36.918545381366229
 30
0.0
 42
0.024251987
 70
     1
  0
VERTEX
  5
292B
  8
0
 10
97.547292235506774
 20
36.805485381366239
 30
0.0
 42
0.026423481
  0
VERTEX
  5
292C
  8
0
 10
97.57647223550677
 20
36.69554538136623
 30
0.0
 42
0.025484344
 70
     1
  0
VERTEX
  5
292D
  8
0
 10
97.615622235506763
 20
36.589065381366247
 30
0.0
 42
0.02172981
  0
VERTEX
  5
292E
  8
0
 10
97.663482235506777
 20
36.487135381366237
 30
0.0
 42
0.021641483
 70
     1
  0
VERTEX
  5
292F
  8
0
 10
97.719392235506774
 20
36.392205381366239
 30
0.0
 42
0.025967668
  0
VERTEX
  5
2930
  8
0
 10
97.783262235506811
 20
36.307125381366241
 30
0.0
 42
0.027070071
 70
     1
  0
VERTEX
  5
2931
  8
0
 10
97.8527122355068
 20
36.23151538136625
 30
0.0
 42
0.023242701
  0
VERTEX
  5
2932
  8
0
 10
97.925362235506825
 20
36.165245381366233
 30
0.0
 42
0.019621025
 70
     1
  0
VERTEX
  5
2933
  8
0
 10
97.998262235506786
 20
36.107255381366251
 30
0.0
 42
0.014702118
  0
VERTEX
  5
2934
  8
0
 10
98.068792235506777
 20
36.057185381366239
 30
0.0
 42
0.012589633
 70
     1
  0
VERTEX
  5
2935
  8
0
 10
98.136342235506774
 20
36.01398538136624
 30
0.0
 42
0.011941471
  0
VERTEX
  5
2936
  8
0
 10
98.200592235506775
 20
35.97718538136624
 30
0.0
 42
0.012146535
 70
     1
  0
VERTEX
  5
2937
  8
0
 10
98.262192235506774
 20
35.94578538136625
 30
0.0
 42
0.012492209
  0
VERTEX
  5
2938
  8
0
 10
98.321702235506791
 20
35.919215381366243
 30
0.0
 42
0.012393543
 70
     1
  0
VERTEX
  5
2939
  8
0
 10
98.379652235506796
 20
35.896515381366243
 30
0.0
 42
0.011293919
  0
VERTEX
  5
293A
  8
0
 10
98.436452235506778
 20
35.877095381366232
 30
0.0
 42
0.009870694
 70
     1
  0
VERTEX
  5
293B
  8
0
 10
98.492642235506793
 20
35.860005381366243
 30
0.0
 42
0.0075289491
  0
VERTEX
  5
293C
  8
0
 10
98.548712235506812
 20
35.844575381366241
 30
0.0
 42
0.0054814788
 70
     1
  0
VERTEX
  5
293D
  8
0
 10
98.605072235506753
 20
35.830115381366262
 30
0.0
 42
0.0033734641
  0
VERTEX
  5
293E
  8
0
 10
98.662102235506794
 20
35.816165381366247
 30
0.0
 42
0.0025181532
 70
     1
  0
VERTEX
  5
293F
  8
0
 10
98.719912235506797
 20
35.802665381366253
 30
0.0
 42
0.0027618151
  0
VERTEX
  5
2940
  8
0
 10
98.778632235506763
 20
35.789665381366248
 30
0.0
 42
0.0028057268
 70
     1
  0
VERTEX
  5
2941
  8
0
 10
98.83835223550679
 20
35.777115381366237
 30
0.0
 42
0.0026886996
  0
VERTEX
  5
2942
  8
0
 10
98.899262235506811
 20
35.765015381366247
 30
0.0
 42
0.0025943133
 70
     1
  0
VERTEX
  5
2943
  8
0
 10
98.961422235506774
 20
35.753305381366253
 30
0.0
 42
0.0025302254
  0
VERTEX
  5
2944
  8
0
 10
99.025022235506754
 20
35.741995381366237
 30
0.0
 42
0.0024417564
 70
     1
  0
VERTEX
  5
2945
  8
0
 10
99.090142235506789
 20
35.731055381366247
 30
0.0
 42
0.0023422978
  0
VERTEX
  5
2946
  8
0
 10
99.156972235506785
 20
35.720465381366253
 30
0.0
 42
0.0022243399
 70
     1
  0
VERTEX
  5
2947
  8
0
 10
99.225522235506759
 20
35.710195381366233
 30
0.0
 42
0.002101934
  0
VERTEX
  5
2948
  8
0
 10
99.296002235506791
 20
35.70024538136623
 30
0.0
 42
0.0020016642
 70
     1
  0
VERTEX
  5
2949
  8
0
 10
99.368592235506782
 20
35.69057538136623
 30
0.0
 42
0.0019186309
  0
VERTEX
  5
294A
  8
0
 10
99.4435522355068
 20
35.681155381366239
 30
0.0
 42
0.0017360736
 70
     1
  0
VERTEX
  5
294B
  8
0
 10
99.52026223550682
 20
35.672015381366251
 30
0.0
 42
0.0015061262
  0
VERTEX
  5
294C
  8
0
 10
99.598592235506786
 20
35.663165381366248
 30
0.0
 42
0.0014920636
 70
     1
  0
VERTEX
  5
294D
  8
0
 10
99.680452235506777
 20
35.654415381366249
 30
0.0
 42
0.0015569128
  0
VERTEX
  5
294E
  8
0
 10
99.766572235506771
 20
35.645705381366241
 30
0.0
 42
0.0011159804
 70
     1
  0
VERTEX
  5
294F
  8
0
 10
99.848612235506806
 20
35.637665381366247
 30
0.0
 42
0.000465367
  0
VERTEX
  5
2950
  8
0
 10
99.923792235506795
 20
35.630495381366231
 30
0.0
 42
0.0013150388
 70
     1
  0
VERTEX
  5
2951
  8
0
 10
100.0241822355067
 20
35.621665381366263
 30
0.0
 42
0.0018802558
  0
VERTEX
  5
2952
  8
0
 10
100.1836022355067
 20
35.608515381366253
 30
0.0
 42
0.0008515796
 70
     1
  0
VERTEX
  5
2953
  8
0
 10
100.39526223550681
 20
35.591555381366241
 30
0.0
 42
0.0004498962
  0
SEQEND
  5
2954
  8
0
  0
ARC
  5
2955
  8
0
 10
106.9241322355067
 20
38.047245381366231
 30
0.0
 40
9.3999990999999987
 50
189.39540500000001
 51
221.20719
  0
LINE
  5
2956
  8
0
 10
98.624132235506778
 20
38.677245381366241
 30
0.0
 11
100.93466223550691
 21
38.677245381366241
 31
0.0
  0
LINE
  5
2957
  8
0
 10
97.524132235506784
 20
37.577245381366232
 30
0.0
 11
97.524132235506784
 21
37.034785381366248
 31
0.0
  0
POLYLINE
  5
2958
  8
0
 66
     1
 10
0.0
 20
0.0
 30
0.0
 70
     2
  0
VERTEX
  5
2959
  8
0
 10
98.624132235506778
 20
38.677245381366241
 30
0.0
  0
VERTEX
  5
295A
  8
0
 10
98.558412235506808
 20
38.675345381366228
 30
0.0
 42
0.016283219
 70
     1
  0
VERTEX
  5
295B
  8
0
 10
98.491732235506774
 20
38.669245381366217
 30
0.0
 42
0.015330758
  0
VERTEX
  5
295C
  8
0
 10
98.424002235506777
 20
38.658805381366243
 30
0.0
 42
0.015036834
 70
     1
  0
VERTEX
  5
295D
  8
0
 10
98.355672235506773
 20
38.643985381366249
 30
0.0
 42
0.015813762
  0
VERTEX
  5
295E
  8
0
 10
98.287262235506816
 20
38.624345381366233
 30
0.0
 42
0.016168883
 70
     1
  0
VERTEX
  5
295F
  8
0
 10
98.219222235506749
 20
38.600005381366238
 30
0.0
 42
0.016374663
  0
VERTEX
  5
2960
  8
0
 10
98.152042235506784
 20
38.570725381366231
 30
0.0
 42
0.016510411
 70
     1
  0
VERTEX
  5
2961
  8
0
 10
98.086182235506783
 20
38.536725381366239
 30
0.0
 42
0.016804166
  0
VERTEX
  5
2962
  8
0
 10
98.022222235506774
 20
38.497875381366242
 30
0.0
 42
0.016900445
 70
     1
  0
VERTEX
  5
2963
  8
0
 10
97.960572235506746
 20
38.454565381366251
 30
0.0
 42
0.016966295
  0
VERTEX
  5
2964
  8
0
 10
97.901832235506774
 20
38.406825381366232
 30
0.0
 42
0.017130996
 70
     1
  0
VERTEX
  5
2965
  8
0
 10
97.846312235506787
 20
38.355055381366242
 30
0.0
 42
0.017449098
  0
VERTEX
  5
2966
  8
0
 10
97.794562235506788
 20
38.299405381366242
 30
0.0
 42
0.017076007
 70
     1
  0
VERTEX
  5
2967
  8
0
 10
97.746802235506777
 20
38.240795381366219
 30
0.0
 42
0.016146659
  0
VERTEX
  5
2968
  8
0
 10
97.703522235506767
 20
38.179675381366238
 30
0.0
 42
0.017353811
 70
     1
  0
VERTEX
  5
2969
  8
0
 10
97.66464223550679
 20
38.115185381366238
 30
0.0
 42
0.019902001
  0
VERTEX
  5
296A
  8
0
 10
97.630512235506814
 20
38.047255381366242
 30
0.0
 42
0.015787208
 70
     1
  0
VERTEX
  5
296B
  8
0
 10
97.601362235506812
 20
37.982145381366237
 30
0.0
 42
0.0071535766
  0
VERTEX
  5
296C
  8
0
 10
97.577542235506755
 20
37.922295381366233
 30
0.0
 42
0.020430152
 70
     1
  0
VERTEX
  5
296D
  8
0
 10
97.557392235506754
 20
37.845695381366227
 30
0.0
 42
0.03403659
  0
VERTEX
  5
296E
  8
0
 10
97.53955223550679
 20
37.729135381366248
 30
0.0
 42
0.017611337
 70
     1
  0
VERTEX
  5
296F
  8
0
 10
97.524132235506784
 20
37.577245381366232
 30
0.0
 42
0.0097084976
  0
SEQEND
  5
2970
  8
0
  0
LINE
  5
2971
  8
0
 10
97.524132235506784
 20
39.059815381366249
 30
0.0
 11
97.524132235506784
 21
38.517245381366237
 31
0.0
  0
ARC
  5
2972
  8
0
 10
106.9241322355067
 20
38.047245381366231
 30
0.0
 40
9.3999990999999987
 50
180.0
 51
182.13578999999999
  0
LINE
  5
2973
  8
0
 10
97.535882235506776
 20
38.517245381366237
 30
0.0
 11
97.524132235506784
 21
38.517245381366237
 31
0.0
  0
POLYLINE
  5
2974
  8
0
 66
     1
 10
0.0
 20
0.0
 30
0.0
 70
     2
  0
VERTEX
  5
2975
  8
0
 10
97.524132235506784
 20
38.517245381366237
 30
0.0
  0
VERTEX
  5
2976
  8
0
 10
97.524172235506768
 20
38.507425381366232
 30
0.0
 42
0.002287812
 70
     1
  0
VERTEX
  5
2977
  8
0
 10
97.524302235506781
 20
38.497605381366242
 30
0.0
 42
0.0020597313
  0
VERTEX
  5
2978
  8
0
 10
97.524522235506765
 20
38.487815381366246
 30
0.0
 42
0.0022665317
 70
     1
  0
VERTEX
  5
2979
  8
0
 10
97.524832235506778
 20
38.477835381366248
 30
0.0
 42
0.0027533392
  0
VERTEX
  5
297A
  8
0
 10
97.52527223550679
 20
38.467585381366248
 30
0.0
 42
0.0020797538
 70
     1
  0
VERTEX
  5
297B
  8
0
 10
97.52573223550678
 20
38.457935381366241
 30
0.0
 42
0.0006716439
  0
VERTEX
  5
297C
  8
0
 10
97.526192235506784
 20
38.449195381366238
 30
0.0
 42
0.0029775151
 70
     1
  0
VERTEX
  5
297D
  8
0
 10
97.526992235506782
 20
38.437915381366253
 30
0.0
 42
0.0051594563
  0
VERTEX
  5
297E
  8
0
 10
97.52851223550681
 20
38.420465381366263
 30
0.0
 42
0.0025001608
 70
     1
  0
VERTEX
  5
297F
  8
0
 10
97.530662235506824
 20
38.397555381366253
 30
0.0
 42
0.001312184
  0
SEQEND
  5
2980
  8
0
  0
POLYLINE
  5
2981
  8
0
 66
     1
 10
0.0
 20
0.0
 30
0.0
 70
     2
  0
VERTEX
  5
2982
  8
0
 10
97.651722235506753
 20
39.590765381366261
 30
0.0
  0
VERTEX
  5
2983
  8
0
 10
97.636672235506765
 20
39.562485381366251
 30
0.0
 42
0.0078305732
 70
     1
  0
VERTEX
  5
2984
  8
0
 10
97.622382235506763
 20
39.533575381366241
 30
0.0
 42
0.0075209509
  0
VERTEX
  5
2985
  8
0
 10
97.608892235506801
 20
39.504015381366237
 30
0.0
 42
0.007605331
 70
     1
  0
VERTEX
  5
2986
  8
0
 10
97.596212235506812
 20
39.473785381366241
 30
0.0
 42
0.0081020464
  0
VERTEX
  5
2987
  8
0
 10
97.58441223550679
 20
39.442825381366241
 30
0.0
 42
0.0079983292
 70
     1
  0
VERTEX
  5
2988
  8
0
 10
97.573522235506772
 20
39.411375381366241
 30
0.0
 42
0.0075027479
  0
VERTEX
  5
2989
  8
0
 10
97.563612235506824
 20
39.379485381366251
 30
0.0
 42
0.008531939
 70
     1
  0
VERTEX
  5
298A
  8
0
 10
97.554672235506757
 20
39.346345381366241
 30
0.0
 42
0.0105575
  0
VERTEX
  5
298B
  8
0
 10
97.546792235506786
 20
39.311635381366251
 30
0.0
 42
0.0078258903
 70
     1
  0
VERTEX
  5
298C
  8
0
 10
97.539972235506767
 20
39.278675381366241
 30
0.0
 42
0.0021580076
  0
VERTEX
  5
298D
  8
0
 10
97.5343022355068
 20
39.248555381366252
 30
0.0
 42
0.011664153
 70
     1
  0
VERTEX
  5
298E
  8
0
 10
97.529762235506823
 20
39.208375381366238
 30
0.0
 42
0.020270408
  0
VERTEX
  5
298F
  8
0
 10
97.526382235506745
 20
39.144555381366253
 30
0.0
 42
0.0094774231
 70
     1
  0
VERTEX
  5
2990
  8
0
 10
97.524132235506784
 20
39.059815381366249
 30
0.0
 42
0.0048296096
  0
SEQEND
  5
2991
  8
0
  0
POLYLINE
  5
2992
  8
0
 66
     1
 10
0.0
 20
0.0
 30
0.0
 70
     2
  0
VERTEX
  5
2993
  8
0
 10
97.524132235506784
 20
39.059815381366249
 30
0.0
  0
VERTEX
  5
2994
  8
0
 10
97.524382235506778
 20
39.063755381366242
 30
0.0
 42
-0.030540982
 70
     1
  0
VERTEX
  5
2995
  8
0
 10
97.525102235506793
 20
39.067695381366242
 30
0.0
 42
-0.029462931
  0
VERTEX
  5
2996
  8
0
 10
97.526322235506754
 20
39.071635381366249
 30
0.0
 42
-0.028014331
 70
     1
  0
VERTEX
  5
2997
  8
0
 10
97.528022235506768
 20
39.075575381366242
 30
0.0
 42
-0.026356106
  0
VERTEX
  5
2998
  8
0
 10
97.530222235506756
 20
39.079525381366238
 30
0.0
 42
-0.023132367
 70
     1
  0
VERTEX
  5
2999
  8
0
 10
97.532872235506787
 20
39.083455381366242
 30
0.0
 42
-0.019481057
  0
VERTEX
  5
299A
  8
0
 10
97.535962235506801
 20
39.087355381366237
 30
0.0
 42
-0.019171814
 70
     1
  0
VERTEX
  5
299B
  8
0
 10
97.539642235506804
 20
39.091325381366232
 30
0.0
 42
-0.019967983
  0
VERTEX
  5
299C
  8
0
 10
97.543982235506775
 20
39.095385381366242
 30
0.0
 42
-0.013164445
 70
     1
  0
VERTEX
  5
299D
  8
0
 10
97.548332235506763
 20
39.09918538136624
 30
0.0
 42
-0.0042292813
  0
VERTEX
  5
299E
  8
0
 10
97.552512235506811
 20
39.102625381366238
 30
0.0
 42
-0.016097118
 70
     1
  0
VERTEX
  5
299F
  8
0
 10
97.558942235506777
 20
39.107035381366252
 30
0.0
 42
-0.022070437
  0
VERTEX
  5
29A0
  8
0
 10
97.570232235506779
 20
39.11382538136624
 30
0.0
 42
-0.008928363
 70
     1
  0
VERTEX
  5
29A1
  8
0
 10
97.585852235506806
 20
39.122695381366228
 30
0.0
 42
-0.0043555508
  0
SEQEND
  5
29A2
  8
0
  0
POLYLINE
  5
29A3
  8
0
 66
     1
 10
0.0
 20
0.0
 30
0.0
 70
     2
  0
VERTEX
  5
29A4
  8
0
 10
101.4071422355067
 20
35.136475381366239
 30
0.0
  0
VERTEX
  5
29A5
  8
0
 10
101.4496422355068
 20
35.112835381366239
 30
0.0
 42
-0.028205708
 70
     1
  0
VERTEX
  5
29A6
  8
0
 10
101.4919922355068
 20
35.083095381366242
 30
0.0
 42
-0.024938729
  0
VERTEX
  5
29A7
  8
0
 10
101.53419223550679
 20
35.04699538136623
 30
0.0
 42
-0.021633321
 70
     1
  0
VERTEX
  5
29A8
  8
0
 10
101.57623223550679
 20
35.004815381366242
 30
0.0
 42
-0.018781488
  0
VERTEX
  5
29A9
  8
0
 10
101.61804223550681
 20
34.956365381366261
 30
0.0
 42
-0.016239699
 70
     1
  0
VERTEX
  5
29AA
  8
0
 10
101.6596122355068
 20
34.901935381366251
 30
0.0
 42
-0.014167653
  0
VERTEX
  5
29AB
  8
0
 10
101.7009022355068
 20
34.84131538136625
 30
0.0
 42
-0.012366902
 70
     1
  0
VERTEX
  5
29AC
  8
0
 10
101.7419022355068
 20
34.77477538136624
 30
0.0
 42
-0.010927819
  0
VERTEX
  5
29AD
  8
0
 10
101.7825622355068
 20
34.702095381366242
 30
0.0
 42
-0.0096199868
 70
     1
  0
VERTEX
  5
29AE
  8
0
 10
101.8228622355068
 20
34.623625381366239
 30
0.0
 42
-0.0085383513
  0
VERTEX
  5
29AF
  8
0
 10
101.8627422355067
 20
34.539175381366242
 30
0.0
 42
-0.0077057023
 70
     1
  0
VERTEX
  5
29B0
  8
0
 10
101.90224223550671
 20
34.448795381366232
 30
0.0
 42
-0.0070996599
  0
VERTEX
  5
29B1
  8
0
 10
101.9413422355068
 20
34.352195381366229
 30
0.0
 42
-0.0062083068
 70
     1
  0
VERTEX
  5
29B2
  8
0
 10
101.9798622355068
 20
34.250515381366263
 30
0.0
 42
-0.005275466
  0
VERTEX
  5
29B3
  8
0
 10
102.0176822355068
 20
34.143905381366238
 30
0.0
 42
-0.0052998494
 70
     1
  0
VERTEX
  5
29B4
  8
0
 10
102.0555122355068
 20
34.029335381366238
 30
0.0
 42
-0.0057200403
  0
VERTEX
  5
29B5
  8
0
 10
102.09356223550679
 20
33.905545381366231
 30
0.0
 42
-0.003944332
 70
     1
  0
VERTEX
  5
29B6
  8
0
 10
102.12897223550669
 20
33.786045381366243
 30
0.0
 42
-0.001286684
  0
VERTEX
  5
29B7
  8
0
 10
102.1607322355067
 20
33.675255381366242
 30
0.0
 42
-0.005078651
 70
     1
  0
VERTEX
  5
29B8
  8
0
 10
102.2000022355068
 20
33.521395381366233
 30
0.0
 42
-0.0076430986
  0
VERTEX
  5
29B9
  8
0
 10
102.25845223550679
 20
33.269675381366241
 30
0.0
 42
-0.0033406504
 70
     1
  0
VERTEX
  5
29BA
  8
0
 10
102.33379223550681
 20
32.931155381366239
 30
0.0
 42
-0.0016811616
  0
SEQEND
  5
29BB
  8
0
  0
POLYLINE
  5
29BC
  8
0
 66
     1
 10
0.0
 20
0.0
 30
0.0
 70
     2
  0
VERTEX
  5
29BD
  8
0
 10
101.3568722355067
 20
33.423165381366253
 30
0.0
  0
VERTEX
  5
29BE
  8
0
 10
101.3142522355068
 20
33.46800538136624
 30
0.0
 42
0.0030219018
 70
     1
  0
VERTEX
  5
29BF
  8
0
 10
101.2707822355068
 20
33.512595381366232
 30
0.0
 42
0.003482862
  0
VERTEX
  5
29C0
  8
0
 10
101.2263722355067
 20
33.556895381366232
 30
0.0
 42
0.0029467492
 70
     1
  0
VERTEX
  5
29C1
  8
0
 10
101.1812822355068
 20
33.601125381366231
 30
0.0
 42
0.0013241118
  0
VERTEX
  5
29C2
  8
0
 10
101.1357422355067
 20
33.645555381366243
 30
0.0
 42
0.0001208846
 70
     1
  0
VERTEX
  5
29C3
  8
0
 10
101.08997223550671
 20
33.690355381366253
 30
0.0
 42
-0.0009746961
  0
VERTEX
  5
29C4
  8
0
 10
101.04413223550669
 20
33.73573538136624
 30
0.0
 42
-0.0017608668
 70
     1
  0
VERTEX
  5
29C5
  8
0
 10
100.99837223550669
 20
33.78180538136624
 30
0.0
 42
-0.0024496134
  0
VERTEX
  5
29C6
  8
0
 10
100.9527822355067
 20
33.82872538136624
 30
0.0
 42
-0.0029832276
 70
     1
  0
VERTEX
  5
29C7
  8
0
 10
100.9074722355067
 20
33.87658538136624
 30
0.0
 42
-0.0035115698
  0
VERTEX
  5
29C8
  8
0
 10
100.8625222355067
 20
33.925535381366238
 30
0.0
 42
-0.0039168506
 70
     1
  0
VERTEX
  5
29C9
  8
0
 10
100.8180222355067
 20
33.975605381366243
 30
0.0
 42
-0.0043254053
  0
VERTEX
  5
29CA
  8
0
 10
100.7740622355068
 20
34.026935381366243
 30
0.0
 42
-0.0045886107
 70
     1
  0
VERTEX
  5
29CB
  8
0
 10
100.73069223550679
 20
34.079515381366249
 30
0.0
 42
-0.0048058563
  0
VERTEX
  5
29CC
  8
0
 10
100.6880022355068
 20
34.13343538136624
 30
0.0
 42
-0.0049947884
 70
     1
  0
VERTEX
  5
29CD
  8
0
 10
100.6460422355067
 20
34.188685381366241
 30
0.0
 42
-0.0052308441
  0
VERTEX
  5
29CE
  8
0
 10
100.6049122355068
 20
34.24537538136623
 30
0.0
 42
-0.0054233658
 70
     1
  0
VERTEX
  5
29CF
  8
0
 10
100.5646522355068
 20
34.303495381366233
 30
0.0
 42
-0.0056529666
  0
VERTEX
  5
29D0
  8
0
 10
100.5253622355068
 20
34.363165381366251
 30
0.0
 42
-0.0058389087
 70
     1
  0
VERTEX
  5
29D1
  8
0
 10
100.4870822355067
 20
34.42438538136625
 30
0.0
 42
-0.0060645252
  0
VERTEX
  5
29D2
  8
0
 10
100.4499222355067
 20
34.487295381366238
 30
0.0
 42
-0.006189876
 70
     1
  0
VERTEX
  5
29D3
  8
0
 10
100.4139022355068
 20
34.551835381366253
 30
0.0
 42
-0.006306068
  0
VERTEX
  5
29D4
  8
0
 10
100.37914223550671
 20
34.618105381366227
 30
0.0
 42
-0.0063387867
 70
     1
  0
VERTEX
  5
29D5
  8
0
 10
100.3456022355068
 20
34.686125381366239
 30
0.0
 42
-0.0063295539
  0
VERTEX
  5
29D6
  8
0
 10
100.3133522355068
 20
34.755965381366252
 30
0.0
 42
-0.0060147708
 70
     1
  0
VERTEX
  5
29D7
  8
0
 10
100.2824622355068
 20
34.827045381366233
 30
0.0
 42
-0.0055112004
  0
VERTEX
  5
29D8
  8
0
 10
100.2530522355068
 20
34.899225381366243
 30
0.0
 42
-0.0059925354
 70
     1
  0
VERTEX
  5
29D9
  8
0
 10
100.2247222355067
 20
34.974245381366231
 30
0.0
 42
-0.0070434151
  0
VERTEX
  5
29DA
  8
0
 10
100.1974422355067
 20
35.052785381366249
 30
0.0
 42
-0.0052117048
 70
     1
  0
VERTEX
  5
29DB
  8
0
 10
100.17262223550669
 20
35.127405381366252
 30
0.0
 42
-0.001690778
  0
VERTEX
  5
29DC
  8
0
 10
100.1508722355067
 20
35.195615381366252
 30
0.0
 42
-0.007299174
 70
     1
  0
VERTEX
  5
29DD
  8
0
 10
100.1263922355068
 20
35.286175381366242
 30
0.0
 42
-0.01227767
  0
VERTEX
  5
29DE
  8
0
 10
100.0932122355068
 20
35.429395381366241
 30
0.0
 42
-0.0058088403
 70
     1
  0
VERTEX
  5
29DF
  8
0
 10
100.0524822355068
 20
35.619205381366243
 30
0.0
 42
-0.003013655
  0
SEQEND
  5
29E0
  8
0
  0
ARC
  5
29E1
  8
0
 10
101.3568722355067
 20
33.172245381366231
 30
0.0
 40
2.0
 50
221.20717999999999
 51
270.0
  0
POLYLINE
  5
29E2
  8
0
 66
     1
 10
0.0
 20
0.0
 30
0.0
 70
     2
  0
VERTEX
  5
29E3
  8
0
 10
102.33379223550681
 20
32.931155381366239
 30
0.0
  0
VERTEX
  5
29E4
  8
0
 10
102.2725622355068
 20
32.960315381366243
 30
0.0
 42
-0.0006361203
 70
     1
  0
VERTEX
  5
29E5
  8
0
 10
102.2113322355068
 20
32.989665381366251
 30
0.0
 42
-0.0006152234
  0
VERTEX
  5
29E6
  8
0
 10
102.1501122355068
 20
33.019205381366241
 30
0.0
 42
-0.0006324233
 70
     1
  0
VERTEX
  5
29E7
  8
0
 10
102.0888222355067
 20
33.048965381366237
 30
0.0
 42
-0.0006891223
  0
VERTEX
  5
29E8
  8
0
 10
102.0274522355067
 20
33.078985381366238
 30
0.0
 42
-0.0006936137
 70
     1
  0
VERTEX
  5
29E9
  8
0
 10
101.9663422355068
 20
33.109075381366239
 30
0.0
 42
-0.000662023
  0
VERTEX
  5
29EA
  8
0
 10
101.9056222355067
 20
33.139195381366228
 30
0.0
 42
-0.0007687021
 70
     1
  0
VERTEX
  5
29EB
  8
0
 10
101.8439722355067
 20
33.170045381366243
 30
0.0
 42
-0.0009746038
  0
VERTEX
  5
29EC
  8
0
 10
101.7809322355068
 20
33.201885381366239
 30
0.0
 42
-0.0007401673
 70
     1
  0
VERTEX
  5
29ED
  8
0
 10
101.7217622355068
 20
33.231905381366253
 30
0.0
 42
-0.000205872
  0
VERTEX
  5
29EE
  8
0
 10
101.6682922355067
 20
33.259155381366241
 30
0.0
 42
-0.0011337871
 70
     1
  0
VERTEX
  5
29EF
  8
0
 10
101.5997922355068
 20
33.29468538136625
 30
0.0
 42
-0.0020711966
  0
VERTEX
  5
29F0
  8
0
 10
101.4945522355068
 20
33.35012538136624
 30
0.0
 42
-0.0010186248
 70
     1
  0
VERTEX
  5
29F1
  8
0
 10
101.3568722355067
 20
33.423165381366253
 30
0.0
 42
-0.0005326326
  0
SEQEND
  5
29F2
  8
0
  0
LINE
  5
29F3
  8
0
 10
100.5755022355068
 20
35.585705381366239
 30
0.0
 11
101.4071422355067
 21
35.136475381366239
 31
0.0
  0
POLYLINE
  5
29F4
  8
0
 66
     1
 10
0.0
 20
0.0
 30
0.0
 70
     2
  0
VERTEX
  5
29F5
  8
0
 10
100.39526223550681
 20
35.591555381366241
 30
0.0
  0
VERTEX
  5
29F6
  8
0
 10
100.4062922355068
 20
35.590785381366253
 30
0.0
 42
0.0012757188
 70
     1
  0
VERTEX
  5
29F7
  8
0
 10
100.4173622355068
 20
35.590065381366252
 30
0.0
 42
0.0012596204
  0
VERTEX
  5
29F8
  8
0
 10
100.4284522355068
 20
35.589395381366231
 30
0.0
 42
0.0012632392
 70
     1
  0
VERTEX
  5
29F9
  8
0
 10
100.43958223550671
 20
35.58878538136625
 30
0.0
 42
0.0012823816
  0
VERTEX
  5
29FA
  8
0
 10
100.4507622355068
 20
35.588225381366229
 30
0.0
 42
0.0012393038
 70
     1
  0
VERTEX
  5
29FB
  8
0
 10
100.46193223550669
 20
35.587725381366241
 30
0.0
 42
0.0011514561
  0
VERTEX
  5
29FC
  8
0
 10
100.4730622355068
 20
35.58727538136624
 30
0.0
 42
0.0012642277
 70
     1
  0
VERTEX
  5
29FD
  8
0
 10
100.48440223550681
 20
35.586885381366251
 30
0.0
 42
0.001498081
  0
VERTEX
  5
29FE
  8
0
 10
100.4960522355068
 20
35.586545381366243
 30
0.0
 42
0.0011305294
 70
     1
  0
VERTEX
  5
29FF
  8
0
 10
100.5070022355068
 20
35.586265381366253
 30
0.0
 42
0.000387321
  0
VERTEX
  5
2A00
  8
0
 10
100.51691223550679
 20
35.586025381366241
 30
0.0
 42
0.0015845422
 70
     1
  0
VERTEX
  5
2A01
  8
0
 10
100.52971223550681
 20
35.585855381366237
 30
0.0
 42
0.002699347
  0
VERTEX
  5
2A02
  8
0
 10
100.5495122355068
 20
35.585745381366237
 30
0.0
 42
0.0013084443
 70
     1
  0
VERTEX
  5
2A03
  8
0
 10
100.5755022355068
 20
35.585705381366239
 30
0.0
 42
0.0006906423
  0
SEQEND
  5
2A04
  8
0
  0
LINE
  5
2A05
  8
3
 10
111.8435822355067
 20
35.142665381366243
 30
0.0
 11
108.8494522355068
 21
35.862365381366253
 31
0.0
  0
LINE
  5
2A06
  8
3
 10
112.8772422355067
 20
36.238475381366229
 30
0.0
 11
110.1284022355068
 21
36.899225381366243
 31
0.0
  0
LINE
  5
2A07
  8
3
 10
110.02313223550669
 20
36.939040381366233
 30
0.0
 11
110.0216822355067
 21
37.04358038136624
 31
0.0
  0
POLYLINE
  5
2A08
  8
3
 66
     1
 10
0.0
 20
0.0
 30
0.0
 70
     2
  0
VERTEX
  5
2A09
  8
3
 10
110.0207422355068
 20
36.940745381366227
 30
0.0
  0
VERTEX
  5
2A0A
  8
3
 10
110.0255222355067
 20
36.937335381366239
 30
0.0
 42
0.019078201
 70
     1
  0
VERTEX
  5
2A0B
  8
3
 10
110.0310322355068
 20
36.933905381366237
 30
0.0
 42
0.014281544
  0
VERTEX
  5
2A0C
  8
3
 10
110.0372522355068
 20
36.930495381366228
 30
0.0
 42
0.012891375
 70
     1
  0
VERTEX
  5
2A0D
  8
3
 10
110.04444223550681
 20
36.927015381366253
 30
0.0
 42
0.012552676
  0
VERTEX
  5
2A0E
  8
3
 10
110.0527122355068
 20
36.923445381366228
 30
0.0
 42
0.0078527294
 70
     1
  0
VERTEX
  5
2A0F
  8
3
 10
110.0609422355068
 20
36.920085381366249
 30
0.0
 42
0.0025102821
  0
VERTEX
  5
2A10
  8
3
 10
110.0687622355068
 20
36.917035381366247
 30
0.0
 42
0.0091486317
 70
     1
  0
VERTEX
  5
2A11
  8
3
 10
110.08048223550669
 20
36.913125381366228
 30
0.0
 42
0.011978165
  0
VERTEX
  5
2A12
  8
3
 10
110.10067223550671
 20
36.907105381366243
 30
0.0
 42
0.0047450302
 70
     1
  0
VERTEX
  5
2A13
  8
3
 10
110.1284022355068
 20
36.899225381366243
 30
0.0
 42
0.0023008154
  0
SEQEND
  5
2A14
  8
3
  0
POLYLINE
  5
2A15
  8
3
 66
     1
 10
0.0
 20
0.0
 30
0.0
 70
     2
  0
VERTEX
  5
2A16
  8
3
 10
111.8698022355068
 20
35.136475381366239
 30
0.0
  0
VERTEX
  5
2A17
  8
3
 10
111.8681422355068
 20
35.136865381366249
 30
0.0
 42
-0.0001289118
 70
     1
  0
VERTEX
  5
2A18
  8
3
 10
111.86648223550669
 20
35.137245381366228
 30
0.0
 42
-0.000128623
  0
VERTEX
  5
2A19
  8
3
 10
111.86482223550679
 20
35.137635381366238
 30
0.0
 42
-0.0001298952
 70
     1
  0
VERTEX
  5
2A1A
  8
3
 10
111.8631722355068
 20
35.138015381366237
 30
0.0
 42
-0.0001322002
  0
VERTEX
  5
2A1B
  8
3
 10
111.8615222355068
 20
35.13840538136624
 30
0.0
 42
-0.0001284594
 70
     1
  0
VERTEX
  5
2A1C
  8
3
 10
111.8598722355068
 20
35.138795381366243
 30
0.0
 42
-0.0001200544
  0
VERTEX
  5
2A1D
  8
3
 10
111.85824223550679
 20
35.139175381366229
 30
0.0
 42
-0.0001322186
 70
     1
  0
VERTEX
  5
2A1E
  8
3
 10
111.8565922355068
 20
35.139565381366253
 30
0.0
 42
-0.0001570963
  0
VERTEX
  5
2A1F
  8
3
 10
111.8549022355068
 20
35.13996538136626
 30
0.0
 42
-0.000119734
 70
     1
  0
VERTEX
  5
2A20
  8
3
 10
111.85332223550679
 20
35.140335381366249
 30
0.0
 42
-0.0000421288
  0
VERTEX
  5
2A21
  8
3
 10
111.8518922355068
 20
35.140675381366243
 30
0.0
 42
-0.0001678451
 70
     1
  0
VERTEX
  5
2A22
  8
3
 10
111.8500622355067
 20
35.141115381366248
 30
0.0
 42
-0.0002885218
  0
VERTEX
  5
2A23
  8
3
 10
111.8472522355068
 20
35.141785381366248
 30
0.0
 42
-0.0001418401
 70
     1
  0
VERTEX
  5
2A24
  8
3
 10
111.8435822355067
 20
35.142665381366243
 30
0.0
 42
-0.0000755192
  0
SEQEND
  5
2A25
  8
3
  0
POLYLINE
  5
2A26
  8
3
 66
     1
 10
0.0
 20
0.0
 30
0.0
 70
     2
  0
VERTEX
  5
2A27
  8
3
 10
112.8772422355067
 20
36.238475381366229
 30
0.0
  0
VERTEX
  5
2A28
  8
3
 10
112.8785822355067
 20
36.237955381366241
 30
0.0
 42
0.0001654978
 70
     1
  0
VERTEX
  5
2A29
  8
3
 10
112.8799222355068
 20
36.23743538136624
 30
0.0
 42
0.0001637032
  0
VERTEX
  5
2A2A
  8
3
 10
112.8812622355067
 20
36.236915381366252
 30
0.0
 42
0.0001644
 70
     1
  0
VERTEX
  5
2A2B
  8
3
 10
112.88260223550679
 20
36.236395381366243
 30
0.0
 42
0.0001670139
  0
VERTEX
  5
2A2C
  8
3
 10
112.8839522355068
 20
36.235865381366253
 30
0.0
 42
0.0001615896
 70
     1
  0
VERTEX
  5
2A2D
  8
3
 10
112.8852922355067
 20
36.23534538136623
 30
0.0
 42
0.0001503127
  0
VERTEX
  5
2A2E
  8
3
 10
112.8866322355067
 20
36.234825381366242
 30
0.0
 42
0.0001651591
 70
     1
  0
VERTEX
  5
2A2F
  8
3
 10
112.8880022355068
 20
36.234305381366241
 30
0.0
 42
0.0001958466
  0
VERTEX
  5
2A30
  8
3
 10
112.88940223550679
 20
36.233765381366247
 30
0.0
 42
0.0001480714
 70
     1
  0
VERTEX
  5
2A31
  8
3
 10
112.8907122355068
 20
36.233255381366241
 30
0.0
 42
0.000050964
  0
VERTEX
  5
2A32
  8
3
 10
112.89190223550681
 20
36.232805381366248
 30
0.0
 42
0.0002075943
 70
     1
  0
VERTEX
  5
2A33
  8
3
 10
112.8934422355067
 20
36.232215381366252
 30
0.0
 42
0.0003542818
  0
VERTEX
  5
2A34
  8
3
 10
112.8958122355067
 20
36.231315381366237
 30
0.0
 42
0.0001721904
 70
     1
  0
VERTEX
  5
2A35
  8
3
 10
112.8989222355067
 20
36.230125381366243
 30
0.0
 42
0.000091039
  0
SEQEND
  5
2A36
  8
3
  0
LINE
  5
2A37
  8
3
 10
110.80756223550679
 20
38.677245381366241
 30
0.0
 11
100.93466223550691
 21
38.677245381366241
 31
0.0
  0
POLYLINE
  5
2A38
  8
0
 66
     1
 10
0.0
 20
0.0
 30
0.0
 70
     2
  0
VERTEX
  5
2A39
  8
0
 10
102.2105622355068
 20
42.174445381366219
 30
0.0
  0
VERTEX
  5
2A3A
  8
0
 10
102.1779622355068
 20
41.944635381366233
 30
0.0
 42
-0.0023656383
 70
     1
  0
VERTEX
  5
2A3B
  8
0
 10
102.14406223550679
 20
41.721035381366242
 30
0.0
 42
-0.002498426
  0
VERTEX
  5
2A3C
  8
0
 10
102.1088022355068
 20
41.503895381366227
 30
0.0
 42
-0.00263539
 70
     1
  0
VERTEX
  5
2A3D
  8
0
 10
102.0722722355067
 20
41.293165381366251
 30
0.0
 42
-0.0027748236
  0
VERTEX
  5
2A3E
  8
0
 10
102.0344822355067
 20
41.089415381366251
 30
0.0
 42
-0.0029481034
 70
     1
  0
VERTEX
  5
2A3F
  8
0
 10
101.9955322355067
 20
40.892565381366254
 30
0.0
 42
-0.0031401128
  0
VERTEX
  5
2A40
  8
0
 10
101.9554122355068
 20
40.703115381366239
 30
0.0
 42
-0.0033722294
 70
     1
  0
VERTEX
  5
2A41
  8
0
 10
101.9142122355068
 20
40.520995381366227
 30
0.0
 42
-0.0036334089
  0
VERTEX
  5
2A42
  8
0
 10
101.8719322355067
 20
40.346725381366241
 30
0.0
 42
-0.0039447406
 70
     1
  0
VERTEX
  5
2A43
  8
0
 10
101.8286622355068
 20
40.180195381366232
 30
0.0
 42
-0.0042891446
  0
VERTEX
  5
2A44
  8
0
 10
101.78441223550681
 20
40.021905381366231
 30
0.0
 42
-0.0046941107
 70
     1
  0
VERTEX
  5
2A45
  8
0
 10
101.7392522355068
 20
39.871635381366247
 30
0.0
 42
-0.0051301263
  0
VERTEX
  5
2A46
  8
0
 10
101.6932022355068
 20
39.729845381366232
 30
0.0
 42
-0.0056509027
 70
     1
  0
VERTEX
  5
2A47
  8
0
 10
101.6463622355068
 20
39.596335381366252
 30
0.0
 42
-0.006221517
  0
VERTEX
  5
2A48
  8
0
 10
101.5987722355067
 20
39.471585381366239
 30
0.0
 42
-0.0070320778
 70
     1
  0
VERTEX
  5
2A49
  8
0
 10
101.5504322355067
 20
39.355355381366238
 30
0.0
 42
-0.0080804582
  0
VERTEX
  5
2A4A
  8
0
 10
101.50133223550669
 20
39.248125381366243
 30
0.0
 42
-0.0089892346
 70
     1
  0
VERTEX
  5
2A4B
  8
0
 10
101.45186223550679
 20
39.149725381366238
 30
0.0
 42
-0.0095970112
  0
VERTEX
  5
2A4C
  8
0
 10
101.4021322355068
 20
39.060675381366238
 30
0.0
 42
-0.012192595
 70
     1
  0
VERTEX
  5
2A4D
  8
0
 10
101.35108223550669
 20
38.98048538136625
 30
0.0
 42
-0.017190144
  0
VERTEX
  5
2A4E
  8
0
 10
101.29833223550671
 20
38.909525381366237
 30
0.0
 42
-0.015819344
 70
     1
  0
VERTEX
  5
2A4F
  8
0
 10
101.2485222355067
 20
38.848285381366239
 30
0.0
 42
-0.0061028974
  0
VERTEX
  5
2A50
  8
0
 10
101.2032522355068
 20
38.79747538136624
 30
0.0
 42
-0.026967444
 70
     1
  0
VERTEX
  5
2A51
  8
0
 10
101.1446322355068
 20
38.753475381366229
 30
0.0
 42
-0.06524515
  0
VERTEX
  5
2A52
  8
0
 10
101.0538522355068
 20
38.71330538136624
 30
0.0
 42
-0.04146484
 70
     1
  0
VERTEX
  5
2A53
  8
0
 10
100.93466223550681
 20
38.677245381366241
 30
0.0
 42
-0.023981415
  0
SEQEND
  5
2A54
  8
0
  0
POLYLINE
  5
2A55
  8
0
 66
     1
 10
0.0
 20
0.0
 30
0.0
 70
     2
  0
VERTEX
  5
2A56
  8
0
 10
99.967452235506784
 20
38.677245381366241
 30
0.0
  0
VERTEX
  5
2A57
  8
0
 10
99.974602235506779
 20
38.803655381366241
 30
0.0
 42
-0.0058072524
 70
     1
  0
VERTEX
  5
2A58
  8
0
 10
99.984582235506764
 20
38.92902538136623
 30
0.0
 42
-0.0058652031
  0
VERTEX
  5
2A59
  8
0
 10
99.99752223550675
 20
39.053365381366248
 30
0.0
 42
-0.0059643403
 70
     1
  0
VERTEX
  5
2A5A
  8
0
 10
100.0133022355068
 20
39.176405381366237
 30
0.0
 42
-0.0061623543
  0
VERTEX
  5
2A5B
  8
0
 10
100.0320522355068
 20
39.297695381366232
 30
0.0
 42
-0.0063998882
 70
     1
  0
VERTEX
  5
2A5C
  8
0
 10
100.0536522355068
 20
39.41702538136623
 30
0.0
 42
-0.0066851027
  0
VERTEX
  5
2A5D
  8
0
 10
100.0782222355067
 20
39.534025381366241
 30
0.0
 42
-0.0069270468
 70
     1
  0
VERTEX
  5
2A5E
  8
0
 10
100.1056222355067
 20
39.64862538136623
 30
0.0
 42
-0.007105243
  0
VERTEX
  5
2A5F
  8
0
 10
100.13591223550679
 20
39.760575381366237
 30
0.0
 42
-0.0072624294
 70
     1
  0
VERTEX
  5
2A60
  8
0
 10
100.1688922355068
 20
39.869915381366262
 30
0.0
 42
-0.0073473361
  0
VERTEX
  5
2A61
  8
0
 10
100.2046022355068
 20
39.976485381366253
 30
0.0
 42
-0.007475968
 70
     1
  0
VERTEX
  5
2A62
  8
0
 10
100.24286223550681
 20
40.080315381366241
 30
0.0
 42
-0.0076054206
  0
VERTEX
  5
2A63
  8
0
 10
100.28370223550669
 20
40.181225381366232
 30
0.0
 42
-0.007775717
 70
     1
  0
VERTEX
  5
2A64
  8
0
 10
100.3269622355068
 20
40.279255381366227
 30
0.0
 42
-0.0079490619
  0
VERTEX
  5
2A65
  8
0
 10
100.3726422355068
 20
40.374195381366242
 30
0.0
 42
-0.0081046368
 70
     1
  0
VERTEX
  5
2A66
  8
0
 10
100.4205922355067
 20
40.466145381366232
 30
0.0
 42
-0.0081787933
  0
VERTEX
  5
2A67
  8
0
 10
100.4707722355067
 20
40.555005381366243
 30
0.0
 42
-0.0080705796
 70
     1
  0
VERTEX
  5
2A68
  8
0
 10
100.52291223550679
 20
40.641025381366227
 30
0.0
 42
-0.0076352528
  0
VERTEX
  5
2A69
  8
0
 10
100.5769222355068
 20
40.724245381366231
 30
0.0
 42
-0.0073010179
 70
     1
  0
VERTEX
  5
2A6A
  8
0
 10
100.6326222355067
 20
40.805035381366238
 30
0.0
 42
-0.0068913289
  0
VERTEX
  5
2A6B
  8
0
 10
100.68995223550679
 20
40.883495381366231
 30
0.0
 42
-0.0064259112
 70
     1
  0
VERTEX
  5
2A6C
  8
0
 10
100.7483422355068
 20
40.959485381366243
 30
0.0
 42
-0.0058555223
  0
VERTEX
  5
2A6D
  8
0
 10
100.80756223550679
 20
41.032955381366229
 30
0.0
 42
-0.0055073802
 70
     1
  0
VERTEX
  5
2A6E
  8
0
 10
100.8686822355068
 20
41.105675381366233
 30
0.0
 42
-0.0048502399
  0
VERTEX
  5
2A6F
  8
0
 10
100.9319922355068
 20
41.178275381366227
 30
0.0
 42
-0.0040762526
 70
     1
  0
VERTEX
  5
2A70
  8
0
 10
100.9921622355068
 20
41.245105381366237
 30
0.0
 42
-0.0042346797
  0
VERTEX
  5
2A71
  8
0
 10
101.0472022355068
 20
41.304395381366227
 30
0.0
 42
-0.0015964209
 70
     1
  0
VERTEX
  5
2A72
  8
0
 10
101.1166922355067
 20
41.380505381366227
 30
0.0
 42
0.004608975
  0
VERTEX
  5
2A73
  8
0
 10
101.2212922355067
 20
41.498845381366237
 30
0.0
 42
0.002736023
 70
     1
  0
VERTEX
  5
2A74
  8
0
 10
101.3568722355067
 20
41.654385381366239
 30
0.0
 42
0.0010626316
  0
SEQEND
  5
2A75
  8
0
  0
POLYLINE
  5
2A76
  8
0
 66
     1
 10
0.0
 20
0.0
 30
0.0
 70
     2
  0
VERTEX
  5
2A77
  8
0
 10
101.3568722355067
 20
41.654385381366239
 30
0.0
  0
VERTEX
  5
2A78
  8
0
 10
101.4099722355067
 20
41.687985381366239
 30
0.0
 42
-0.0006518126
 70
     1
  0
VERTEX
  5
2A79
  8
0
 10
101.4631222355067
 20
41.721425381366231
 30
0.0
 42
-0.0006595757
  0
VERTEX
  5
2A7A
  8
0
 10
101.51632223550671
 20
41.754695381366233
 30
0.0
 42
-0.0006537056
 70
     1
  0
VERTEX
  5
2A7B
  8
0
 10
101.5696122355068
 20
41.787845381366218
 30
0.0
 42
-0.0006290488
  0
VERTEX
  5
2A7C
  8
0
 10
101.6230422355067
 20
41.820875381366228
 30
0.0
 42
-0.0005900516
 70
     1
  0
VERTEX
  5
2A7D
  8
0
 10
101.6762822355067
 20
41.853645381366242
 30
0.0
 42
-0.0005381027
  0
VERTEX
  5
2A7E
  8
0
 10
101.7292422355067
 20
41.88607538136624
 30
0.0
 42
-0.0005609051
 70
     1
  0
VERTEX
  5
2A7F
  8
0
 10
101.7830822355068
 20
41.918865381366238
 30
0.0
 42
-0.0006184228
  0
VERTEX
  5
2A80
  8
0
 10
101.8382022355068
 20
41.952255381366243
 30
0.0
 42
-0.0004688781
 70
     1
  0
VERTEX
  5
2A81
  8
0
 10
101.8899622355068
 20
41.983525381366242
 30
0.0
 42
-0.0002019429
  0
VERTEX
  5
2A82
  8
0
 10
101.93677223550669
 20
42.011725381366233
 30
0.0
 42
-0.0005846317
 70
     1
  0
VERTEX
  5
2A83
  8
0
 10
101.9968722355067
 20
42.047665381366237
 30
0.0
 42
-0.000904386
  0
VERTEX
  5
2A84
  8
0
 10
102.0894022355067
 20
42.102645381366223
 30
0.0
 42
-0.000437456
 70
     1
  0
VERTEX
  5
2A85
  8
0
 10
102.2105622355068
 20
42.174445381366219
 30
0.0
 42
-0.0002379052
  0
SEQEND
  5
2A86
  8
0
  0
POLYLINE
  5
2A87
  8
3
 66
     1
 10
0.0
 20
0.0
 30
0.0
 70
     2
  0
VERTEX
  5
2A88
  8
3
 10
110.80756223550679
 20
38.677245381366241
 30
0.0
  0
VERTEX
  5
2A89
  8
3
 10
110.8698622355068
 20
38.678605381366239
 30
0.0
 42
0.010570947
 70
     1
  0
VERTEX
  5
2A8A
  8
3
 10
110.9321222355067
 20
38.682545381366232
 30
0.0
 42
0.010465331
  0
VERTEX
  5
2A8B
  8
3
 10
110.9943222355067
 20
38.689165381366251
 30
0.0
 42
0.010478897
 70
     1
  0
VERTEX
  5
2A8C
  8
3
 10
111.0565522355068
 20
38.698425381366228
 30
0.0
 42
0.010588638
  0
VERTEX
  5
2A8D
  8
3
 10
111.11880223550681
 20
38.710425381366242
 30
0.0
 42
0.010159366
 70
     1
  0
VERTEX
  5
2A8E
  8
3
 10
111.1807322355067
 20
38.72485538136624
 30
0.0
 42
0.0093541417
  0
VERTEX
  5
2A8F
  8
3
 10
111.24219223550681
 20
38.741725381366237
 30
0.0
 42
0.010155022
 70
     1
  0
VERTEX
  5
2A90
  8
3
 10
111.30451223550671
 20
38.761805381366251
 30
0.0
 42
0.011856934
  0
VERTEX
  5
2A91
  8
3
 10
111.3681122355067
 20
38.78547538136624
 30
0.0
 42
0.008771471
 70
     1
  0
VERTEX
  5
2A92
  8
3
 10
111.4277622355068
 20
38.809245381366232
 30
0.0
 42
0.0029485096
  0
VERTEX
  5
2A93
  8
3
 10
111.4816222355068
 20
38.832015381366247
 30
0.0
 42
0.012049047
 70
     1
  0
VERTEX
  5
2A94
  8
3
 10
111.5503322355067
 20
38.867145381366228
 30
0.0
 42
0.019726422
  0
VERTEX
  5
2A95
  8
3
 10
111.6555322355067
 20
38.928855381366233
 30
0.0
 42
0.0091574136
 70
     1
  0
VERTEX
  5
2A96
  8
3
 10
111.79292223550679
 20
39.014225381366231
 30
0.0
 42
0.0047244796
  0
SEQEND
  5
2A97
  8
3
  0
POLYLINE
  5
2A98
  8
3
 66
     1
 10
0.0
 20
0.0
 30
0.0
 70
     2
  0
VERTEX
  5
2A99
  8
3
 10
111.84122223550681
 20
37.577245381366232
 30
0.0
  0
VERTEX
  5
2A9A
  8
3
 10
111.9035222355068
 20
37.578765381366253
 30
0.0
 42
0.011898003
 70
     1
  0
VERTEX
  5
2A9B
  8
3
 10
111.96578223550669
 20
37.583205381366241
 30
0.0
 42
0.011768064
  0
VERTEX
  5
2A9C
  8
3
 10
112.0279922355068
 20
37.59066538136625
 30
0.0
 42
0.011760644
 70
     1
  0
VERTEX
  5
2A9D
  8
3
 10
112.0902122355068
 20
37.601085381366246
 30
0.0
 42
0.011850923
  0
VERTEX
  5
2A9E
  8
3
 10
112.1524622355068
 20
37.614595381366229
 30
0.0
 42
0.011327695
 70
     1
  0
VERTEX
  5
2A9F
  8
3
 10
112.21439223550669
 20
37.630835381366239
 30
0.0
 42
0.010386922
  0
VERTEX
  5
2AA0
  8
3
 10
112.2758522355068
 20
37.649825381366242
 30
0.0
 42
0.011221218
 70
     1
  0
VERTEX
  5
2AA1
  8
3
 10
112.3381722355068
 20
37.672425381366239
 30
0.0
 42
0.013020249
  0
VERTEX
  5
2AA2
  8
3
 10
112.4017722355068
 20
37.699085381366253
 30
0.0
 42
0.0095628373
 70
     1
  0
VERTEX
  5
2AA3
  8
3
 10
112.4614222355067
 20
37.725835381366238
 30
0.0
 42
0.0032018397
  0
VERTEX
  5
2AA4
  8
3
 10
112.5152822355067
 20
37.751475381366241
 30
0.0
 42
0.01303555
 70
     1
  0
VERTEX
  5
2AA5
  8
3
 10
112.5839922355067
 20
37.79101538136625
 30
0.0
 42
0.021050491
  0
VERTEX
  5
2AA6
  8
3
 10
112.68919223550679
 20
37.860485381366253
 30
0.0
 42
0.0096502178
 70
     1
  0
VERTEX
  5
2AA7
  8
3
 10
112.82658223550681
 20
37.956585381366239
 30
0.0
 42
0.0049501457
  0
SEQEND
  5
2AA8
  8
3
  0
ARC
  5
2AA9
  8
0
 10
101.3568722355067
 20
42.922245381366217
 30
0.0
 40
2.0
 50
90.0
 51
138.79280900000001
  0
LINE
  5
2AAA
  8
0
 10
121.5241322355067
 20
43.922245381366217
 30
0.0
 11
121.5241322355067
 21
32.172245381366231
 31
0.0
  0
POLYLINE
  5
2AAB
  8
0
 66
     1
 10
0.0
 20
0.0
 30
0.0
 70
     2
  0
VERTEX
  5
2AAC
  8
0
 10
117.73583223550671
 20
41.931645381366231
 30
0.0
  0
VERTEX
  5
2AAD
  8
0
 10
117.7116522355068
 20
41.826975381366239
 30
0.0
 42
0.002602834
 70
     1
  0
VERTEX
  5
2AAE
  8
0
 10
117.6883122355067
 20
41.72100538136624
 30
0.0
 42
0.0026054138
  0
VERTEX
  5
2AAF
  8
0
 10
117.6658522355068
 20
41.61369538136622
 30
0.0
 42
0.0024991121
 70
     1
  0
VERTEX
  5
2AB0
  8
0
 10
117.64419223550669
 20
41.50507538136624
 30
0.0
 42
0.0022793076
  0
VERTEX
  5
2AB1
  8
0
 10
117.6232722355068
 20
41.395145381366227
 30
0.0
 42
0.002009388
 70
     1
  0
VERTEX
  5
2AB2
  8
0
 10
117.60295223550681
 20
41.283995381366218
 30
0.0
 42
0.0016406486
  0
VERTEX
  5
2AB3
  8
0
 10
117.58312223550671
 20
41.171645381366233
 30
0.0
 42
0.0013601151
 70
     1
  0
VERTEX
  5
2AB4
  8
0
 10
117.5636622355067
 20
41.058215381366253
 30
0.0
 42
0.001102742
  0
VERTEX
  5
2AB5
  8
0
 10
117.54453223550679
 20
40.943685381366251
 30
0.0
 42
0.0011302879
 70
     1
  0
VERTEX
  5
2AB6
  8
0
 10
117.5258422355068
 20
40.828125381366227
 30
0.0
 42
0.0014458608
  0
VERTEX
  5
2AB7
  8
0
 10
117.5077422355068
 20
40.71150538136623
 30
0.0
 42
0.0016534919
 70
     1
  0
VERTEX
  5
2AB8
  8
0
 10
117.49031223550671
 20
40.593905381366241
 30
0.0
 42
0.0018174673
  0
VERTEX
  5
2AB9
  8
0
 10
117.4736322355068
 20
40.47530538136624
 30
0.0
 42
0.0017666056
 70
     1
  0
VERTEX
  5
2ABA
  8
0
 10
117.4576222355068
 20
40.355795381366228
 30
0.0
 42
0.001503555
  0
VERTEX
  5
2ABB
  8
0
 10
117.44218223550671
 20
40.235395381366232
 30
0.0
 42
0.001289438
 70
     1
  0
VERTEX
  5
2ABC
  8
0
 10
117.4272222355067
 20
40.114205381366233
 30
0.0
 42
0.0010747081
  0
VERTEX
  5
2ABD
  8
0
 10
117.4126622355068
 20
39.992245381366232
 30
0.0
 42
0.0008990312
 70
     1
  0
VERTEX
  5
2ABE
  8
0
 10
117.3984122355067
 20
39.86958538136625
 30
0.0
 42
0.0007206364
  0
VERTEX
  5
2ABF
  8
0
 10
117.3844522355068
 20
39.746265381366243
 30
0.0
 42
0.0007515136
 70
     1
  0
VERTEX
  5
2AC0
  8
0
 10
117.3708522355068
 20
39.62234538136623
 30
0.0
 42
0.0009975479
  0
VERTEX
  5
2AC1
  8
0
 10
117.3577622355068
 20
39.497825381366241
 30
0.0
 42
0.0012035257
 70
     1
  0
VERTEX
  5
2AC2
  8
0
 10
117.34526223550669
 20
39.372755381366247
 30
0.0
 42
0.0014258508
  0
VERTEX
  5
2AC3
  8
0
 10
117.3335022355068
 20
39.247155381366241
 30
0.0
 42
0.0016241767
 70
     1
  0
VERTEX
  5
2AC4
  8
0
 10
117.3225722355068
 20
39.121075381366239
 30
0.0
 42
0.0018531306
  0
VERTEX
  5
2AC5
  8
0
 10
117.31261223550671
 20
38.994535381366248
 30
0.0
 42
0.0019703242
 70
     1
  0
VERTEX
  5
2AC6
  8
0
 10
117.3036122355068
 20
38.867595381366229
 30
0.0
 42
0.0020114046
  0
VERTEX
  5
2AC7
  8
0
 10
117.29565223550679
 20
38.740295381366231
 30
0.0
 42
0.002049924
 70
     1
  0
VERTEX
  5
2AC8
  8
0
 10
117.2887222355068
 20
38.612695381366237
 30
0.0
 42
0.0020988617
  0
VERTEX
  5
2AC9
  8
0
 10
117.2829122355068
 20
38.484855381366252
 30
0.0
 42
0.0022000708
 70
     1
  0
VERTEX
  5
2ACA
  8
0
 10
117.2782422355068
 20
38.356825381366228
 30
0.0
 42
0.0023813466
  0
VERTEX
  5
2ACB
  8
0
 10
117.2748622355068
 20
38.228645381366242
 30
0.0
 42
0.0025397548
 70
     1
  0
VERTEX
  5
2ACC
  8
0
 10
117.27281223550671
 20
38.100365381366252
 30
0.0
 42
0.0027171763
  0
VERTEX
  5
2ACD
  8
0
 10
117.27223223550681
 20
37.972045381366229
 30
0.0
 42
0.0028824579
 70
     1
  0
VERTEX
  5
2ACE
  8
0
 10
117.2731622355068
 20
37.843745381366233
 30
0.0
 42
0.0030793908
  0
VERTEX
  5
2ACF
  8
0
 10
117.2757522355068
 20
37.715525381366227
 30
0.0
 42
0.0032678196
 70
     1
  0
VERTEX
  5
2AD0
  8
0
 10
117.2800522355068
 20
37.587475381366232
 30
0.0
 42
0.0034958468
  0
VERTEX
  5
2AD1
  8
0
 10
117.2862222355067
 20
37.459675381366239
 30
0.0
 42
0.0036836871
 70
     1
  0
VERTEX
  5
2AD2
  8
0
 10
117.2942922355068
 20
37.332195381366233
 30
0.0
 42
0.0038758214
  0
VERTEX
  5
2AD3
  8
0
 10
117.3043722355068
 20
37.205115381366262
 30
0.0
 42
0.003838156
 70
     1
  0
VERTEX
  5
2AD4
  8
0
 10
117.3162722355068
 20
37.07846538136625
 30
0.0
 42
0.003553042
  0
VERTEX
  5
2AD5
  8
0
 10
117.3299222355068
 20
36.952325381366236
 30
0.0
 42
0.003314325
 70
     1
  0
VERTEX
  5
2AD6
  8
0
 10
117.3451122355068
 20
36.826705381366239
 30
0.0
 42
0.0030551929
  0
VERTEX
  5
2AD7
  8
0
 10
117.3617622355068
 20
36.701695381366243
 30
0.0
 42
0.0028259887
 70
     1
  0
VERTEX
  5
2AD8
  8
0
 10
117.37968223550681
 20
36.577305381366237
 30
0.0
 42
0.0025614564
  0
VERTEX
  5
2AD9
  8
0
 10
117.3987722355068
 20
36.453605381366252
 30
0.0
 42
0.0023967757
 70
     1
  0
VERTEX
  5
2ADA
  8
0
 10
117.4189222355068
 20
36.33060538136624
 30
0.0
 42
0.00228291
  0
VERTEX
  5
2ADB
  8
0
 10
117.4400922355067
 20
36.208365381366249
 30
0.0
 42
0.002195158
 70
     1
  0
VERTEX
  5
2ADC
  8
0
 10
117.46220223550679
 20
36.086885381366237
 30
0.0
 42
0.0021042256
  0
VERTEX
  5
2ADD
  8
0
 10
117.4852222355068
 20
35.966235381366253
 30
0.0
 42
0.0021133287
 70
     1
  0
VERTEX
  5
2ADE
  8
0
 10
117.5091522355068
 20
35.846415381366263
 30
0.0
 42
0.0022197143
  0
VERTEX
  5
2ADF
  8
0
 10
117.53405223550671
 20
35.727525381366242
 30
0.0
 42
0.0023186731
 70
     1
  0
VERTEX
  5
2AE0
  8
0
 10
117.5599122355067
 20
35.609565381366252
 30
0.0
 42
0.0024267283
  0
VERTEX
  5
2AE1
  8
0
 10
117.58679223550681
 20
35.492635381366242
 30
0.0
 42
0.0025325201
 70
     1
  0
VERTEX
  5
2AE2
  8
0
 10
117.61468223550671
 20
35.376735381366252
 30
0.0
 42
0.0026526372
  0
VERTEX
  5
2AE3
  8
0
 10
117.64365223550681
 20
35.261955381366242
 30
0.0
 42
0.002748321
 70
     1
  0
VERTEX
  5
2AE4
  8
0
 10
117.6736722355068
 20
35.148305381366242
 30
0.0
 42
0.0028309753
  0
VERTEX
  5
2AE5
  8
0
 10
117.7047922355068
 20
35.03586538136625
 30
0.0
 42
0.00291064
 70
     1
  0
VERTEX
  5
2AE6
  8
0
 10
117.7369722355068
 20
34.924655381366243
 30
0.0
 42
0.002993285
  0
VERTEX
  5
2AE7
  8
0
 10
117.7702122355068
 20
34.81475538136624
 30
0.0
 42
0.0028204678
 70
     1
  0
VERTEX
  5
2AE8
  8
0
 10
117.80429223550679
 20
34.706075381366233
 30
0.0
 42
0.0023204791
  0
VERTEX
  5
2AE9
  8
0
 10
117.8390122355067
 20
34.59863538136625
 30
0.0
 42
0.0018662204
 70
     1
  0
VERTEX
  5
2AEA
  8
0
 10
117.8740722355068
 20
34.49237538136623
 30
0.0
 42
0.0013301934
  0
VERTEX
  5
2AEB
  8
0
 10
117.9092522355068
 20
34.38731538136625
 30
0.0
 42
0.0007510044
 70
     1
  0
VERTEX
  5
2AEC
  8
0
 10
117.9442522355067
 20
34.283285381366241
 30
0.0
 42
-0.0000344774
  0
VERTEX
  5
2AED
  8
0
 10
117.9787522355068
 20
34.180245381366241
 30
0.0
 42
-0.0006553287
 70
     1
  0
VERTEX
  5
2AEE
  8
0
 10
118.0123322355067
 20
34.078655381366247
 30
0.0
 42
-0.0012808316
  0
VERTEX
  5
2AEF
  8
0
 10
118.0446022355068
 20
33.97870538136624
 30
0.0
 42
-0.0022401932
 70
     1
  0
VERTEX
  5
2AF0
  8
0
 10
118.0757222355068
 20
33.878365381366251
 30
0.0
 42
-0.0036077849
  0
VERTEX
  5
2AF1
  8
0
 10
118.10550223550671
 20
33.776985381366252
 30
0.0
 42
-0.0032785856
 70
     1
  0
VERTEX
  5
2AF2
  8
0
 10
118.1322622355067
 20
33.682365381366253
 30
0.0
 42
-0.0018897047
  0
VERTEX
  5
2AF3
  8
0
 10
118.1554122355068
 20
33.597325381366232
 30
0.0
 42
-0.0039041452
 70
     1
  0
VERTEX
  5
2AF4
  8
0
 10
118.1820522355068
 20
33.491125381366231
 30
0.0
 42
-0.005150253
  0
VERTEX
  5
2AF5
  8
0
 10
118.21945223550679
 20
33.331625381366237
 30
0.0
 42
-0.0025433197
 70
     1
  0
VERTEX
  5
2AF6
  8
0
 10
118.2662222355068
 20
33.125175381366233
 30
0.0
 42
-0.0014952088
  0
SEQEND
  5
2AF7
  8
0
  0
POLYLINE
  5
2AF8
  8
0
 66
     1
 10
0.0
 20
0.0
 30
0.0
 70
     2
  0
VERTEX
  5
2AF9
  8
0
 10
118.2662222355068
 20
33.125175381366233
 30
0.0
  0
VERTEX
  5
2AFA
  8
0
 10
118.26377223550681
 20
33.112685381366248
 30
0.0
 42
-0.0003791598
 70
     1
  0
VERTEX
  5
2AFB
  8
0
 10
118.2613222355068
 20
33.100255381366239
 30
0.0
 42
-0.0003941908
  0
VERTEX
  5
2AFC
  8
0
 10
118.2588622355067
 20
33.087885381366249
 30
0.0
 42
-0.000387087
 70
     1
  0
VERTEX
  5
2AFD
  8
0
 10
118.25639223550679
 20
33.075575381366242
 30
0.0
 42
-0.000351752
  0
VERTEX
  5
2AFE
  8
0
 10
118.2539122355068
 20
33.063305381366241
 30
0.0
 42
-0.0003180187
 70
     1
  0
VERTEX
  5
2AFF
  8
0
 10
118.2514322355068
 20
33.051125381366226
 30
0.0
 42
-0.0002826099
  0
VERTEX
  5
2B00
  8
0
 10
118.2489722355068
 20
33.03906538136625
 30
0.0
 42
-0.000272473
 70
     1
  0
VERTEX
  5
2B01
  8
0
 10
118.2464622355068
 20
33.02686538136625
 30
0.0
 42
-0.000263316
  0
VERTEX
  5
2B02
  8
0
 10
118.24389223550681
 20
33.014425381366237
 30
0.0
 42
-0.0001993381
 70
     1
  0
VERTEX
  5
2B03
  8
0
 10
118.24148223550669
 20
33.002775381366241
 30
0.0
 42
-0.0001199
  0
VERTEX
  5
2B04
  8
0
 10
118.2392922355067
 20
32.992255381366242
 30
0.0
 42
-0.0001851416
 70
     1
  0
VERTEX
  5
2B05
  8
0
 10
118.2364922355068
 20
32.978805381366229
 30
0.0
 42
-0.0001869453
  0
VERTEX
  5
2B06
  8
0
 10
118.23217223550679
 20
32.95815538136624
 30
0.0
 42
-0.0000836359
 70
     1
  0
VERTEX
  5
2B07
  8
0
 10
118.2265122355068
 20
32.931155381366239
 30
0.0
 42
-0.00005164
  0
SEQEND
  5
2B08
  8
0
  0
ARC
  5
2B09
  8
0
 10
120.5241322355067
 20
32.172245381366231
 30
0.0
 40
1.0
 50
270.0
 51
0.0
  0
INSERT
  5
2B0A
  8
0
  2
BATU
 10
121.5241322355067
 20
38.047245381366231
 30
0.0
 41
0.001
 42
0.001
 43
0.001
 50
90.0
  0
POLYLINE
  5
2B0B
  8
0
 66
     1
 10
0.0
 20
0.0
 30
0.0
 70
     2
  0
VERTEX
  5
2B0C
  8
0
 10
117.7245422355068
 20
42.174445381366219
 30
0.0
  0
VERTEX
  5
2B0D
  8
0
 10
117.7252422355067
 20
42.159485381366238
 30
0.0
 42
0.0000435832
 70
     1
  0
VERTEX
  5
2B0E
  8
0
 10
117.7259522355068
 20
42.144505381366237
 30
0.0
 42
0.0000506257
  0
VERTEX
  5
2B0F
  8
0
 10
117.72666223550679
 20
42.12951538136624
 30
0.0
 42
0.0000435478
 70
     1
  0
VERTEX
  5
2B10
  8
0
 10
117.72737223550671
 20
42.114495381366218
 30
0.0
 42
0.0000204167
  0
VERTEX
  5
2B11
  8
0
 10
117.7280822355067
 20
42.099415381366249
 30
0.0
 42
0.0000062609
 70
     1
  0
VERTEX
  5
2B12
  8
0
 10
117.7287922355068
 20
42.084385381366253
 30
0.0
 42
-0.0000024741
  0
VERTEX
  5
2B13
  8
0
 10
117.7295022355068
 20
42.069405381366231
 30
0.0
 42
-0.0000234356
 70
     1
  0
VERTEX
  5
2B14
  8
0
 10
117.7302222355067
 20
42.054155381366243
 30
0.0
 42
-0.0000591796
  0
VERTEX
  5
2B15
  8
0
 10
117.73096223550679
 20
42.038505381366228
 30
0.0
 42
-0.000045621
 70
     1
  0
VERTEX
  5
2B16
  8
0
 10
117.7316522355068
 20
42.023785381366231
 30
0.0
 42
0.000009182
  0
VERTEX
  5
2B17
  8
0
 10
117.7322722355068
 20
42.010465381366238
 30
0.0
 42
-0.0001115377
 70
     1
  0
VERTEX
  5
2B18
  8
0
 10
117.73306223550669
 20
41.993265381366243
 30
0.0
 42
-0.0002533453
  0
VERTEX
  5
2B19
  8
0
 10
117.7342622355068
 20
41.966615381366253
 30
0.0
 42
-0.0001264711
 70
     1
  0
VERTEX
  5
2B1A
  8
0
 10
117.73583223550671
 20
41.931645381366231
 30
0.0
 42
-0.000063337
  0
SEQEND
  5
2B1B
  8
0
  0
ARC
  5
2B1C
  8
0
 10
120.5241322355067
 20
43.922245381366217
 30
0.0
 40
0.9999999899999998
 50
0.0
 51
90.0
  0
LINE
  5
2B1D
  8
3
 10
102.2105622355068
 20
84.423895381366236
 30
0.0
 11
117.72455223550681
 21
84.423895381366236
 31
0.0
  0
LINE
  5
2B74
  8
3
 10
108.8494422355068
 20
72.046111381366245
 30
0.0
 11
110.8075722355067
 21
77.425996381366232
 31
0.0
  0
ARC
  5
2B75
  8
3
 10
103.7741322355067
 20
71.172245381366224
 30
0.0
 40
5.1499968999999997
 50
128.39594199999999
 51
9.7693799999999165
  0
ARC
  5
2B76
  8
0
 10
103.7741322355067
 20
71.172245381366224
 30
0.0
 40
6.25
 50
137.593613
 51
3.4195000000000588
  0
ARC
  5
2B77
  8
0
 10
112.0094422355068
 20
71.66432538136624
 30
0.0
 40
2.0
 50
160.0
 51
183.419499
  0
LINE
  5
2B78
  8
0
 10
99.848812235506813
 20
77.601865381366238
 30
0.0
 11
99.656762235506804
 21
76.416156381366235
 31
0.0
  0
ARC
  5
2B79
  8
0
 10
97.682492235506771
 20
76.735918381366233
 30
0.0
 40
2.0
 50
317.59361000000001
 51
350.80000000000001
  0
LINE
  5
2B7A
  8
3
 10
110.8075722355067
 20
77.425996381366232
 30
0.0
 11
111.7929322355068
 21
79.830920381366241
 31
0.0
  0
LINE
  5
2B7B
  8
3
 10
102.2105622355068
 20
84.423895381366236
 30
0.0
 11
100.93466223550681
 21
77.425996381366232
 31
0.0
  0
LINE
  5
2B7C
  8
0
 10
100.5413222355067
 20
81.877563381366215
 30
0.0
 11
99.848812235506813
 21
77.601865381366238
 31
0.0
  0
LINE
  5
2B7D
  8
0
 10
112.82659223550669
 20
79.757027381366242
 30
0.0
 11
110.1300522355068
 21
72.348365381366236
 31
0.0
  0
LINE
  5
2B7E
  8
3
 10
100.93466223550681
 20
77.425996381366232
 30
0.0
 11
100.5755022355068
 21
75.208490381366232
 31
0.0
  0
ARC
  5
2B7F
  8
0
 10
98.564722235506764
 20
82.182994381366228
 30
0.0
 40
2.0
 50
350.80000000000001
 51
45.730369999999979
  0
ARC
  5
2B91
  8
0
 10
101.3568722355067
 20
85.047245381366224
 30
0.0
 40
2.0
 50
221.20717999999999
 51
225.73036999999999
  0
LINE
  5
2BAF
  8
0
 10
117.2736922355068
 20
83.047240381366237
 30
0.0
 11
120.5241322355067
 21
83.047240381366237
 31
0.0
  0
CIRCLE
  5
2CB5
  8
3
 10
60.64913282619051
 20
89.922239881366238
 30
0.0
 40
6.1925594997880751
  0
ARC
  5
2CB7
  8
0
 10
60.64913282619051
 20
89.922239881366238
 30
0.0
 40
6.8750000093162518
 50
126.8467911807971
 51
221.96686748880759
  0
POLYLINE
  5
2CB8
  8
3
 66
     1
 10
0.0
 20
0.0
 30
0.0000000000000045
  0
VERTEX
  5
2CB9
  8
3
 10
62.736302835506727
 20
97.73447638136625
 30
0.0000000000000045
  0
VERTEX
  5
2CBA
  8
3
 10
62.795822835506733
 20
97.682154381366246
 30
0.0000000000000045
 42
0.0016881087
  0
VERTEX
  5
2CBB
  8
3
 10
62.855682835506741
 20
97.630252381366233
 30
0.0000000000000045
 42
0.0017821178
  0
VERTEX
  5
2CBC
  8
3
 10
62.915912835506731
 20
97.578791381366244
 30
0.0000000000000045
 42
0.0016920602
  0
VERTEX
  5
2CBD
  8
3
 10
62.976412835506743
 20
97.527728381366245
 30
0.0000000000000045
 42
0.001397952
  0
VERTEX
  5
2CBE
  8
3
 10
63.037102835506751
 20
97.477049381366243
 30
0.0000000000000045
 42
0.0011865342
  0
VERTEX
  5
2CBF
  8
3
 10
63.097912835506747
 20
97.426721381366235
 30
0.0000000000000045
 42
0.0010017743
  0
VERTEX
  5
2CC0
  8
3
 10
63.158762835506728
 20
97.376739381366249
 30
0.0000000000000045
 42
0.0008122214
  0
VERTEX
  5
2CC1
  8
3
 10
63.219582835506742
 20
97.327050381366249
 30
0.0000000000000045
 42
0.0005668083
  0
VERTEX
  5
2CC2
  8
3
 10
63.280332835506726
 20
97.277608381366235
 30
0.0000000000000045
 42
0.0002707381
  0
VERTEX
  5
2CC3
  8
3
 10
63.340982835506729
 20
97.228266381366225
 30
0.0000000000000045
 42
-0.0001538097
  0
VERTEX
  5
2CC4
  8
3
 10
63.401522835506739
 20
97.178871381366235
 30
0.0000000000000045
 42
-0.0005244068
  0
VERTEX
  5
2CC5
  8
3
 10
63.461952835506743
 20
97.129280381366243
 30
0.0000000000000045
 42
-0.0009329438
  0
VERTEX
  5
2CC6
  8
3
 10
63.52225283550672
 20
97.079337381366244
 30
0.0000000000000045
 42
-0.001292995
  0
VERTEX
  5
2CC7
  8
3
 10
63.582402835506741
 20
97.028910381366245
 30
0.0000000000000045
 42
-0.0016950248
  0
VERTEX
  5
2CC8
  8
3
 10
63.642402835506751
 20
96.977827381366225
 30
0.0000000000000045
 42
-0.002039805
  0
VERTEX
  5
2CC9
  8
3
 10
63.702232835506749
 20
96.925971381366239
 30
0.0000000000000045
 42
-0.002417545
  0
VERTEX
  5
2CCA
  8
3
 10
63.761882835506718
 20
96.873157381366255
 30
0.0000000000000045
 42
-0.0027390842
  0
VERTEX
  5
2CCB
  8
3
 10
63.821342835506726
 20
96.819281381366238
 30
0.0000000000000045
 42
-0.003095468
  0
VERTEX
  5
2CCC
  8
3
 10
63.880592835506711
 20
96.76414838136624
 30
0.0000000000000045
 42
-0.00330318
  0
VERTEX
  5
2CCD
  8
3
 10
63.939722835506728
 20
96.707647381366243
 30
0.0000000000000045
 42
-0.0034269146
  0
VERTEX
  5
2CCE
  8
3
 10
63.998822835506729
 20
96.649556381366253
 30
0.0000000000000045
 42
-0.0034790874
  0
VERTEX
  5
2CCF
  8
3
 10
64.057942835506736
 20
96.589818381366229
 30
0.0000000000000045
 42
-0.0035105473
  0
VERTEX
  5
2CD0
  8
3
 10
64.117172835506722
 20
96.528215381366238
 30
0.0000000000000045
 42
-0.0035266608
  0
VERTEX
  5
2CD1
  8
3
 10
64.176712835506734
 20
96.464531381366243
 30
0.0000000000000045
 42
-0.0035448261
  0
VERTEX
  5
2CD2
  8
3
 10
64.236722835506725
 20
96.398484381366245
 30
0.0000000000000045
 42
-0.003361761
  0
VERTEX
  5
2CD3
  8
3
 10
64.296862835506744
 20
96.330586381366246
 30
0.0000000000000045
 42
-0.0030920644
  0
VERTEX
  5
2CD4
  8
3
 10
64.35711283550674
 20
96.260794381366239
 30
0.0000000000000045
 42
-0.003198292
  0
VERTEX
  5
2CD5
  8
3
 10
64.419292835506724
 20
96.186838381366243
 30
0.0000000000000045
 42
-0.0033724771
  0
VERTEX
  5
2CD6
  8
3
 10
64.484182835506743
 20
96.107675381366249
 30
0.0000000000000045
 42
-0.0024903303
  0
VERTEX
  5
2CD7
  8
3
 10
64.545332835506741
 20
96.031920381366234
 30
0.0000000000000045
 42
-0.0013971351
  0
VERTEX
  5
2CD8
  8
3
 10
64.600772835506703
 20
95.962237381366236
 30
0.0000000000000045
 42
-0.0027183281
  0
VERTEX
  5
2CD9
  8
3
 10
64.676812835506752
 20
95.864222381366233
 30
0.0000000000000045
 42
-0.002685867
  0
VERTEX
  5
2CDA
  8
3
 10
64.801172835506719
 20
95.701559381366252
 30
0.0000000000000045
 42
-0.0010619020999644
  0
VERTEX
  5
2CDB
  8
3
 10
64.968292835506162
 20
95.481575381366966
 30
0.0000000000000045
 42
-0.0005989447
  0
SEQEND
  5
2CDC
  8
3
  0
POLYLINE
  5
2E8F
  8
3
 66
     1
 10
0.0
 20
0.0
 30
0.0000000000000045
  0
VERTEX
  5
2E90
  8
3
 10
58.561962816874271
 20
82.110003381366226
 30
0.0000000000000045
  0
VERTEX
  5
2E91
  8
3
 10
58.502442816874279
 20
82.16232538136623
 30
0.0000000000000045
 42
0.0016881087
  0
VERTEX
  5
2E92
  8
3
 10
58.442582816874271
 20
82.214227381366243
 30
0.0000000000000045
 42
0.0017821178
  0
VERTEX
  5
2E93
  8
3
 10
58.382352816874281
 20
82.265688381366232
 30
0.0000000000000045
 42
0.0016920602
  0
VERTEX
  5
2E94
  8
3
 10
58.321852816874262
 20
82.316751381366231
 30
0.0000000000000045
 42
0.001397952
  0
VERTEX
  5
2E95
  8
3
 10
58.261162816874261
 20
82.367430381366233
 30
0.0000000000000045
 42
0.0011865342
  0
VERTEX
  5
2E96
  8
3
 10
58.200352816874258
 20
82.417758381366227
 30
0.0000000000000045
 42
0.0010017743
  0
VERTEX
  5
2E97
  8
3
 10
58.13950281687427
 20
82.467740381366227
 30
0.0000000000000045
 42
0.0008122214
  0
VERTEX
  5
2E98
  8
3
 10
58.078682816874263
 20
82.517429381366213
 30
0.0000000000000045
 42
0.0005668083
  0
VERTEX
  5
2E99
  8
3
 10
58.017932816874279
 20
82.566871381366255
 30
0.0000000000000045
 42
0.0002707381
  0
VERTEX
  5
2E9A
  8
3
 10
57.957282816874269
 20
82.616213381366236
 30
0.0000000000000045
 42
-0.0001538097
  0
VERTEX
  5
2E9B
  8
3
 10
57.896742816874259
 20
82.665608381366255
 30
0.0000000000000045
 42
-0.0005244068
  0
VERTEX
  5
2E9C
  8
3
 10
57.836312816874262
 20
82.715199381366233
 30
0.0000000000000045
 42
-0.0009329438
  0
VERTEX
  5
2E9D
  8
3
 10
57.776012816874278
 20
82.765142381366232
 30
0.0000000000000045
 42
-0.001292995
  0
VERTEX
  5
2E9E
  8
3
 10
57.715862816874257
 20
82.815569381366217
 30
0.0000000000000045
 42
-0.0016950248
  0
VERTEX
  5
2E9F
  8
3
 10
57.655862816874262
 20
82.866652381366237
 30
0.0000000000000045
 42
-0.002039805
  0
VERTEX
  5
2EA0
  8
3
 10
57.596032816874249
 20
82.918508381366223
 30
0.0000000000000045
 42
-0.002417545
  0
VERTEX
  5
2EA1
  8
3
 10
57.53638281687428
 20
82.971322381366235
 30
0.0000000000000045
 42
-0.0027390842
  0
VERTEX
  5
2EA2
  8
3
 10
57.476922816874271
 20
83.025198381366224
 30
0.0000000000000045
 42
-0.003095468
  0
VERTEX
  5
2EA3
  8
3
 10
57.417672816874287
 20
83.080331381366236
 30
0.0000000000000045
 42
-0.00330318
  0
VERTEX
  5
2EA4
  8
3
 10
57.358542816874269
 20
83.136832381366247
 30
0.0000000000000045
 42
-0.0034269146
  0
VERTEX
  5
2EA5
  8
3
 10
57.299442816874269
 20
83.194923381366237
 30
0.0000000000000045
 42
-0.0034790874
  0
VERTEX
  5
2EA6
  8
3
 10
57.240322816874269
 20
83.254661381366233
 30
0.0000000000000045
 42
-0.0035105473
  0
VERTEX
  5
2EA7
  8
3
 10
57.18109281687429
 20
83.316264381366224
 30
0.0000000000000045
 42
-0.0035266608
  0
VERTEX
  5
2EA8
  8
3
 10
57.121552816874257
 20
83.379948381366233
 30
0.0000000000000045
 42
-0.0035448261
  0
VERTEX
  5
2EA9
  8
3
 10
57.06154281687428
 20
83.445995381366231
 30
0.0000000000000045
 42
-0.003361761
  0
VERTEX
  5
2EAA
  8
3
 10
57.001402816874261
 20
83.513893381366231
 30
0.0000000000000045
 42
-0.0030920644
  0
VERTEX
  5
2EAB
  8
3
 10
56.941152816874272
 20
83.583685381366223
 30
0.0000000000000045
 42
-0.003198292
  0
VERTEX
  5
2EAC
  8
3
 10
56.878972816874281
 20
83.657641381366247
 30
0.0000000000000045
 42
-0.0033724771
  0
VERTEX
  5
2EAD
  8
3
 10
56.814082816874262
 20
83.736804381366227
 30
0.0000000000000045
 42
-0.0024903303
  0
VERTEX
  5
2EAE
  8
3
 10
56.752932816874271
 20
83.812559381366228
 30
0.0000000000000045
 42
-0.0013971351
  0
VERTEX
  5
2EAF
  8
3
 10
56.697492816874288
 20
83.88224238136624
 30
0.0000000000000045
 42
-0.0027183281
  0
VERTEX
  5
2EB0
  8
3
 10
56.62145281687426
 20
83.980257381366243
 30
0.0000000000000045
 42
-0.002685867
  0
VERTEX
  5
2EB1
  8
3
 10
56.497092816874279
 20
84.142920381366224
 30
0.0000000000000045
 42
-0.0010619020999644
  0
VERTEX
  5
2EB2
  8
3
 10
56.329972816874857
 20
84.362904381365496
 30
0.0000000000000045
 42
-0.0005989447
  0
SEQEND
  5
2EB3
  8
3
  0
ARC
  5
2EB4
  8
0
 10
49.021662816874269
 20
79.484692381366244
 30
0.0000000000000045
 40
8.75
 50
4.9999999999999822
 51
41.955355027382481
  0
POLYLINE
  5
2EB5
  8
3
 66
     1
 10
0.0
 20
0.0
 30
0.0000000000000045
 70
     2
  0
VERTEX
  5
2EB6
  8
3
 10
56.329972816874267
 20
84.362904381366235
 30
0.0000000000000045
  0
VERTEX
  5
2EB7
  8
3
 10
56.283012816874262
 20
84.424542381366223
 30
0.0000000000000045
 42
0.0012513287
 70
     1
  0
VERTEX
  5
2EB8
  8
3
 10
56.235672816874271
 20
84.486058381366234
 30
0.0000000000000045
 42
0.0012314183
  0
VERTEX
  5
2EB9
  8
3
 10
56.187942816874269
 20
84.547436381366239
 30
0.0000000000000045
 42
0.0012415823
 70
     1
  0
VERTEX
  5
2EBA
  8
3
 10
56.13977281687427
 20
84.60875238136623
 30
0.0000000000000045
 42
0.0012797586
  0
VERTEX
  5
2EBB
  8
3
 10
56.091122816874289
 20
84.670014381366229
 30
0.0000000000000045
 42
0.0012491303
 70
     1
  0
VERTEX
  5
2EBC
  8
3
 10
56.042312816874293
 20
84.730887381366244
 30
0.0000000000000045
 42
0.0011690268
  0
VERTEX
  5
2EBD
  8
3
 10
55.993422816874279
 20
84.791242381366231
 30
0.0000000000000045
 42
0.0013023533
 70
     1
  0
VERTEX
  5
2EBE
  8
3
 10
55.943322816874272
 20
84.852365381366226
 30
0.0000000000000045
 42
0.0015726651
  0
VERTEX
  5
2EBF
  8
3
 10
55.891622816874282
 20
84.914683381366231
 30
0.0000000000000045
 42
0.0011916114
 70
     1
  0
VERTEX
  5
2EC0
  8
3
 10
55.842862816874273
 20
84.973087381366241
 30
0.0000000000000045
 42
0.000388449
  0
VERTEX
  5
2EC1
  8
3
 10
55.798602816874272
 20
85.025798381366229
 30
0.0000000000000045
 42
0.0017149589
 70
     1
  0
VERTEX
  5
2EC2
  8
3
 10
55.740972816874283
 20
85.092953381366215
 30
0.0000000000000045
 42
0.0029980963
  0
VERTEX
  5
2EC3
  8
3
 10
55.65120281687426
 20
85.195659381366227
 30
0.0000000000000045
 42
0.0014670857
 70
     1
  0
VERTEX
  5
2EC4
  8
3
 10
55.533042816874271
 20
85.329726381366257
 30
0.0000000000000045
 42
0.000773843
  0
SEQEND
  5
2EC5
  8
3
  0
LINE
  5
2EC6
  8
0
 10
57.738362816874272
 20
80.247305381366232
 30
0.0000000000000045
 11
58.991462816874261
 21
65.924319381366232
 31
0.0000000000000045
  0
LINE
  5
2EC7
  8
0
 10
61.279132816874281
 20
77.425996381366232
 30
0.0000000000000045
 11
61.279132816874281
 21
66.022245381366233
 31
0.0000000000000045
  0
LINE
  5
2EC8
  8
3
 10
60.087102816874257
 20
64.922249381366242
 30
0.0000000000000045
 11
58.834182816874268
 21
80.519051381366225
 31
0.0000000000000045
  0
LINE
  5
2EC9
  8
3
 10
60.17914281687429
 20
77.601867381366233
 30
0.0000000000000045
 11
60.17914281687429
 21
64.922249381366242
 31
0.0000000000000045
  0
POLYLINE
  5
2ECA
  8
0
 66
     1
 10
0.0
 20
0.0
 30
0.0000000000000045
 70
     2
  0
VERTEX
  5
2ECB
  8
0
 10
60.17914281687429
 20
64.922249381366242
 30
0.0000000000000045
  0
VERTEX
  5
2ECC
  8
0
 10
60.24486281687426
 20
64.924146381366214
 30
0.0000000000000045
 42
0.016283622
 70
     1
  0
VERTEX
  5
2ECD
  8
0
 10
60.311532816874269
 20
64.930244381366236
 30
0.0000000000000045
 42
0.015331137
  0
VERTEX
  5
2ECE
  8
0
 10
60.379262816874252
 20
64.940685381366237
 30
0.0000000000000045
 42
0.015037198
 70
     1
  0
VERTEX
  5
2ECF
  8
0
 10
60.447592816874291
 20
64.955508381366215
 30
0.0000000000000045
 42
0.015814131
  0
VERTEX
  5
2ED0
  8
0
 10
60.516002816874263
 20
64.975141381366214
 30
0.0000000000000045
 42
0.016169241
 70
     1
  0
VERTEX
  5
2ED1
  8
0
 10
60.584042816874287
 20
64.999479381366228
 30
0.0000000000000045
 42
0.016375002
  0
VERTEX
  5
2ED2
  8
0
 10
60.651222816874288
 20
65.028758381366231
 30
0.0000000000000045
 42
0.016510716
 70
     1
  0
VERTEX
  5
2ED3
  8
0
 10
60.717082816874282
 20
65.062759381366234
 30
0.0000000000000045
 42
0.016804429
  0
VERTEX
  5
2ED4
  8
0
 10
60.78104281687429
 20
65.101608381366233
 30
0.0000000000000045
 42
0.016900675
 70
     1
  0
VERTEX
  5
2ED5
  8
0
 10
60.842682816874273
 20
65.144921381366231
 30
0.0000000000000045
 42
0.016966503
  0
VERTEX
  5
2ED6
  8
0
 10
60.901432816874276
 20
65.192656381366234
 30
0.0000000000000045
 42
0.017131112
 70
     1
  0
VERTEX
  5
2ED7
  8
0
 10
60.956952816874278
 20
65.244427381366236
 30
0.0000000000000045
 42
0.017449085
  0
VERTEX
  5
2ED8
  8
0
 10
61.008692816874273
 20
65.300081381366226
 30
0.0000000000000045
 42
0.017075911
 70
     1
  0
VERTEX
  5
2ED9
  8
0
 10
61.056452816874263
 20
65.358691381366242
 30
0.0000000000000045
 42
0.01614651
  0
VERTEX
  5
2EDA
  8
0
 10
61.099742816874269
 20
65.419813381366225
 30
0.0000000000000045
 42
0.017353658
 70
     1
  0
VERTEX
  5
2EDB
  8
0
 10
61.138622816874282
 20
65.484298381366244
 30
0.0000000000000045
 42
0.019901875
  0
VERTEX
  5
2EDC
  8
0
 10
61.172752816874251
 20
65.552233381366236
 30
0.0000000000000045
 42
0.015787139
 70
     1
  0
VERTEX
  5
2EDD
  8
0
 10
61.201902816874266
 20
65.617340381366233
 30
0.0000000000000045
 42
0.0071535527
  0
VERTEX
  5
2EDE
  8
0
 10
61.225722816874288
 20
65.67719238136624
 30
0.0000000000000045
 42
0.020430105
 70
     1
  0
VERTEX
  5
2EDF
  8
0
 10
61.245872816874268
 20
65.75378638136624
 30
0.0000000000000045
 42
0.034036619
  0
VERTEX
  5
2EE0
  8
0
 10
61.263712816874268
 20
65.870349381366239
 30
0.0000000000000045
 42
0.017611401
 70
     1
  0
VERTEX
  5
2EE1
  8
0
 10
61.279132816874281
 20
66.022242381366226
 30
0.0000000000000045
 42
0.0097085452
  0
SEQEND
  5
2EE2
  8
0
  0
LINE
  5
2EE3
  8
0
 10
60.087102816874257
 20
64.922249381366242
 30
0.0000000000000045
 11
60.17914281687429
 21
64.922249381366242
 31
0.0000000000000045
  0
POLYLINE
  5
2EE4
  8
0
 66
     1
 10
0.0
 20
0.0
 30
0.0000000000000045
 70
     2
  0
VERTEX
  5
2EE5
  8
0
 10
58.991232816874273
 20
65.926964381366233
 30
0.0000000000000045
  0
VERTEX
  5
2EE6
  8
0
 10
58.992012816874258
 20
65.917666381366246
 30
0.0000000000000045
 42
0.007248904
 70
     1
  0
VERTEX
  5
2EE7
  8
0
 10
58.993452816874267
 20
65.904256381366224
 30
0.0000000000000045
 42
0.0046442706
  0
VERTEX
  5
2EE8
  8
0
 10
58.995702816874271
 20
65.885728381366235
 30
0.0000000000000045
 42
0.0021259777
 70
     1
  0
VERTEX
  5
2EE9
  8
0
 10
58.997982816874249
 20
65.86797938136624
 30
0.0000000000000045
 42
0.0018608246
  0
VERTEX
  5
2EEA
  8
0
 10
58.999702816874262
 20
65.855920381366232
 30
0.0000000000000045
 42
0.0058899482
 70
     1
  0
VERTEX
  5
2EEB
  8
0
 10
59.001892816874282
 20
65.842895381366233
 30
0.0000000000000045
 42
0.004514358
  0
VERTEX
  5
2EEC
  8
0
 10
59.005622816874293
 20
65.822092381366247
 30
0.0000000000000045
 42
0.002172481
 70
     1
  0
VERTEX
  5
2EED
  8
0
 10
59.010232816874279
 20
65.798103381366232
 30
0.0000000000000045
 42
0.0046457992
  0
VERTEX
  5
2EEE
  8
0
 10
59.014992816874283
 20
65.77629338136623
 30
0.0000000000000045
 42
0.0069024224
 70
     1
  0
VERTEX
  5
2EEF
  8
0
 10
59.020022816874288
 20
65.755629381366234
 30
0.0000000000000045
 42
0.0049630758
  0
VERTEX
  5
2EF0
  8
0
 10
59.025612816874272
 20
65.734263381366233
 30
0.0000000000000045
 42
0.0038542901
 70
     1
  0
VERTEX
  5
2EF1
  8
0
 10
59.031672816874291
 20
65.712648381366236
 30
0.0000000000000045
 42
0.005089782
  0
VERTEX
  5
2EF2
  8
0
 10
59.038112816874261
 20
65.691527381366214
 30
0.0000000000000045
 42
0.005667186
 70
     1
  0
VERTEX
  5
2EF3
  8
0
 10
59.044942816874261
 20
65.670718381366228
 30
0.0000000000000045
 42
0.0050058678
  0
VERTEX
  5
2EF4
  8
0
 10
59.052212816874281
 20
65.649936381366246
 30
0.0000000000000045
 42
0.004688814
 70
     1
  0
VERTEX
  5
2EF5
  8
0
 10
59.059912816874267
 20
65.629214381366239
 30
0.0000000000000045
 42
0.0048942472
  0
VERTEX
  5
2EF6
  8
0
 10
59.068032816874272
 20
65.608647381366239
 30
0.0000000000000045
 42
0.0050091771
 70
     1
  0
VERTEX
  5
2EF7
  8
0
 10
59.076552816874269
 20
65.588252381366232
 30
0.0000000000000045
 42
0.0050173931
  0
VERTEX
  5
2EF8
  8
0
 10
59.085482816874261
 20
65.568044381366235
 30
0.0000000000000045
 42
0.0050246853
 70
     1
  0
VERTEX
  5
2EF9
  8
0
 10
59.094812816874303
 20
65.54802538136623
 30
0.0000000000000045
 42
0.0050327806
  0
VERTEX
  5
2EFA
  8
0
 10
59.104542816874279
 20
65.528212381366231
 30
0.0000000000000045
 42
0.0050309828
 70
     1
  0
VERTEX
  5
2EFB
  8
0
 10
59.114672816874283
 20
65.508601381366233
 30
0.0000000000000045
 42
0.0050136474
  0
VERTEX
  5
2EFC
  8
0
 10
59.125192816874268
 20
65.489203381366238
 30
0.0000000000000045
 42
0.0050006453
 70
     1
  0
VERTEX
  5
2EFD
  8
0
 10
59.136092816874267
 20
65.470012381366232
 30
0.0000000000000045
 42
0.0049896141
  0
VERTEX
  5
2EFE
  8
0
 10
59.14739281687428
 20
65.451045381366242
 30
0.0000000000000045
 42
0.0049808312
 70
     1
  0
VERTEX
  5
2EFF
  8
0
 10
59.159062816874282
 20
65.432298381366238
 30
0.0000000000000045
 42
0.0049751667
  0
VERTEX
  5
2F00
  8
0
 10
59.17111281687427
 20
65.413790381366226
 30
0.0000000000000045
 42
0.0049728934
 70
     1
  0
VERTEX
  5
2F01
  8
0
 10
59.183532816874262
 20
65.395521381366237
 30
0.0000000000000045
 42
0.0049739757
  0
VERTEX
  5
2F02
  8
0
 10
59.196312816874283
 20
65.377508381366226
 30
0.0000000000000045
 42
0.0049773784
 70
     1
  0
VERTEX
  5
2F03
  8
0
 10
59.209442816874272
 20
65.359751381366237
 30
0.0000000000000045
 42
0.004983968
  0
VERTEX
  5
2F04
  8
0
 10
59.222932816874263
 20
65.342267381366241
 30
0.0000000000000045
 42
0.0049888922
 70
     1
  0
VERTEX
  5
2F05
  8
0
 10
59.236772816874279
 20
65.325053381366246
 30
0.0000000000000045
 42
0.0049922344
  0
VERTEX
  5
2F06
  8
0
 10
59.250952816874261
 20
65.308127381366234
 30
0.0000000000000045
 42
0.0049971344
 70
     1
  0
VERTEX
  5
2F07
  8
0
 10
59.265462816874262
 20
65.291484381366232
 30
0.0000000000000045
 42
0.0050046761
  0
VERTEX
  5
2F08
  8
0
 10
59.280312816874279
 20
65.275143381366235
 30
0.0000000000000045
 42
0.0050122814
 70
     1
  0
VERTEX
  5
2F09
  8
0
 10
59.295482816874269
 20
65.259098381366243
 30
0.0000000000000045
 42
0.005021858
  0
VERTEX
  5
2F0A
  8
0
 10
59.310982816874272
 20
65.243369381366236
 30
0.0000000000000045
 42
0.0050198871
 70
     1
  0
VERTEX
  5
2F0B
  8
0
 10
59.326792816874288
 20
65.227948381366247
 30
0.0000000000000045
 42
0.0050062843
  0
VERTEX
  5
2F0C
  8
0
 10
59.342912816874261
 20
65.212854381366242
 30
0.0000000000000045
 42
0.0049962661
 70
     1
  0
VERTEX
  5
2F0D
  8
0
 10
59.359332816874272
 20
65.19807838136623
 30
0.0000000000000045
 42
0.004987471
  0
VERTEX
  5
2F0E
  8
0
 10
59.376052816874257
 20
65.183641381366243
 30
0.0000000000000045
 42
0.0049814641
 70
     1
  0
VERTEX
  5
2F0F
  8
0
 10
59.393042816874278
 20
65.169534381366233
 30
0.0000000000000045
 42
0.0049768899
  0
VERTEX
  5
2F10
  8
0
 10
59.410322816874277
 20
65.155776381366223
 30
0.0000000000000045
 42
0.004974773
 70
     1
  0
VERTEX
  5
2F11
  8
0
 10
59.427872816874277
 20
65.142359381366234
 30
0.0000000000000045
 42
0.0049747042
  0
VERTEX
  5
2F12
  8
0
 10
59.445692816874278
 20
65.129303381366242
 30
0.0000000000000045
 42
0.004976432
 70
     1
  0
VERTEX
  5
2F13
  8
0
 10
59.463762816874272
 20
65.116598381366231
 30
0.0000000000000045
 42
0.0049804764
  0
VERTEX
  5
2F14
  8
0
 10
59.482092816874271
 20
65.104265381366233
 30
0.0000000000000045
 42
0.0049864723
 70
     1
  0
VERTEX
  5
2F15
  8
0
 10
59.500662816874282
 20
65.092295381366213
 30
0.0000000000000045
 42
0.0049959851
  0
VERTEX
  5
2F16
  8
0
 10
59.519462816874281
 20
65.080708381366236
 30
0.0000000000000045
 42
0.0050043289
 70
     1
  0
VERTEX
  5
2F17
  8
0
 10
59.538502816874271
 20
65.069494381366241
 30
0.0000000000000045
 42
0.0050136503
  0
VERTEX
  5
2F18
  8
0
 10
59.557762816874273
 20
65.058674381366245
 30
0.0000000000000045
 42
0.0050136778
 70
     1
  0
VERTEX
  5
2F19
  8
0
 10
59.57723281687425
 20
65.048237381366235
 30
0.0000000000000045
 42
0.0050045119
  0
VERTEX
  5
2F1A
  8
0
 10
59.59691281687428
 20
65.038200381366224
 30
0.0000000000000045
 42
0.0049989392
 70
     1
  0
VERTEX
  5
2F1B
  8
0
 10
59.61679281687428
 20
65.028553381366237
 30
0.0000000000000045
 42
0.00499559
  0
VERTEX
  5
2F1C
  8
0
 10
59.636852816874253
 20
65.019315381366226
 30
0.0000000000000045
 42
0.0049955246
 70
     1
  0
VERTEX
  5
2F1D
  8
0
 10
59.65710281687425
 20
65.010475381366234
 30
0.0000000000000045
 42
0.0049986396
  0
VERTEX
  5
2F1E
  8
0
 10
59.67752281687428
 20
65.002051381366243
 30
0.0000000000000045
 42
0.0049985531
 70
     1
  0
VERTEX
  5
2F1F
  8
0
 10
59.698112816874279
 20
64.994031381366227
 30
0.0000000000000045
 42
0.0049955399
  0
VERTEX
  5
2F20
  8
0
 10
59.718852816874268
 20
64.986435381366235
 30
0.0000000000000045
 42
0.0049948868
 70
     1
  0
VERTEX
  5
2F21
  8
0
 10
59.739742816874291
 20
64.979248381366233
 30
0.0000000000000045
 42
0.004994753
  0
VERTEX
  5
2F22
  8
0
 10
59.760782816874247
 20
64.972489381366231
 30
0.0000000000000045
 42
0.0049775443
 70
     1
  0
VERTEX
  5
2F23
  8
0
 10
59.78193281687426
 20
64.966145381366232
 30
0.0000000000000045
 42
0.0049450828
  0
VERTEX
  5
2F24
  8
0
 10
59.803212816874279
 20
64.960234381366234
 30
0.0000000000000045
 42
0.004986825
 70
     1
  0
VERTEX
  5
2F25
  8
0
 10
59.824612816874271
 20
64.954742381366231
 30
0.0000000000000045
 42
0.0050882461
  0
VERTEX
  5
2F26
  8
0
 10
59.846162816874269
 20
64.949686381366234
 30
0.0000000000000045
 42
0.0049483076
 70
     1
  0
VERTEX
  5
2F27
  8
0
 10
59.86771281687426
 20
64.94505738136624
 30
0.0000000000000045
 42
0.0046285492
  0
VERTEX
  5
2F28
  8
0
 10
59.889222816874288
 20
64.940873381366231
 30
0.0000000000000045
 42
0.0051105707
 70
     1
  0
VERTEX
  5
2F29
  8
0
 10
59.911162816874267
 20
64.937109381366241
 30
0.0000000000000045
 42
0.0060937137
  0
VERTEX
  5
2F2A
  8
0
 10
59.933702816874252
 20
64.933783381366226
 30
0.0000000000000045
 42
0.0046485632
 70
     1
  0
VERTEX
  5
2F2B
  8
0
 10
59.954902816874252
 20
64.930919381366238
 30
0.0000000000000045
 42
0.0016598127
  0
VERTEX
  5
2F2C
  8
0
 10
59.974112816874261
 20
64.928549381366224
 30
0.0000000000000045
 42
0.006561833
 70
     1
  0
VERTEX
  5
2F2D
  8
0
 10
59.998852816874269
 20
64.926504381366243
 30
0.0000000000000045
 42
0.011171645
  0
VERTEX
  5
2F2E
  8
0
 10
60.037022816874277
 20
64.924637381366239
 30
0.0000000000000045
 42
0.0054607539
 70
     1
  0
VERTEX
  5
2F2F
  8
0
 10
60.087052816874277
 20
64.922964381366228
 30
0.0000000000000045
 42
0.0028987758
  0
SEQEND
  5
2F30
  8
0
  0
POLYLINE
  5
2F31
  8
3
 66
     1
 10
0.0
 20
0.0
 30
0.0000000000000045
 70
     2
  0
VERTEX
  5
2F32
  8
3
 10
58.834182816874268
 20
80.519051381366225
 30
0.0000000000000045
  0
VERTEX
  5
2F33
  8
3
 10
58.824852816874269
 20
80.619572381366225
 30
0.0000000000000045
 42
0.0025662017
 70
     1
  0
VERTEX
  5
2F34
  8
3
 10
58.814512816874291
 20
80.719974381366228
 30
0.0000000000000045
 42
0.0025477479
  0
VERTEX
  5
2F35
  8
3
 10
58.803122816874279
 20
80.820231381366227
 30
0.0000000000000045
 42
0.0025665396
 70
     1
  0
VERTEX
  5
2F36
  8
3
 10
58.790692816874277
 20
80.92047738136624
 30
0.0000000000000045
 42
0.0026145193
  0
VERTEX
  5
2F37
  8
3
 10
58.777182816874259
 20
81.020742381366233
 30
0.0000000000000045
 42
0.0025378348
 70
     1
  0
VERTEX
  5
2F38
  8
3
 10
58.762762816874279
 20
81.120476381366245
 30
0.0000000000000045
 42
0.0023678146
  0
VERTEX
  5
2F39
  8
3
 10
58.747442816874283
 20
81.219475381366223
 30
0.0000000000000045
 42
0.0026098828
 70
     1
  0
VERTEX
  5
2F3A
  8
3
 10
58.730732816874259
 20
81.319889381366238
 30
0.0000000000000045
 42
0.0031069283
  0
VERTEX
  5
2F3B
  8
3
 10
58.712412816874277
 20
81.422442381366238
 30
0.0000000000000045
 42
0.002358173
 70
     1
  0
VERTEX
  5
2F3C
  8
3
 10
58.694612816874283
 20
81.518631381366234
 30
0.0000000000000045
 42
0.0008116148
  0
VERTEX
  5
2F3D
  8
3
 10
58.678022816874282
 20
81.605514381366248
 30
0.0000000000000045
 42
0.0033208361
 70
     1
  0
VERTEX
  5
2F3E
  8
3
 10
58.654432816874262
 20
81.716620381366226
 30
0.0000000000000045
 42
0.0057118294
  0
VERTEX
  5
2F3F
  8
3
 10
58.615162816874268
 20
81.887112381366236
 30
0.0000000000000045
 42
0.0027924129
 70
     1
  0
VERTEX
  5
2F40
  8
3
 10
58.561962816874271
 20
82.110003381366226
 30
0.0000000000000045
 42
0.001479399
  0
SEQEND
  5
2F41
  8
3
  0
POLYLINE
  5
2F42
  8
3
 66
     1
 10
0.0
 20
0.0
 30
0.0000000000000045
 70
     2
  0
VERTEX
  5
2F43
  8
3
 10
61.152972816874282
 20
81.877561381366235
 30
0.0000000000000045
  0
VERTEX
  5
2F44
  8
3
 10
61.059962816874261
 20
81.676569381366235
 30
0.0000000000000045
 42
0.0053136752
 70
     1
  0
VERTEX
  5
2F45
  8
3
 10
60.971222816874288
 20
81.473791381366226
 30
0.0000000000000045
 42
0.005291294
  0
VERTEX
  5
2F46
  8
3
 10
60.886922816874282
 20
81.269146381366227
 30
0.0000000000000045
 42
0.005320836
 70
     1
  0
VERTEX
  5
2F47
  8
3
 10
60.806962816874268
 20
81.062772381366244
 30
0.0000000000000045
 42
0.0054183758
  0
VERTEX
  5
2F48
  8
3
 10
60.731652816874274
 20
80.854697381366236
 30
0.0000000000000045
 42
0.0054793841
 70
     1
  0
VERTEX
  5
2F49
  8
3
 10
60.660912816874273
 20
80.645143381366225
 30
0.0000000000000045
 42
0.0055224361
  0
VERTEX
  5
2F4A
  8
3
 10
60.59499281687426
 20
80.434148381366256
 30
0.0000000000000045
 42
0.0056090133
 70
     1
  0
VERTEX
  5
2F4B
  8
3
 10
60.533762816874273
 20
80.221557381366225
 30
0.0000000000000045
 42
0.0057331431
  0
VERTEX
  5
2F4C
  8
3
 10
60.477442816874273
 20
80.007313381366217
 30
0.0000000000000045
 42
0.005569621
 70
     1
  0
VERTEX
  5
2F4D
  8
3
 10
60.425872816874282
 20
79.792801381366232
 30
0.0000000000000045
 42
0.0051848946
  0
VERTEX
  5
2F4E
  8
3
 10
60.379272816874291
 20
79.578508381366234
 30
0.0000000000000045
 42
0.0057034169
 70
     1
  0
VERTEX
  5
2F4F
  8
3
 10
60.337342816874283
 20
79.359741381366234
 30
0.0000000000000045
 42
0.006786435
  0
VERTEX
  5
2F50
  8
3
 10
60.300272816874283
 20
79.134901381366234
 30
0.0000000000000045
 42
0.00515464
 70
     1
  0
VERTEX
  5
2F51
  8
3
 10
60.268292816874279
 20
78.923248381366236
 30
0.0000000000000045
 42
0.0017733862
  0
VERTEX
  5
2F52
  8
3
 10
60.241772816874267
 20
78.731446381366226
 30
0.0000000000000045
 42
0.0072543791
 70
     1
  0
VERTEX
  5
2F53
  8
3
 10
60.218832816874269
 20
78.48419138136623
 30
0.0000000000000045
 42
0.012520165
  0
VERTEX
  5
2F54
  8
3
 10
60.197902816874269
 20
78.102419381366232
 30
0.0000000000000045
 42
0.006127637
 70
     1
  0
VERTEX
  5
2F55
  8
3
 10
60.17914281687429
 20
77.601867381366233
 30
0.0000000000000045
 42
0.0032424916
  0
SEQEND
  5
2F56
  8
3
  0
ARC
  5
2F57
  8
0
 10
70.029132816874281
 20
77.425996381366232
 30
0.0000000000000045
 40
8.75
 50
126.8566566944444
 51
180.0
  0
POLYLINE
  5
2F58
  8
3
 66
     1
 10
0.0
 20
0.0
 30
0.0000000000000045
 70
     2
  0
VERTEX
  5
2F59
  8
3
 10
64.446591334173789
 20
84.191189889589509
 30
0.0000000000000045
  0
VERTEX
  5
2F5A
  8
3
 10
63.794282816874258
 20
83.621061381366246
 30
0.0000000000000045
 42
-0.0007125478
 70
     1
  0
VERTEX
  5
2F5B
  8
3
 10
63.68663281687428
 20
83.527457381366247
 30
0.0000000000000045
 42
-0.0005699763
  0
VERTEX
  5
2F5C
  8
3
 10
63.584582816874253
 20
83.439189381366234
 30
0.0000000000000045
 42
-0.0008545301
 70
     1
  0
VERTEX
  5
2F5D
  8
3
 10
63.486902816874263
 20
83.355548381366233
 30
0.0000000000000045
 42
-0.0016918219
  0
VERTEX
  5
2F5E
  8
3
 10
63.392592816874291
 20
83.276142381366228
 30
0.0000000000000045
 42
-0.0022829076
 70
     1
  0
VERTEX
  5
2F5F
  8
3
 10
63.300972816874278
 20
83.200522381366227
 30
0.0000000000000045
 42
-0.002686506
  0
VERTEX
  5
2F60
  8
3
 10
63.211712816874282
 20
83.128605381366228
 30
0.0000000000000045
 42
-0.0030725732
 70
     1
  0
VERTEX
  5
2F61
  8
3
 10
63.124262816874257
 20
83.059983381366223
 30
0.0000000000000045
 42
-0.0034550021
  0
VERTEX
  5
2F62
  8
3
 10
63.03827281687429
 20
82.99452738136624
 30
0.0000000000000045
 42
-0.0036726748
 70
     1
  0
VERTEX
  5
2F63
  8
3
 10
62.953492816874281
 20
82.931917381366233
 30
0.0000000000000045
 42
-0.0037108247
  0
VERTEX
  5
2F64
  8
3
 10
62.869802816874262
 20
82.872079381366234
 30
0.0000000000000045
 42
-0.0037697714
 70
     1
  0
VERTEX
  5
2F65
  8
3
 10
62.786992816874267
 20
82.814711381366223
 30
0.0000000000000045
 42
-0.0037989503
  0
VERTEX
  5
2F66
  8
3
 10
62.704872816874271
 20
82.759710381366219
 30
0.0000000000000045
 42
-0.0038198857
 70
     1
  0
VERTEX
  5
2F67
  8
3
 10
62.623252816874249
 20
82.706792381366213
 30
0.0000000000000045
 42
-0.0037876451
  0
VERTEX
  5
2F68
  8
3
 10
62.541952816874257
 20
82.655845381366234
 30
0.0000000000000045
 42
-0.0037172241
 70
     1
  0
VERTEX
  5
2F69
  8
3
 10
62.460772816874261
 20
82.606587381366239
 30
0.0000000000000045
 42
-0.0035545457
  0
VERTEX
  5
2F6A
  8
3
 10
62.379592816874279
 20
82.558874381366223
 30
0.0000000000000045
 42
-0.0032490873
 70
     1
  0
VERTEX
  5
2F6B
  8
3
 10
62.298402816874258
 20
82.512427381366237
 30
0.0000000000000045
 42
-0.0027145572
  0
VERTEX
  5
2F6C
  8
3
 10
62.217192816874288
 20
82.467057381366246
 30
0.0000000000000045
 42
-0.0022345189
 70
     1
  0
VERTEX
  5
2F6D
  8
3
 10
62.135822816874288
 20
82.422418381366242
 30
0.0000000000000045
 42
-0.00167129
  0
VERTEX
  5
2F6E
  8
3
 10
62.054222816874287
 20
82.378273381366228
 30
0.0000000000000045
 42
-0.0011922866
 70
     1
  0
VERTEX
  5
2F6F
  8
3
 10
61.972832816874252
 20
82.334632381366234
 30
0.0000000000000045
 42
-0.0007004694
  0
VERTEX
  5
2F70
  8
3
 10
61.891772816874273
 20
82.291352381366238
 30
0.0000000000000045
 42
-0.000089912
 70
     1
  0
VERTEX
  5
2F71
  8
3
 10
61.809242816874288
 20
82.247140381366236
 30
0.0000000000000045
 42
0.0007772288
  0
VERTEX
  5
2F72
  8
3
 10
61.724602816874253
 20
82.201408381366235
 30
0.0000000000000045
 42
0.0007106618
 70
     1
  0
VERTEX
  5
2F73
  8
3
 10
61.644992816874279
 20
82.158268381366241
 30
0.0000000000000045
 42
-0.0001142146
  0
VERTEX
  5
2F74
  8
3
 10
61.572902816874269
 20
82.119083381366224
 30
0.0000000000000045
 42
0.0016865078
 70
     1
  0
VERTEX
  5
2F75
  8
3
 10
61.480502816874242
 20
82.067337381366229
 30
0.0000000000000045
 42
0.0037941778
  0
VERTEX
  5
2F76
  8
3
 10
61.338592816874282
 20
81.985674381366238
 30
0.0000000000000045
 42
0.001897836
 70
     1
  0
VERTEX
  5
2F77
  8
3
 10
61.152972816874282
 20
81.877561381366235
 30
0.0000000000000045
 42
0.0009526613
  0
SEQEND
  5
2F78
  8
3
  0
ARC
  5
2F79
  8
0
 10
60.64913282619051
 20
89.922239881366238
 30
0.0
 40
6.8750000093162518
 50
306.84679118077651
 51
41.966867488807573
  0
LINE
  5
2F7A
  8
1
 10
70.524132835506776
 20
89.922239881366238
 30
0.0
 11
50.774132816874243
 21
89.922239881366238
 31
0.0
  0
LINE
  5
2F7B
  8
1
 10
60.64913282619051
 20
99.114799381154313
 30
0.0
 11
60.64913282619051
 21
80.729680381578149
 31
0.0
  0
LINE
  5
2F85
  8
3
 10
101.3568722355067
 20
95.009829381366217
 30
0.0
 11
101.3568722355067
 21
84.069572381366257
 31
0.0
  0
LINE
  5
2FB2
  8
0
 10
112.9276122355068
 20
80.012577381366242
 30
0.0
 11
113.1228922355067
 21
80.417796381366216
 31
0.0
  0
ARC
  5
2FB3
  8
0
 10
117.2907095357856
 20
78.189964944016197
 30
0.0
 40
4.7258791734183383
 50
146.36851238280391
 51
151.87407321835281
  0
ARC
  5
2FB4
  8
0
 10
117.8311897863958
 20
77.848673348034453
 30
0.0
 40
5.3649377679187547
 50
141.59554579486189
 51
146.53062337563179
  0
ARC
  5
2FB5
  8
0
 10
117.67071693707101
 20
77.899921967418109
 30
0.0
 40
5.2076881256833332
 50
135.7215881834552
 51
140.94061302008529
  0
ARC
  5
2FB6
  8
0
 10
117.0520906853866
 20
78.456497839990931
 30
0.0
 40
4.3763355814052538
 50
128.90372426318231
 51
135.28420772615931
  0
ARC
  5
2FB7
  8
0
 10
117.73679592574059
 20
77.926400022146709
 30
0.0
 40
5.2226913570967808
 50
125.9927148159769
 51
131.0976077725033
  0
ARC
  5
2FB8
  8
0
 10
121.1920788681677
 20
73.252684635333679
 30
0.0
 40
11.034873413122821
 50
124.02833675653029
 51
126.2470352506956
  0
ARC
  5
2FB9
  8
0
 10
117.12980079023021
 20
78.470237788561761
 30
0.0
 40
4.4599536851632466
 50
111.4896455600025
 51
118.2774904901304
  0
ARC
  5
2FBA
  8
0
 10
116.94639604694019
 20
78.97556787734564
 30
0.0
 40
3.9225916738452571
 50
100.0972070615544
 51
111.7009158895614
  0
ARC
  5
2FBB
  8
0
 10
118.7838498193544
 20
73.182642906121941
 30
0.0
 40
9.9795219964008588
 50
98.703757326231823
 51
104.6571169330692
  0
LINE
  5
2FBC
  8
3
 10
111.7929322355068
 20
79.830920381366241
 30
0.0
 11
111.8348022355068
 21
79.929962381366224
 31
0.0
  0
ARC
  5
2FBD
  8
3
 10
116.5363098991582
 20
77.885306532461982
 30
0.0
 40
5.1268695957505956
 50
155.2961146197247
 51
156.496083610791
  0
ARC
  5
2FBE
  8
3
 10
116.48665050544039
 20
77.904417831999865
 30
0.0
 40
5.0737690112820628
 50
154.04653316306161
 51
155.25781193634219
  0
ARC
  5
2FBF
  8
3
 10
116.5025814967471
 20
77.899873838047455
 30
0.0
 40
5.0900828151314403
 50
152.87264343121919
 51
154.0790226578593
  0
ARC
  5
2FC0
  8
3
 10
116.58279673489579
 20
77.857650006616964
 30
0.0
 40
5.1807268851298041
 50
151.6771892852108
 51
152.86154782184951
  0
ARC
  5
2FC1
  8
3
 10
116.6424378201864
 20
77.82850640908552
 30
0.0
 40
5.2470557645169391
 50
150.53729165230271
 51
151.7060308543667
  0
ARC
  5
2FC2
  8
3
 10
116.6952129691129
 20
77.797512489237718
 30
0.0
 40
5.30825049583368
 50
149.37152314026741
 51
150.5261974607472
  0
ARC
  5
2FC3
  8
3
 10
116.74811012259499
 20
77.769440004941245
 30
0.0
 40
5.3680707019268192
 50
148.25987986387659
 51
149.4013383964795
  0
ARC
  5
2FC4
  8
3
 10
116.8110829979305
 20
77.729323415602465
 30
0.0
 40
5.4427296548876294
 50
147.12397816599989
 51
148.2494696721532
  0
ARC
  5
2FC5
  8
3
 10
116.8686319639301
 20
77.695483835549851
 30
0.0
 40
5.5094316118308697
 50
146.0415676265562
 51
147.15329282037931
  0
ARC
  5
2FC6
  8
3
 10
116.9309825189429
 20
77.651585966373588
 30
0.0
 40
5.5856690377581204
 50
144.92885167618081
 51
146.0253369130611
  0
ARC
  5
2FC7
  8
3
 10
116.9890645004203
 20
77.614859452702333
 30
0.0
 40
5.6543093825939099
 50
143.87932399284139
 51
144.96244391627039
  0
ARC
  5
2FC8
  8
3
 10
117.052207469173
 20
77.566751752203629
 30
0.0
 40
5.7336739749022927
 50
142.7947505467485
 51
143.8629528112815
  0
ARC
  5
2FC9
  8
3
 10
117.11068966566739
 20
77.526491050502869
 30
0.0
 40
5.8045990127540561
 50
141.7721283187407
 51
142.82728385795909
  0
ARC
  5
2FCA
  8
3
 10
117.17359389175429
 20
77.475258060317955
 30
0.0
 40
5.8857164447245633
 50
140.71856395070441
 51
141.7592606063904
  0
ARC
  5
2FCB
  8
3
 10
117.2305836086534
 20
77.432373344672413
 30
0.0
 40
5.9569813766878124
 50
139.71800196270391
 51
140.74633368481449
  0
ARC
  5
2FCC
  8
3
 10
117.289777911364
 20
77.380261406760724
 30
0.0
 40
6.0358321856497819
 50
138.68894722962631
 51
139.70392794825011
  0
ARC
  5
2FCD
  8
3
 10
117.3477197574508
 20
77.333236439324423
 30
0.0
 40
6.110398511446145
 50
137.71375015673951
 51
138.7164017271358
  0
ARC
  5
2FCE
  8
3
 10
117.4130888433794
 20
77.272508943005789
 30
0.0
 40
6.1996177329541702
 50
136.71676241335251
 51
137.7050337936208
  0
ARC
  5
2FCF
  8
3
 10
117.5052832794682
 20
77.191745040847138
 30
0.0
 40
6.3221065368191809
 50
135.7874673990402
 51
136.75677484099219
  0
ARC
  5
2FD0
  8
3
 10
117.6466039743144
 20
77.054383065541202
 30
0.0
 40
6.5191848031821751
 50
134.84784377650601
 51
135.7882646088417
  0
ARC
  5
2FD1
  8
3
 10
117.7525215035315
 20
76.953449375178835
 30
0.0
 40
6.6654419770809223
 50
133.9612261689872
 51
134.8814755982491
  0
ARC
  5
2FD2
  8
3
 10
117.83777050760639
 20
76.863347583301788
 30
0.0
 40
6.7894756483727132
 50
133.04717717116441
 51
133.95124272422541
  0
ARC
  5
2FD3
  8
3
 10
117.9260389435842
 20
76.774457492372164
 30
0.0
 40
6.9146889300019403
 50
132.19058030361251
 51
133.07890839054821
  0
ARC
  5
2FD4
  8
3
 10
118.030573811707
 20
76.658176339345687
 30
0.0
 40
7.0710489028623931
 50
131.31593780418041
 51
132.18537155643321
  0
ARC
  5
2FD5
  8
3
 10
118.1286735901179
 20
76.552901839880491
 30
0.0
 40
7.2148862528697171
 50
130.49631936768469
 51
131.34911262076781
  0
ARC
  5
2FD6
  8
3
 10
118.23468971426691
 20
76.427479628918661
 30
0.0
 40
7.3791101154485599
 50
129.6552012396202
 51
130.4898796691333
  0
ARC
  5
2FD7
  8
3
 10
118.33609198789929
 20
76.311593055982584
 30
0.0
 40
7.5330436557355416
 50
128.86811353646229
 51
129.68649666235569
  0
ARC
  5
2FD8
  8
3
 10
118.4476309319267
 20
76.172302482020854
 30
0.0
 40
7.7114882900641577
 50
128.06360009280709
 51
128.8639111176432
  0
ARC
  5
2FD9
  8
3
 10
118.553614869261
 20
76.043587129804536
 30
0.0
 40
7.8781732974742313
 50
127.3091523366969
 51
128.09331918515161
  0
ARC
  5
2FDA
  8
3
 10
118.6691913236844
 20
75.890540297789542
 30
0.0
 40
8.0699558965339602
 50
126.5367990092892
 51
127.3032080591658
  0
ARC
  5
2FDB
  8
3
 10
118.77859476838471
 20
75.750466990373468
 30
0.0
 40
8.2476346160297371
 50
125.8175209094459
 51
126.5681421885473
  0
ARC
  5
2FDC
  8
3
 10
118.897305334086
 20
75.584953246461552
 30
0.0
 40
8.451317329355108
 50
125.0801254204365
 51
125.81346014817851
  0
ARC
  5
2FDD
  8
3
 10
119.01106377534811
 20
75.429985767234683
 30
0.0
 40
8.6435151831369144
 50
124.3890801713669
 51
125.1068458896404
  0
ARC
  5
2FDE
  8
3
 10
119.13626886373591
 20
75.247266664692305
 30
0.0
 40
8.8650159065388259
 50
123.6893728253749
 51
124.3898580728118
  0
ARC
  5
2FDF
  8
3
 10
119.2487897189835
 20
75.085247553726404
 30
0.0
 40
9.0622400277764772
 50
123.0272024151338
 51
123.7131034074249
  0
ARC
  5
2FE0
  8
3
 10
119.3653156421672
 20
74.905474899750686
 30
0.0
 40
9.2764745206890673
 50
122.35472852021461
 51
123.02543560701839
  0
ARC
  5
2FE1
  8
3
 10
119.4754215132667
 20
74.73874063220498
 30
0.0
 40
9.4762484234613868
 50
121.7203222313685
 51
122.3775992085158
  0
ARC
  5
2FE2
  8
3
 10
119.5967933838682
 20
74.542022609176627
 30
0.0
 40
9.7073957300653149
 50
121.0768264851155
 51
121.7192173592084
  0
ARC
  5
2FE3
  8
3
 10
119.73096537093799
 20
74.328864750106916
 30
0.0
 40
9.9592193346841782
 50
120.4780838233013
 51
121.1049345051987
  0
ARC
  5
2FE4
  8
3
 10
119.89947780714159
 20
74.04313103695489
 30
0.0
 40
10.290942273496629
 50
119.8723681813332
 51
120.4797613117634
  0
ARC
  5
2FE5
  8
3
 10
120.05621583400711
 20
73.77935085974633
 30
0.0
 40
10.5977432553486
 50
119.3063486400208
 51
119.89687254141739
  0
ARC
  5
2FE6
  8
3
 10
120.2273802647327
 20
73.476839480378572
 30
0.0
 40
10.94531920019425
 50
118.7401631611945
 51
119.3125516212654
  0
ARC
  5
2FE7
  8
3
 10
120.39190371409531
 20
73.186468977977043
 30
0.0
 40
11.27902888146401
 50
118.2075958280535
 51
118.76370548701119
  0
ARC
  5
2FE8
  8
3
 10
120.5783461995768
 20
72.840640239818612
 30
0.0
 40
11.671912626115571
 50
117.6737134737658
 51
118.2117128192382
  0
ARC
  5
2FE9
  8
3
 10
120.75575964873551
 20
72.513605828591835
 30
0.0
 40
12.043934815059609
 50
117.17668085904219
 51
117.69860364479339
  0
ARC
  5
2FEA
  8
3
 10
120.95628163051821
 20
72.125148173094175
 30
0.0
 40
12.48109327805486
 50
116.67691528955081
 51
117.1810982449596
  0
ARC
  5
2FEB
  8
3
 10
121.1471977823533
 20
71.755909058996053
 30
0.0
 40
12.896742184640081
 50
116.2098951841953
 51
116.6983304226259
  0
ARC
  5
2FEC
  8
3
 10
121.3644457094814
 20
71.317868427044431
 30
0.0
 40
13.385694374254401
 50
115.7450674024581
 51
116.21608278343849
  0
ARC
  5
2FED
  8
3
 10
121.5719896794635
 20
70.900851476585686
 30
0.0
 40
13.851468018658739
 50
115.3135146389824
 51
115.7690734465272
  0
ARC
  5
2FEE
  8
3
 10
121.8096345121759
 20
70.4016465896824
 30
0.0
 40
14.404350240891331
 50
114.8805963259374
 51
115.3190078094963
  0
ARC
  5
2FEF
  8
3
 10
122.03500127409271
 20
69.928212266519324
 30
0.0
 40
14.928662663203999
 50
114.4774519688799
 51
114.90079299682699
  0
ARC
  5
2FF0
  8
3
 10
122.2929818709993
 20
69.36544691337923
 30
0.0
 40
15.54773964394537
 50
114.076683948739
 51
114.4834255729117
  0
ARC
  5
2FF1
  8
3
 10
122.5367734440691
 20
68.835450809192253
 30
0.0
 40
16.131084440781581
 50
113.7070510429907
 51
114.09929211200151
  0
ARC
  5
2FF2
  8
3
 10
122.81886080831799
 20
68.199776310145197
 30
0.0
 40
16.826532745081519
 50
113.3400064161941
 51
113.7162560489173
  0
ARC
  5
2FF3
  8
3
 10
123.41017431291969
 20
66.866377299839286
 30
0.0
 40
18.285096093953818
 50
113.0395810751
 51
113.3859159452569
  0
ARC
  5
2FF4
  8
3
 10
124.6633683702476
 20
63.956702056878413
 30
0.0
 40
21.453143853732058
 50
112.78307761030101
 51
113.078258679738
  0
ARC
  5
2FF5
  8
3
 10
125.94193707144611
 20
60.960178881101228
 30
0.0
 40
24.710995023108939
 50
112.5697022583368
 51
112.8258057605475
  0
ARC
  5
2FF6
  8
3
 10
127.54258459354929
 20
57.157107271866458
 30
0.0
 40
28.837147663864581
 50
112.3870626986632
 51
112.6062873766807
  0
ARC
  5
2FF7
  8
3
 10
131.03971531237519
 20
48.783153012316703
 30
0.0
 40
37.911922834948577
 50
112.28724402930111
 51
112.45392429801051
  0
ARC
  5
2FF8
  8
3
 10
145.13324706917899
 20
14.57386922565982
 30
0.0
 40
74.910577907600455
 50
112.2540312485054
 51
112.33832587268451
  0
ARC
  5
2FF9
  8
3
 10
143.07365947629211
 20
19.454051320510171
 30
0.0
 40
69.613931773860671
 50
112.1159968671779
 51
112.2063067681102
  0
ARC
  5
2FFA
  8
3
 10
129.38181895189359
 20
53.194843203946178
 30
0.0
 40
33.200928260552118
 50
111.9595607825682
 51
112.1477308518128
  0
ARC
  5
2FFB
  8
3
 10
96.833372737528151
 20
132.5954767270637
 30
0.0
 40
52.612920000333538
 50
292.49858162259642
 51
292.617990370776
  0
ARC
  5
2FFC
  8
3
 10
114.3350249459621
 20
90.478210388850869
 30
0.0
 40
7.0041637206830289
 50
292.9622589919004
 51
293.86626610417562
  0
ARC
  5
2FFD
  8
3
 10
110.24340065089299
 20
100.7485189648242
 30
0.0
 40
18.0565050661613
 50
292.5536113036062
 51
292.88781693608178
  0
ARC
  5
2FFE
  8
3
 10
118.446199140394
 20
81.268817972047927
 30
0.0
 40
3.0798811164064279
 50
110.7122590547398
 51
112.5301555074152
  0
ARC
  5
2FFF
  8
3
 10
115.8000509059289
 20
87.186723487063546
 30
0.0
 40
3.4128750421907479
 50
297.14061898775242
 51
299.03276446162999
  0
ARC
  5
3000
  8
3
 10
116.9751244402936
 20
84.970912980463837
 30
0.0
 40
0.9064919831149069
 50
302.06413646478251
 51
311.84762126998942
  0
ARC
  5
3001
  8
3
 10
116.52495691353759
 20
85.631293755797614
 30
0.0
 40
1.7020105085074679
 50
308.3027838560198
 51
314.81425775734618
  0
LINE
  5
3002
  8
0
 10
112.8268922355068
 20
79.757862381366238
 30
0.0
 11
112.8291922355068
 21
79.764207381366234
 31
0.0
  0
ARC
  5
3003
  8
0
 10
114.6900930387919
 20
79.084529762508296
 30
0.0
 40
1.9811394360932051
 50
159.6926695936929
 51
159.93572438720889
  0
ARC
  5
3004
  8
0
 10
116.167295269945
 20
78.548332734957484
 30
0.0
 40
3.5526292088636229
 50
159.68519517086139
 51
159.8507522366175
  0
ARC
  5
3005
  8
0
 10
118.1889340202421
 20
77.797104136148604
 30
0.0
 40
5.7093311655546071
 50
159.54762331975809
 51
159.65877022488789
  0
ARC
  5
3006
  8
0
 10
118.3796895797643
 20
77.724626861766524
 30
0.0
 40
5.9133878312992421
 50
159.43015575320911
 51
159.53548230225289
  0
ARC
  5
3007
  8
0
 10
117.6922845542189
 20
77.987419512721971
 30
0.0
 40
5.1774786515976681
 50
159.3614752760333
 51
159.48016649790051
  0
ARC
  5
3008
  8
0
 10
117.7242506972113
 20
77.97176065577483
 30
0.0
 40
5.2129136880068412
 50
159.20535210436319
 51
159.32425078273309
  0
ARC
  5
3009
  8
0
 10
117.7836217979026
 20
77.948255368513884
 30
0.0
 40
5.2767622011979283
 50
159.0776310326695
 51
159.19562083979091
  0
ARC
  5
300A
  8
0
 10
117.46024353574219
 20
78.071799994076713
 30
0.0
 40
4.9305877249519723
 50
158.9508033010934
 51
159.07669531696911
  0
ARC
  5
300B
  8
0
 10
117.3072113481883
 20
78.132267452089565
 30
0.0
 40
4.7660491759531132
 50
158.83853026413311
 51
158.9684525784759
  0
ARC
  5
300C
  8
0
 10
117.3787093458058
 20
78.099869668038906
 30
0.0
 40
4.8444233531732106
 50
158.65870004512931
 51
158.78646120918839
  0
ARC
  5
300D
  8
0
 10
117.4175877799277
 20
78.089146314700969
 30
0.0
 40
4.8845401038503278
 50
158.5809145973503
 51
158.70750518607611
  0
ARC
  5
300E
  8
0
 10
117.409020489291
 20
78.092031362983306
 30
0.0
 40
4.8755109580724323
 50
158.44898518521899
 51
158.57571007521099
  0
ARC
  5
300F
  8
0
 10
117.4270447961639
 20
78.084032867311663
 30
0.0
 40
4.8952133532906101
 50
158.31331144790519
 51
158.43940546572011
  0
ARC
  5
3010
  8
0
 10
117.48331683069701
 20
78.060815898482815
 30
0.0
 40
4.9560818142320402
 50
158.17986377279331
 51
158.30430125552579
  0
ARC
  5
3011
  8
0
 10
117.4746381130805
 20
78.066135615203393
 30
0.0
 40
4.9460478702420341
 50
158.0749608927421
 51
158.19970463278469
  0
ARC
  5
3012
  8
0
 10
117.4184607618589
 20
78.087421389922014
 30
0.0
 40
4.8859858398313758
 50
157.93408513272311
 51
158.06053722613291
  0
ARC
  5
3013
  8
0
 10
117.55996082367351
 20
78.032369726740143
 30
0.0
 40
5.0378032227268443
 50
157.8362923200402
 51
157.95840664293209
  0
ARC
  5
3014
  8
0
 10
117.9057400440057
 20
77.889705653723482
 30
0.0
 40
5.4118536102467942
 50
157.70553207001649
 51
157.81854933812531
  0
ARC
  5
3015
  8
0
 10
117.5317071163396
 20
78.040833724551192
 30
0.0
 40
5.008448457658063
 50
157.55782093581601
 51
157.6819089602327
  0
ARC
  5
3016
  8
0
 10
116.87885224498611
 20
78.310440474788379
 30
0.0
 40
4.3021147681164527
 50
157.40948718352399
 51
157.55729118322259
  0
ARC
  5
3017
  8
0
 10
117.82834476840409
 20
77.922762046332224
 30
0.0
 40
5.3276844633261797
 50
157.3706287399815
 51
157.48269242320259
  0
ARC
  5
3018
  8
0
 10
126.0209958924149
 20
74.504540122954623
 30
0.0
 40
14.20483325329668
 50
157.3213729197314
 51
157.3593781954215
  0
ARC
  5
3019
  8
0
 10
116.92187752499029
 20
78.295980553426716
 30
0.0
 40
4.3474172530842248
 50
157.03059892510609
 51
157.18985091434971
  0
ARC
  5
301A
  8
0
 10
116.47301753198769
 20
78.487638417342481
 30
0.0
 40
3.8593536003620921
 50
156.77389831542339
 51
157.04988491600929
  0
ARC
  5
301B
  8
0
 10
122.3993515873575
 20
75.961463873763265
 30
0.0
 40
10.301628134275109
 50
156.72569280184089
 51
156.86105147543239
  0
LINE
  5
301C
  8
3
 10
117.72455223550681
 20
84.423895381366236
 30
0.0
 11
117.7252522355068
 21
84.412659381366225
 31
0.0
  0
ARC
  5
301D
  8
3
 10
142.7424702343661
 20
85.968934187562382
 30
0.0
 40
25.06557774468509
 50
183.55967726522309
 51
183.58535595006799
  0
ARC
  5
301E
  8
3
 10
141.5291429895739
 20
85.906672670774952
 30
0.0
 40
23.85073569612441
 50
183.61835416049539
 51
183.64527996817901
  0
ARC
  5
301F
  8
3
 10
142.41640492513719
 20
85.953869799509704
 30
0.0
 40
24.739205026949609
 50
183.6237185836836
 51
183.64964272364469
  0
ARC
  5
3020
  8
3
 10
146.4282850752198
 20
86.200262864885758
 30
0.0
 40
28.75863465200549
 50
183.63074831184861
 51
183.65301737072861
  0
ARC
  5
3021
  8
3
 10
150.57472011574339
 20
86.4973901172431
 30
0.0
 40
32.915592012107929
 50
183.7093070739102
 51
183.72862936503751
  0
ARC
  5
3022
  8
3
 10
155.5119636971252
 20
86.761208514533081
 30
0.0
 40
37.85958517466338
 50
183.64113561526369
 51
183.6577786640843
  0
ARC
  5
3023
  8
3
 10
160.90855439736319
 20
87.140860613585815
 30
0.0
 40
43.26941695152528
 50
183.703585210314
 51
183.71831563435009
  0
ARC
  5
3024
  8
3
 10
171.76841282383339
 20
87.867892313733279
 30
0.0
 40
54.153567822023518
 50
183.7407724538138
 51
183.752753734685
  0
ARC
  5
3025
  8
3
 10
185.0258442263567
 20
88.704890922941345
 30
0.0
 40
67.437362663219588
 50
183.72513325842729
 51
183.73414551784711
  0
ARC
  5
3026
  8
3
 10
188.99587003956029
 20
88.936620383708387
 30
0.0
 40
71.414057115010422
 50
183.71222785659299
 51
183.719902786684
  0
ARC
  5
3027
  8
3
 10
286.70058907792952
 20
95.315424979172477
 30
0.0
 40
169.3267783355156
 50
183.7288310650649
 51
183.7329391724555
  0
ARC
  5
3028
  8
3
 10
-100.3551135723808
 20
70.106589339119395
 30
0.0
 40
218.54897995398011
 50
3.7164761145761429
 51
3.721326408576008
  0
ARC
  5
3029
  8
3
 10
-315.8190874829657
 20
55.969805416191917
 30
0.0
 40
434.47619624595291
 50
3.7318691722571571
 51
3.7350487900818758
  0
LINE
  5
302A
  8
3
 10
117.73583223550671
 20
84.248714381366256
 30
0.0
 11
117.7161922355068
 21
84.191682381366235
 31
0.0
  0
ARC
  5
302B
  8
3
 10
140.73386323157271
 20
76.302258613839172
 30
0.0
 40
24.332204698028409
 50
161.0805881822026
 51
161.2197194835841
  0
ARC
  5
302C
  8
3
 10
137.97673466719201
 20
77.240330504618456
 30
0.0
 40
21.41986259768554
 50
161.22105545278239
 51
161.37572279632809
  0
ARC
  5
302D
  8
3
 10
137.86345593883431
 20
77.275174365639174
 30
0.0
 40
21.301388384900768
 50
161.36722960261741
 51
161.5192795156988
  0
ARC
  5
302E
  8
3
 10
141.20380313406321
 20
76.148517271649297
 30
0.0
 40
24.826611020152569
 50
161.49686104454631
 51
161.62403494996551
  0
ARC
  5
302F
  8
3
 10
152.50951280634189
 20
72.345647203458995
 30
0.0
 40
36.754709572625153
 50
161.55416718269259
 51
161.6379581770376
  0
ARC
  5
3030
  8
3
 10
627.17922484958262
 20
-85.886089586410364
 30
0.0
 40
537.10317775506303
 50
161.56918014733279
 51
161.57476511073551
  0
ARC
  5
3031
  8
3
 10
76.031674363437673
 20
97.789673974668133
 30
0.0
 40
43.84471432522475
 50
341.4290809537174
 51
341.49575077924442
  0
ARC
  5
3032
  8
3
 10
99.768293331276112
 20
89.8460255887111
 30
0.0
 40
18.814201111605421
 50
341.1879017880965
 51
341.33902348703742
  0
ARC
  5
3033
  8
3
 10
105.7380629926561
 20
87.824940136385024
 30
0.0
 40
12.511604629171581
 50
340.9122082147581
 51
341.1332980749425
  0
ARC
  5
3034
  8
3
 10
108.8135378667035
 20
86.771532232016696
 30
0.0
 40
9.2607474780539771
 50
340.55883152931648
 51
340.84884702595741
  0
ARC
  5
3035
  8
3
 10
109.1266592069487
 20
86.653616768365708
 30
0.0
 40
8.9262350283601108
 50
340.31153618521978
 51
340.60359271466382
  0
ARC
  5
3036
  8
3
 10
106.3794555728048
 20
87.62072629568091
 30
0.0
 40
11.83866691590611
 50
340.1709116208778
 51
340.38402442602262
  0
ARC
  5
3037
  8
3
 10
101.21988766763199
 20
89.455065257797372
 30
0.0
 40
17.31457101584477
 50
340.11146536029389
 51
340.25240535124942
  0
ARC
  5
3038
  8
3
 10
75.173068392938688
 20
98.820047595695144
 30
0.0
 40
44.993778847145833
 50
340.12855652001588
 51
340.18084627469233
  0
ARC
  5
3039
  8
3
 10
51.096162341472962
 20
107.56419732920141
 30
0.0
 40
70.609332038822302
 50
340.06437462663558
 51
340.09650380774491
  0
ARC
  5
303A
  8
3
 10
93.377543018748156
 20
92.248677763163897
 30
0.0
 40
25.639571856468269
 50
339.93758366570569
 51
340.0226368629838
  0
ARC
  5
303B
  8
3
 10
104.4339993764536
 20
88.231635305948885
 30
0.0
 40
13.876020083596821
 50
339.70567984714251
 51
339.8568158471038
  0
ARC
  5
303C
  8
3
 10
109.83588645308321
 20
86.251729478048247
 30
0.0
 40
8.1227653482482278
 50
339.34101572262398
 51
339.58855182018692
  0
ARC
  5
303D
  8
3
 10
112.1949804258759
 20
85.370786840593325
 30
0.0
 40
5.6045732532796162
 50
338.915208782219
 51
339.2591785337986
  0
ARC
  5
303E
  8
3
 10
113.6741033683892
 20
84.810894366040813
 30
0.0
 40
4.0230698482315921
 50
338.31902157932592
 51
338.77697664727998
  0
ARC
  5
303F
  8
3
 10
114.5916088308546
 20
84.453175982001
 30
0.0
 40
3.0383252573036308
 50
337.61593193878451
 51
338.19550476294359
  0
ARC
  5
3040
  8
3
 10
115.2699994053946
 20
84.179837988113292
 30
0.0
 40
2.3069661364489411
 50
336.750164957587
 51
337.47690922494883
  0
ARC
  5
3041
  8
3
 10
115.5482343439816
 20
84.060125443087657
 30
0.0
 40
2.004070535698721
 50
335.95914874627999
 51
336.75474427103381
  0
ARC
  5
3042
  8
3
 10
115.5709750577504
 20
84.050003255072966
 30
0.0
 40
1.9791788033005391
 50
335.1967725628823
 51
335.95856541186993
  0
ARC
  5
3043
  8
3
 10
115.62180105632579
 20
84.025284626767359
 30
0.0
 40
1.9226720876839021
 50
334.49000962275818
 51
335.23005210436179
  0
ARC
  5
3044
  8
3
 10
115.6269758970686
 20
84.02142903107638
 30
0.0
 40
1.916341665989711
 50
333.83203184094219
 51
334.52741487777269
  0
ARC
  5
3045
  8
3
 10
115.66743855551439
 20
84.000156841276066
 30
0.0
 40
1.8706455172382881
 50
333.2048928520785
 51
333.87024741264548
  0
ARC
  5
3046
  8
3
 10
115.65524861801531
 20
84.004956201500278
 30
0.0
 40
1.883690499199258
 50
332.63069778673099
 51
333.2417340779362
  0
ARC
  5
3047
  8
3
 10
115.6720739390576
 20
83.993643566255017
 30
0.0
 40
1.86354931680631
 50
332.13336122335181
 51
332.70176036343418
  0
ARC
  5
3048
  8
3
 10
115.590747623653
 20
84.036097681217299
 30
0.0
 40
1.9552886210086611
 50
331.65536045482861
 51
332.14748829767649
  0
ARC
  5
3049
  8
3
 10
115.85574325611491
 20
83.895429441469219
 30
0.0
 40
1.655279509007469
 50
331.06066688066488
 51
331.58579170455988
  0
ARC
  5
304A
  8
3
 10
116.3233894641794
 20
83.639916472914223
 30
0.0
 40
1.122391835363185
 50
330.23596174311717
 51
330.92393691566531
  0
ARC
  5
304B
  8
3
 10
116.4802689376269
 20
83.548663497568143
 30
0.0
 40
0.9409086447465066
 50
329.59960654087052
 51
330.3172599605175
  0
ARC
  5
304C
  8
3
 10
116.2525297945535
 20
83.683126266294408
 30
0.0
 40
1.205379696007862
 50
329.09059957297512
 51
329.56488510812159
  0
ARC
  5
304D
  8
3
 10
116.9388983298315
 20
83.284702146399866
 30
0.0
 40
0.4119653628423274
 50
326.42494038779961
 51
327.5974163001963
  0
ARC
  5
304E
  8
3
 10
117.1940772327557
 20
83.121560545689476
 30
0.0
 40
0.1092616709448943
 50
319.99649776949678
 51
323.69816823132788
  0
ARC
  5
304F
  8
3
 10
117.23718343672439
 20
83.087802356269776
 30
0.0
 40
0.0545725773315169
 50
311.98957032680198
 51
318.05254343822219
  0
LINE
  5
3050
  8
0
 10
120.5241322355067
 20
83.047240381366237
 30
0.0
 11
120.5838722355068
 21
83.048966381366228
 31
0.0
  0
ARC
  5
3051
  8
0
 10
120.52907070020851
 20
83.982209804678746
 30
0.0
 40
0.9348510552099263
 50
273.36063992559127
 51
277.09212935194802
  0
ARC
  5
3052
  8
0
 10
120.5205257687705
 20
84.063055085427976
 30
0.0
 40
1.0161338926921171
 50
277.00743621987988
 51
280.5206896878999
  0
ARC
  5
3053
  8
0
 10
120.513104809754
 20
84.103313112928504
 30
0.0
 40
1.057070142551177
 50
280.51773399436451
 51
283.9636375918414
  0
ARC
  5
3054
  8
0
 10
120.5171704079054
 20
84.069329617123742
 30
0.0
 40
1.0231186852308669
 50
284.2019211643215
 51
287.82583705354023
  0
ARC
  5
3055
  8
0
 10
120.519275866212
 20
84.062463143857386
 30
0.0
 40
1.0159373334702619
 50
287.83134242816772
 51
291.5366213524901
  0
ARC
  5
3056
  8
0
 10
120.5164772105491
 20
84.063061673589516
 30
0.0
 40
1.017524242302202
 50
291.67083649832432
 51
295.42326103341139
  0
ARC
  5
3057
  8
0
 10
120.51530698744379
 20
84.065840031167994
 30
0.0
 40
1.0205359346992611
 50
295.4156338022317
 51
299.19915970377468
  0
ARC
  5
3058
  8
0
 10
120.5169552663623
 20
84.057520441385563
 30
0.0
 40
1.0124728034378381
 50
299.34741731057687
 51
303.19824822404718
  0
ARC
  5
3059
  8
0
 10
120.51703259706601
 20
84.058734594547204
 30
0.0
 40
1.013446704886819
 50
303.1570053340609
 51
307.0298925256966
  0
ARC
  5
305A
  8
0
 10
120.5148090047178
 20
84.05801310971313
 30
0.0
 40
1.014212252736856
 50
307.15472170427421
 51
311.04268986289719
  0
ARC
  5
305B
  8
0
 10
120.5193524179825
 20
84.05292722292495
 30
0.0
 40
1.0073930748466651
 50
311.03772835963309
 51
314.96344186190402
  0
ARC
  5
305C
  8
0
 10
120.5300957785681
 20
84.039335874487165
 30
0.0
 40
0.9901865812235136
 50
315.07933419909131
 51
319.077954495028
  0
ARC
  5
305D
  8
0
 10
120.5201447133195
 20
84.052727983073538
 30
0.0
 40
1.0064843164342021
 50
318.8729705817197
 51
322.78612852197011
  0
ARC
  5
305E
  8
0
 10
120.4812691945675
 20
84.08104864457367
 30
0.0
 40
1.054572681346267
 50
322.83814985379593
 51
326.53839333535058
  0
ARC
  5
305F
  8
0
 10
120.53445604965439
 20
84.037845142168592
 30
0.0
 40
0.9864026597629148
 50
326.92853939343388
 51
330.9053679942607
  0
ARC
  5
3060
  8
0
 10
120.63641141008441
 20
83.978586707217715
 30
0.0
 40
0.8685004292823911
 50
331.05082889329742
 51
335.6114487097542
  0
ARC
  5
3061
  8
0
 10
120.5036202689664
 20
84.069095330161858
 30
0.0
 40
1.027186012790972
 50
334.07176698230342
 51
337.68963669684769
  0
ARC
  5
3062
  8
0
 10
119.56327662125599
 20
84.463281317348489
 30
0.0
 40
2.0467932925375729
 50
337.4740597042495
 51
339.11351361703578
  0
ARC
  5
3063
  8
0
 10
120.6330270568499
 20
83.992463540110293
 30
0.0
 40
0.8814259301130039
 50
342.9186751901504
 51
347.6002746591152
  0
ARC
  5
3064
  8
0
 10
120.72456401617841
 20
83.97517702168679
 30
0.0
 40
0.7883171554816079
 50
347.3987651484336
 51
355.1963559966091
  0
ARC
  5
3065
  8
0
 10
119.5575178971657
 20
84.177022473298734
 30
0.0
 40
1.9708814472138201
 50
352.18882652670999
 51
356.22461623577192
  0
LINE
  5
3076
  8
3
 10
108.8494422355068
 20
107.8942513813662
 30
0.0
 11
108.8805522355068
 21
108.1002463813662
 31
0.0
  0
ARC
  5
3077
  8
3
 10
103.73806397829
 20
108.77409768134901
 30
0.0
 40
5.1864497539358423
 50
352.53472139366892
 51
354.83348871359732
  0
ARC
  5
3078
  8
3
 10
103.75725266452871
 20
108.7666872841946
 30
0.0
 40
5.1666748094437382
 50
354.89617028142601
 51
357.20524017475049
  0
ARC
  5
3079
  8
3
 10
103.74375336124299
 20
108.77104770812829
 30
0.0
 40
5.180371983269163
 50
357.16435036933672
 51
359.4682380405327
  0
ARC
  5
307A
  8
3
 10
103.7329550851418
 20
108.76602930824581
 30
0.0
 40
5.1911257425711899
 50
359.52473114852933
 51
1.823420324876498
  0
ARC
  5
307B
  8
3
 10
103.7420822573639
 20
108.76868848833939
 30
0.0
 40
5.1819191195037488
 50
1.7972441560788761
 51
4.0996111216872402
  0
ARC
  5
307C
  8
3
 10
103.76276816188781
 20
108.7644383148919
 30
0.0
 40
5.1615931597860749
 50
4.1630848950833608
 51
6.4744177417454498
  0
ARC
  5
307D
  8
3
 10
103.7657940546971
 20
108.7680798950334
 30
0.0
 40
5.1581769832115798
 50
6.4380158755007466
 51
8.7511253980218111
  0
ARC
  5
307E
  8
3
 10
103.75399844368179
 20
108.7613486002823
 30
0.0
 40
5.1708616762422404
 50
8.8049580119792985
 51
11.112932979466541
  0
ARC
  5
307F
  8
3
 10
103.74019949192829
 20
108.7622536169531
 30
0.0
 40
5.1842286642153219
 50
11.07372396118212
 51
13.37612713406874
  0
ARC
  5
3080
  8
3
 10
103.72817000282009
 20
108.7545170113313
 30
0.0
 40
5.1977237925568476
 50
13.428419173102631
 51
15.724974869062761
  0
ARC
  5
3081
  8
3
 10
103.7253851325415
 20
108.75658546814471
 30
0.0
 40
5.1998445671428088
 50
15.694719612067839
 51
17.990332772473462
  0
ARC
  5
3082
  8
3
 10
103.73558767111351
 20
108.7540203718136
 30
0.0
 40
5.1909361020146054
 50
18.05204218989385
 51
20.351381035001548
  0
ARC
  5
3083
  8
3
 10
103.7546648015517
 20
108.7631775649958
 30
0.0
 40
5.1698655257562942
 50
20.329758812394878
 51
22.638475799537741
  0
ARC
  5
3084
  8
3
 10
103.79034282594699
 20
108.7711528205017
 30
0.0
 40
5.1338705814055343
 50
22.709592188827951
 51
25.034768800248258
  0
ARC
  5
3085
  8
3
 10
103.789998403504
 20
108.7749969141525
 30
0.0
 40
5.1325572304635552
 50
24.994260946764999
 51
27.320558835710109
  0
ARC
  5
3086
  8
3
 10
103.7638000528968
 20
108.75675793127471
 30
0.0
 40
5.1642060315375993
 50
27.36693791644673
 51
29.679614326988592
  0
ARC
  5
3087
  8
3
 10
103.740824070949
 20
108.74827577625349
 30
0.0
 40
5.1883692254948857
 50
29.635362491603519
 51
31.937813329767671
  0
ARC
  5
3088
  8
3
 10
103.7265316762078
 20
108.7336571457588
 30
0.0
 40
5.2082335642236401
 50
31.991113699878639
 51
34.285205695274684
  0
ARC
  5
3089
  8
3
 10
103.7179765926364
 20
108.7320927355412
 30
0.0
 40
5.2161845930952131
 50
34.246468665810099
 51
36.53728809330925
  0
ARC
  5
308A
  8
3
 10
103.72297066266979
 20
108.7285570738448
 30
0.0
 40
5.2142801924676627
 50
36.601173701482161
 51
38.893109757934482
  0
ARC
  5
308B
  8
3
 10
103.7285227406098
 20
108.7366994846474
 30
0.0
 40
5.2048473165561484
 50
38.861720984972813
 51
41.157787653256442
  0
ARC
  5
308C
  8
3
 10
103.74692263604339
 20
108.744222289387
 30
0.0
 40
5.186047020436205
 50
41.229000117465048
 51
43.533469854941522
  0
ARC
  5
308D
  8
3
 10
103.7667413080582
 20
108.7655729868663
 30
0.0
 40
5.1569734645703402
 50
43.51316022683389
 51
45.830692761271351
  0
ARC
  5
308E
  8
3
 10
103.80252887419461
 20
108.7927082734202
 30
0.0
 40
5.1125781362391161
 50
45.906478912038089
 51
48.244572322061273
  0
ARC
  5
308F
  8
3
 10
103.8016736555458
 20
108.79748830853541
 30
0.0
 40
5.1095832210746037
 50
48.201722974377383
 51
50.54178234157137
  0
ARC
  5
3090
  8
3
 10
103.78167808456971
 20
108.7668291951138
 30
0.0
 40
5.1459638446376266
 50
50.58683090964653
 51
52.911060175538019
  0
ARC
  5
3091
  8
3
 10
103.75982916555191
 20
108.74506695624611
 30
0.0
 40
5.1765014588014502
 50
52.863409608991091
 51
55.174608626324002
  0
ARC
  5
3092
  8
3
 10
103.74664976352631
 20
108.718520705752
 30
0.0
 40
5.2058214439992287
 50
55.222386574615953
 51
57.5210514599964
  0
ARC
  5
3093
  8
3
 10
103.7347746684588
 20
108.7065336866154
 30
0.0
 40
5.2223115904208051
 50
57.481765360180901
 51
59.773583857450831
  0
ARC
  5
3094
  8
3
 10
103.7360541421438
 20
108.6984192120033
 30
0.0
 40
5.2286813094751468
 50
59.830461207736548
 51
62.11968540499614
  0
ARC
  5
3095
  8
3
 10
103.7344970570222
 20
108.701481964073
 30
0.0
 40
5.2267029505358451
 50
62.088897486995478
 51
64.379196422873449
  0
ARC
  5
3096
  8
3
 10
103.7449803251797
 20
108.7096078550401
 30
0.0
 40
5.2148463114800307
 50
64.444445943798002
 51
66.739914504163963
  0
ARC
  5
3097
  8
3
 10
103.75177072856459
 20
108.7305954783122
 30
0.0
 40
5.1928833626224096
 50
66.71729977694315
 51
69.022352497310024
  0
ARC
  5
3098
  8
3
 10
103.7713216467549
 20
108.76257954859381
 30
0.0
 40
5.1560243802877821
 50
69.097968708165197
 51
71.419478308213741
  0
ARC
  5
3099
  8
3
 10
103.7786030816046
 20
108.79084520247361
 30
0.0
 40
5.1269123198270163
 50
71.395958557447969
 51
73.730671867789525
  0
ARC
  5
309A
  8
3
 10
103.79190178681129
 20
108.81468696864189
 30
0.0
 40
5.1003032493651279
 50
73.799050049153635
 51
76.146464508448034
  0
ARC
  5
309B
  8
3
 10
103.78500809537211
 20
108.80532313009979
 30
0.0
 40
5.1110472718252691
 50
76.096567120288114
 51
78.439417188187477
  0
ARC
  5
309C
  8
3
 10
103.7785291152482
 20
108.75529277990989
 30
0.0
 40
5.1613623981855321
 50
78.480254494117204
 51
80.800805519505261
  0
ARC
  5
309D
  8
3
 10
103.769136489983
 20
108.7242061341189
 30
0.0
 40
5.193552579026206
 50
80.753344506241604
 51
83.059784560772457
  0
ARC
  5
309E
  8
3
 10
103.7713135691353
 20
108.7027046069596
 30
0.0
 40
5.2146356670968537
 50
83.112076629933057
 51
85.409474260091343
  0
ARC
  5
309F
  8
3
 10
103.7669536198038
 20
108.6920291648668
 30
0.0
 40
5.2256269748000008
 50
85.371191412085508
 51
87.663954278503823
  0
ARC
  5
30A0
  8
3
 10
103.7722593449943
 20
108.6894837306934
 30
0.0
 40
5.2279568242304633
 50
87.723191126456058
 51
90.014763643163832
  0
ARC
  5
30A1
  8
3
 10
103.76946608075789
 20
108.6955065313585
 30
0.0
 40
5.2219340502557197
 50
89.984132590741893
 51
92.278129026352801
  0
ARC
  5
30A2
  8
3
 10
103.77499206865539
 20
108.7111533091238
 30
0.0
 40
5.2065229238063431
 50
92.345736836447159
 51
94.646285188235353
  0
ARC
  5
30A3
  8
3
 10
103.7709401186589
 20
108.73930022275189
 30
0.0
 40
5.1781405814874102
 50
94.626826194609606
 51
96.939484501528682
  0
ARC
  5
30A4
  8
3
 10
103.7722444272168
 20
108.7862112921428
 30
0.0
 40
5.1317354789097296
 50
97.017221820631534
 51
99.350396325934042
  0
ARC
  5
30A5
  8
3
 10
103.76592052383231
 20
108.8075470216082
 30
0.0
 40
5.1096565300581887
 50
99.319297258439448
 51
101.66249839817991
  0
ARC
  5
30A6
  8
3
 10
103.7703991138827
 20
108.811926960534
 30
0.0
 40
5.1062750650992488
 50
101.7216483409933
 51
104.066239101804
  0
ARC
  5
30A7
  8
3
 10
103.77086700840439
 20
108.7911393627559
 30
0.0
 40
5.1265551360212447
 50
104.0148458387813
 51
106.35032637454989
  0
ARC
  5
30A8
  8
3
 10
103.7879818460094
 20
108.7461669408459
 30
0.0
 40
5.1745281609636162
 50
106.39198742012771
 51
108.7058293372596
  0
ARC
  5
30A9
  8
3
 10
103.7934095255812
 20
108.7170766676614
 30
0.0
 40
5.2038242109658617
 50
108.6597120918718
 51
110.96053749812791
  0
ARC
  5
30AA
  8
3
 10
103.8040337745646
 20
108.70270966600791
 30
0.0
 40
5.2210432531873483
 50
111.0130127752941
 51
113.3062296080237
  0
ARC
  5
30AB
  8
3
 10
103.8038285414778
 20
108.6949276965447
 30
0.0
 40
5.2281100616457117
 50
113.2704217371685
 51
115.5602018084394
  0
ARC
  5
30AC
  8
3
 10
103.8085244988448
 20
108.69773996836319
 30
0.0
 40
5.2276019748030871
 50
115.6199324615027
 51
117.90956765766801
  0
ARC
  5
30AD
  8
3
 10
103.8020846941219
 20
108.7039908447323
 30
0.0
 40
5.219064559033181
 50
117.87921432246389
 51
120.1721719750352
  0
ARC
  5
30AE
  8
3
 10
103.79849195644761
 20
108.7228035143044
 30
0.0
 40
5.2009988136607266
 50
120.2421173641806
 51
122.5423971404153
  0
ARC
  5
30AF
  8
3
 10
103.78069058937869
 20
108.7473721396433
 30
0.0
 40
5.1707121544980819
 50
122.5225580563225
 51
124.8358050747065
  0
ARC
  5
30B0
  8
3
 10
103.75843141320151
 20
108.791339337476
 30
0.0
 40
5.1219137529628016
 50
124.91237679926149
 51
127.2471272334153
  0
ARC
  5
30B1
  8
3
 10
103.7459879632576
 20
108.8027601973124
 30
0.0
 40
5.1052918075117049
 50
127.21353882184169
 51
129.55544796215429
  0
ARC
  5
30B2
  8
3
 10
103.7576406345982
 20
108.7959280150675
 30
0.0
 40
5.1179822850149153
 50
129.60731894652471
 51
131.94322984348659
  0
ARC
  5
30B3
  8
3
 10
103.7700011020741
 20
108.775533388667
 30
0.0
 40
5.1414155370852948
 50
131.89377471485241
 51
134.21886424565429
  0
ARC
  5
30B4
  8
3
 10
103.8012312056552
 20
108.7490197182355
 30
0.0
 40
5.1821987514836527
 50
134.26188816814059
 51
136.56854409130219
  0
ARC
  5
30B5
  8
3
 10
103.81585897738729
 20
108.7297884505889
 30
0.0
 40
5.2060441013498782
 50
136.52551975910259
 51
138.82141707805951
  0
ARC
  5
30B6
  8
3
 10
103.8286528373997
 20
108.7251603933953
 30
0.0
 40
5.2187230306870873
 50
138.87565524884999
 51
141.16569940438009
  0
ARC
  5
30B7
  8
3
 10
103.829298198367
 20
108.7202896207299
 30
0.0
 40
5.2222811594212759
 50
141.12851221251799
 51
143.416700536641
  0
ARC
  5
30B8
  8
3
 10
103.82903523332681
 20
108.7278165376849
 30
0.0
 40
5.2175873487199551
 50
143.48135088941939
 51
145.7710545128335
  0
ARC
  5
30B9
  8
3
 10
103.81724685858219
 20
108.7326222472586
 30
0.0
 40
5.2051382229907217
 50
145.74180053269441
 51
148.0365165311762
  0
ARC
  5
30BA
  8
3
 10
103.8013872879485
 20
108.7501871328693
 30
0.0
 40
5.1823887989064303
 50
148.10844686349171
 51
150.4126324426303
  0
ARC
  5
30BB
  8
3
 10
103.7738987023457
 20
108.7636513360687
 30
0.0
 40
5.15183700493741
 50
150.39190242629189
 51
152.70934490097329
  0
ARC
  5
30BC
  8
3
 10
103.73763376548951
 20
108.7896902570762
 30
0.0
 40
5.1076738316748482
 50
152.78240440293411
 51
155.11963113258281
  0
ARC
  5
30BD
  8
3
 10
103.73278706961869
 20
108.78772579595589
 30
0.0
 40
5.1041048946230543
 50
155.07673581226931
 51
157.4155755939943
  0
ARC
  5
30BE
  8
3
 10
103.76803106106441
 20
108.77764462704521
 30
0.0
 40
5.1405195422037417
 50
157.46269120258941
 51
159.78506335935089
  0
ARC
  5
30BF
  8
3
 10
103.7947356150521
 20
108.76286894139071
 30
0.0
 40
5.1706868876367693
 50
159.73367043857991
 51
162.042645918044
  0
ARC
  5
30C0
  8
3
 10
103.8245194456063
 20
108.7580446273325
 30
0.0
 40
5.2005092444297736
 50
162.09325209513329
 51
164.38899862673071
  0
ARC
  5
30C1
  8
3
 10
103.8398990041207
 20
108.7497811072671
 30
0.0
 40
5.2175466159842294
 50
164.34705009656241
 51
166.6352657136739
  0
ARC
  5
30C2
  8
3
 10
103.84898668548129
 20
108.75285263933419
 30
0.0
 40
5.2256806838007259
 50
166.69106245229489
 51
168.9755617079137
  0
ARC
  5
30C3
  8
3
 10
103.8473240206706
 20
108.7501237999914
 30
0.0
 40
5.2245713911453882
 50
168.94270108102751
 51
171.2274295886551
  0
ARC
  5
30C4
  8
3
 10
103.8381665782215
 20
108.7576396844352
 30
0.0
 40
5.2143782971435551
 50
171.2937021165628
 51
173.58252402299181
  0
ARC
  5
30C5
  8
3
 10
103.8184448923688
 20
108.7574295944388
 30
0.0
 40
5.1948042325300623
 50
173.55590880858949
 51
175.85291961651089
  0
ARC
  5
30C6
  8
3
 10
103.78585847386999
 20
108.7666478683317
 30
0.0
 40
5.1616410258812531
 50
175.92881890212979
 51
178.24008643824621
  0
ARC
  5
30C7
  8
3
 10
103.7561804068379
 20
108.7653817048614
 30
0.0
 40
5.1320163057070411
 50
178.21578132721089
 51
180.5402447941579
  0
ARC
  5
30C8
  8
3
 10
103.72539739403339
 20
108.7714248902214
 30
0.0
 40
5.1012955732182119
 50
180.61137649552171
 51
182.9500680112132
  0
ARC
  5
30C9
  8
3
 10
103.7338108792374
 20
108.7673339155111
 30
0.0
 40
5.1094893618787109
 50
182.8993986860545
 51
185.23478664145779
  0
ARC
  5
30CA
  8
3
 10
103.78079454149859
 20
108.7753934847171
 30
0.0
 40
5.1570137523696813
 50
185.27633120942309
 51
187.59074258853991
  0
ARC
  5
30CB
  8
3
 10
103.8140996222087
 20
108.7757678211361
 30
0.0
 40
5.1900779890188478
 50
187.5462709117142
 51
189.84635956848129
  0
ARC
  5
30CC
  8
3
 10
103.8373719369373
 20
108.7843098899186
 30
0.0
 40
5.2144701380259679
 50
189.89510735595849
 51
192.1847192006949
  0
ARC
  5
30CD
  8
3
 10
103.84640054047109
 20
108.7828796708902
 30
0.0
 40
5.2229945240457054
 50
192.14847885512521
 51
194.43464096684889
  0
ARC
  5
30CE
  8
3
 10
103.84044795653909
 20
108.7871775123909
 30
0.0
 40
5.2183042482902184
 50
194.4966327917254
 51
196.78512809894639
  0
ARC
  5
30CF
  8
3
 10
103.8476719506746
 20
108.7852923347169
 30
0.0
 40
5.2246775015220477
 50
196.7424576222447
 51
199.02759852681689
  0
ARC
  5
30D0
  8
3
 10
103.8599032298509
 20
108.7956474421171
 30
0.0
 40
5.2396197046560991
 50
199.09104002731729
 51
201.36873237072649
  0
ARC
  5
30D1
  8
3
 10
103.79946600170329
 20
108.77330508754631
 30
0.0
 40
5.1751965353812013
 50
201.38218397005369
 51
203.6900853772195
  0
ARC
  5
30D2
  8
3
 10
103.67243679075879
 20
108.7257022270114
 30
0.0
 40
5.039750986734556
 50
203.77475446724191
 51
206.14778727761021
  0
ARC
  5
30D3
  8
3
 10
103.7706128286606
 20
108.75979565494239
 30
0.0
 40
5.1429198705950938
 50
206.00673811234009
 51
208.32405111180611
  0
ARC
  5
30D4
  8
3
 10
104.0583768651688
 20
108.9184728452782
 30
0.0
 40
5.471518829057187
 50
208.35701793544621
 51
210.52403922211121
  0
ARC
  5
30D5
  8
3
 10
103.7023114077946
 20
108.7391474160187
 30
0.0
 40
5.0737874788205604
 50
210.8218438974736
 51
213.19556830832511
  0
ARC
  5
30D6
  8
3
 10
103.1291347783326
 20
108.3722800847557
 30
0.0
 40
4.3932954300703653
 50
213.2844643057021
 51
216.0890579010549
  0
ARC
  5
30D7
  8
3
 10
104.039035815128
 20
108.9091622832951
 30
0.0
 40
5.4457922761247444
 50
215.0146404713025
 51
217.14345779004651
  0
ARC
  5
30D8
  8
3
 10
111.131119750205
 20
114.2381363461524
 30
0.0
 40
14.31682199638338
 50
217.0056847479139
 51
217.73930677666999
  0
ARC
  5
30D9
  8
3
 10
103.2267615092624
 20
108.395613129032
 30
0.0
 40
4.4952698086866141
 50
220.5155155977516
 51
223.5037815721673
  0
ARC
  5
30DA
  8
3
 10
102.86269714611799
 20
108.03398291999351
 30
0.0
 40
3.9822733923262681
 50
223.33576089453771
 51
228.52841119986809
  0
ARC
  5
30DB
  8
3
 10
107.56031094092999
 20
112.7663622652269
 30
0.0
 40
10.646152557437681
 50
226.4514511946777
 51
228.99783074363111
  0
LINE
  5
30DC
  8
0
 10
100.3212922355068
 20
99.325439381366252
 30
0.0
 11
100.3375722355067
 21
99.22491738136624
 31
0.0
  0
LINE
  5
30DD
  8
0
 10
100.3375722355067
 20
99.22491738136624
 30
0.0
 11
100.3538322355067
 21
99.124516381366234
 31
0.0
  0
LINE
  5
30DE
  8
0
 10
100.3538322355067
 20
99.124516381366234
 30
0.0
 11
100.3700722355068
 21
99.024258381366224
 31
0.0
  0
LINE
  5
30DF
  8
0
 10
100.3700722355068
 20
99.024258381366224
 30
0.0
 11
100.38631223550679
 21
98.924012381366225
 31
0.0
  0
LINE
  5
30E0
  8
0
 10
100.38631223550679
 20
98.924012381366225
 30
0.0
 11
100.4025422355068
 21
98.82374738136626
 31
0.0
  0
LINE
  5
30E1
  8
0
 10
100.4025422355068
 20
98.82374738136626
 30
0.0
 11
100.4187022355068
 21
98.724013381366234
 31
0.0
  0
LINE
  5
30E2
  8
0
 10
100.4187022355068
 20
98.724013381366234
 30
0.0
 11
100.4347322355067
 21
98.625013381366244
 31
0.0
  0
LINE
  5
30E3
  8
0
 10
100.4347322355067
 20
98.625013381366244
 30
0.0
 11
100.4509922355068
 21
98.524599381366244
 31
0.0
  0
LINE
  5
30E4
  8
0
 10
100.4509922355068
 20
98.524599381366244
 30
0.0
 11
100.4676022355068
 21
98.422046381366243
 31
0.0
  0
LINE
  5
30E5
  8
0
 10
100.4676022355068
 20
98.422046381366243
 30
0.0
 11
100.4831822355068
 21
98.325856381366236
 31
0.0
  0
LINE
  5
30E6
  8
0
 10
100.4831822355068
 20
98.325856381366236
 30
0.0
 11
100.49725223550681
 21
98.23897338136625
 31
0.0
  0
LINE
  5
30E7
  8
0
 10
100.49725223550681
 20
98.23897338136625
 30
0.0
 11
100.51525223550679
 21
98.127865381366234
 31
0.0
  0
LINE
  5
30E8
  8
0
 10
100.51525223550679
 20
98.127865381366234
 30
0.0
 11
100.539274541957
 21
97.979526551463394
 31
0.0
  0
LINE
  5
30E9
  8
0
 10
117.27425223550679
 20
96.803464381366226
 30
0.0
 11
116.82708223550669
 21
96.846214381366252
 31
0.0
  0
ARC
  5
30EA
  8
0
 10
117.4716036422745
 20
101.5166132383336
 30
0.0
 40
4.7146615283543234
 50
256.63112399159542
 51
262.14273245384982
  0
ARC
  5
30EB
  8
0
 10
117.6049835888856
 20
102.1445452380965
 30
0.0
 40
5.3564398358443679
 50
251.85912538567089
 51
256.79611438346552
  0
ARC
  5
30EC
  8
0
 10
117.61256605365369
 20
101.97489051314381
 30
0.0
 40
5.1979254580485366
 50
245.9742116255785
 51
251.19742948227901
  0
ARC
  5
30ED
  8
0
 10
117.3036294169067
 20
101.1995160976463
 30
0.0
 40
4.3640735758830473
 50
239.1415266045779
 51
245.53411253402629
  0
ARC
  5
30EE
  8
0
 10
117.56396668858289
 20
102.0252998721982
 30
0.0
 40
5.2103317235301718
 50
236.22884665735711
 51
241.34223121060171
  0
ARC
  5
30EF
  8
0
 10
120.76186080035529
 20
106.89530658494959
 30
0.0
 40
11.03633948658306
 50
234.26521734317009
 51
236.4823505944841
  0
ARC
  5
30F0
  8
0
 10
117.2638421421829
 20
101.2674364524502
 30
0.0
 40
4.4476335145396888
 50
221.6853403130672
 51
228.49159238643699
  0
ARC
  5
30F1
  8
0
 10
116.85447638430711
 20
100.9224645629408
 30
0.0
 40
3.9125231816647061
 50
210.25994855772541
 51
221.8993866760531
  0
ARC
  5
30F2
  8
0
 10
121.6551970542039
 20
104.6440109700378
 30
0.0
 40
9.9662937116190182
 50
208.87086355984471
 51
214.83684490956301
  0
LINE
  5
30F3
  8
3
 10
118.2265122355068
 20
94.514774381366237
 30
0.0
 11
118.18408223550669
 21
94.613492381366228
 31
0.0
  0
ARC
  5
30F4
  8
3
 10
117.8215776579752
 20
94.390597562687304
 30
0.0
 40
0.4255486681041949
 50
31.586297853894209
 51
46.819119197817272
  0
ARC
  5
30F5
  8
3
 10
117.8026108950543
 20
94.383021294535226
 30
0.0
 40
0.4441364529821863
 50
45.703667491756789
 51
62.240530505183813
  0
ARC
  5
30F6
  8
3
 10
117.60052363802239
 20
94.179348640404569
 30
0.0
 40
0.7233825930220134
 50
55.574913040203413
 51
66.521550527787824
  0
ARC
  5
30F7
  8
3
 10
116.9351908605657
 20
93.089628643925593
 30
0.0
 40
1.995740587387935
 50
61.459279211538167
 51
65.45262737782997
  0
ARC
  5
30F8
  8
3
 10
115.4328504254475
 20
90.123751966959375
 30
0.0
 40
5.319394227462757
 50
64.004879019148348
 51
65.507161481480495
  0
ARC
  5
30F9
  8
3
 10
114.6492597014345
 20
88.50757271616402
 30
0.0
 40
7.115129360530088
 50
65.160548087379865
 51
66.296551623487957
  0
ARC
  5
30FA
  8
3
 10
113.0123973386554
 20
84.992531100404861
 30
0.0
 40
10.99199405798805
 50
65.849746301717701
 51
66.589960072999673
  0
ARC
  5
30FB
  8
3
 10
104.9152914487382
 20
66.816913094892556
 30
0.0
 40
30.88924589338831
 50
66.201802443449623
 51
66.46550399796439
  0
ARC
  5
30FC
  8
3
 10
-84.753393882175715
 20
-364.98462224230713
 30
0.0
 40
502.51053751458329
 50
66.297534113549958
 51
66.313757230145484
  0
ARC
  5
30FD
  8
3
 10
160.85799834074851
 20
194.4718508086105
 30
0.0
 40
108.4858925906411
 50
246.14788060591039
 51
246.2231364552747
  0
ARC
  5
30FE
  8
3
 10
138.79227383144689
 20
144.39312552802511
 30
0.0
 40
53.76144505426376
 50
245.92174183747599
 51
246.07374071149951
  0
ARC
  5
30FF
  8
3
 10
131.1380274184252
 20
127.1490813953633
 30
0.0
 40
34.89504276329275
 50
245.610279393648
 51
245.84448566575341
  0
ARC
  5
3100
  8
3
 10
128.53730708105141
 20
121.36545836172679
 30
0.0
 40
28.553625817809181
 50
245.2846160921855
 51
245.5708113873053
  0
ARC
  5
3101
  8
3
 10
127.2627146541828
 20
118.5506699736724
 30
0.0
 40
25.4637694804854
 50
244.92082991003809
 51
245.24173077922421
  0
ARC
  5
3102
  8
3
 10
126.2690257031412
 20
116.39902403328951
 30
0.0
 40
23.093782371252718
 50
244.53725693296619
 51
244.89102896129941
  0
ARC
  5
3103
  8
3
 10
125.28249245340351
 20
114.2887577230106
 30
0.0
 40
20.764368883130679
 50
244.09826150392789
 51
244.4915956356914
  0
ARC
  5
3104
  8
3
 10
124.6773299302285
 20
113.0272157272898
 30
0.0
 40
19.365204259574622
 50
243.65684487917389
 51
244.07841574856849
  0
ARC
  5
3105
  8
3
 10
124.2203492389726
 20
112.0795747486502
 30
0.0
 40
18.31319327619622
 50
243.17690050790671
 51
243.6224677493457
  0
ARC
  5
3106
  8
3
 10
123.8250270793615
 20
111.2859738894245
 30
0.0
 40
17.426597402115711
 50
242.69147607469779
 51
243.15942470048989
  0
ARC
  5
3107
  8
3
 10
123.4035254086815
 20
110.44687464443081
 30
0.0
 40
16.487642646576141
 50
242.16091655028251
 51
242.65520138589309
  0
ARC
  5
3108
  8
3
 10
123.0543125190509
 20
109.77521153670919
 30
0.0
 40
15.730637907147591
 50
241.62551123833589
 51
242.14320036904451
  0
ARC
  5
3109
  8
3
 10
122.69735345327101
 20
109.0920071131868
 30
0.0
 40
14.959878698763889
 50
241.0409876405557
 51
241.5848874100393
  0
ARC
  5
310A
  8
3
 10
122.39366904012731
 20
108.53656758156851
 30
0.0
 40
14.32684910906894
 50
240.46057385328899
 51
241.02810542600631
  0
ARC
  5
310B
  8
3
 10
122.07809308389351
 20
107.9584711863029
 30
0.0
 40
13.668313624210709
 50
239.8224223511871
 51
240.41673483047529
  0
ARC
  5
310C
  8
3
 10
121.8097540452063
 20
107.49043665153719
 30
0.0
 40
13.1288223623121
 50
239.1897771037778
 51
239.8080167748378
  0
ARC
  5
310D
  8
3
 10
121.5326013640593
 20
107.00648990308591
 30
0.0
 40
12.571223056182779
 50
238.49987638794269
 51
239.14493882856581
  0
ARC
  5
310E
  8
3
 10
121.2894279463098
 20
106.6048536356995
 30
0.0
 40
12.10171434835984
 50
237.8183542895319
 51
238.4879645153114
  0
ARC
  5
310F
  8
3
 10
121.0323693633171
 20
106.1781769558655
 30
0.0
 40
11.603683951077549
 50
237.0728114663188
 51
237.7705318285104
  0
ARC
  5
3110
  8
3
 10
120.8297331304436
 20
105.8616904159387
 30
0.0
 40
11.22788979223305
 50
236.34231965089009
 51
237.0628692061689
  0
ARC
  5
3111
  8
3
 10
120.6376639793758
 20
105.5598013796976
 30
0.0
 40
10.87016041894206
 50
235.5594269776235
 51
236.30308024725809
  0
ARC
  5
3112
  8
3
 10
120.4810402924865
 20
105.3281435710358
 30
0.0
 40
10.590530615840491
 50
234.78686364464929
 51
235.54944689163381
  0
ARC
  5
3113
  8
3
 10
120.33035305178279
 20
105.10278022375201
 30
0.0
 40
10.319518935136189
 50
233.96705289875439
 51
234.74891151054271
  0
ARC
  5
3114
  8
3
 10
120.1889527551478
 20
104.9065127467252
 30
0.0
 40
10.07762285910723
 50
233.16089133924959
 51
233.96075919809141
  0
ARC
  5
3115
  8
3
 10
120.0355123787979
 20
104.6898835916742
 30
0.0
 40
9.8122540211212605
 50
232.2988820425461
 51
233.11953462524741
  0
ARC
  5
3116
  8
3
 10
119.89544197836371
 20
104.50647423762091
 30
0.0
 40
9.5814795060043654
 50
231.45132226892471
 51
232.29088528181839
  0
ARC
  5
3117
  8
3
 10
119.74732637948431
 20
104.3098285814558
 30
0.0
 40
9.3353869025789535
 50
230.54931420295219
 51
231.4101556816924
  0
ARC
  5
3118
  8
3
 10
119.6134770291749
 20
104.144880159769
 30
0.0
 40
9.1229687733440272
 50
229.6601993138444
 51
230.5401710732163
  0
ARC
  5
3119
  8
3
 10
119.4740631136838
 20
103.9702432150834
 30
0.0
 40
8.8996144521099403
 50
228.71533347239739
 51
229.6165369394032
  0
ARC
  5
311A
  8
3
 10
119.32130942585439
 20
103.7938396465124
 30
0.0
 40
8.666270799935333
 50
227.7800534866042
 51
228.70471672786661
  0
ARC
  5
311B
  8
3
 10
119.132332263793
 20
103.5729313763305
 30
0.0
 40
8.3756883346583866
 50
226.76614380663969
 51
227.72194393808459
  0
ARC
  5
311C
  8
3
 10
118.96573939633601
 20
103.3932980013701
 30
0.0
 40
8.1307016911610255
 50
225.77054672398879
 51
226.7543664421045
  0
ARC
  5
311D
  8
3
 10
118.7909842612449
 20
103.20232873055861
 30
0.0
 40
7.8719687358339296
 50
224.69709441967589
 51
225.7124187228892
  0
ARC
  5
311E
  8
3
 10
118.6279932253898
 20
103.0377327444604
 30
0.0
 40
7.6403393322496784
 50
223.63389293277211
 51
224.67940059248329
  0
ARC
  5
311F
  8
3
 10
118.4492694389608
 20
102.85709719605249
 30
0.0
 40
7.3863420795646917
 50
222.4953544170576
 51
223.5764173991027
  0
ARC
  5
3120
  8
3
 10
118.326836992639
 20
102.7440315560638
 30
0.0
 40
7.2196894555547599
 50
221.38480780953859
 51
222.49011595742959
  0
ARC
  5
3121
  8
3
 10
118.2291046747211
 20
102.6491327989667
 30
0.0
 40
7.0836264948962677
 50
220.2058060197067
 51
221.3315116235645
  0
ARC
  5
3122
  8
3
 10
118.0862109334647
 20
102.5248234754124
 30
0.0
 40
6.894248667205888
 50
219.02625636222729
 51
220.18340119095549
  0
ARC
  5
3123
  8
3
 10
117.8925028427614
 20
102.3600679816724
 30
0.0
 40
6.6400251577379796
 50
217.7719544465572
 51
218.97432695247039
  0
ARC
  5
3124
  8
3
 10
117.9437036040581
 20
102.40885899929729
 30
0.0
 40
6.710386404831115
 50
216.64929350034171
 51
217.83347854999241
  0
ARC
  5
3125
  8
3
 10
118.2167048936479
 20
102.60557597760651
 30
0.0
 40
7.0468417447105107
 50
215.48754464454061
 51
216.6075683852541
  0
ARC
  5
3126
  8
3
 10
117.6398081891883
 20
102.1663371536047
 30
0.0
 40
6.3221597362842621
 50
214.01461583065591
 51
215.28143081078991
  0
ARC
  5
3127
  8
3
 10
116.75971845152419
 20
101.5629300209943
 30
0.0
 40
5.2551150974760956
 50
212.3717914267522
 51
213.92919134780229
  0
ARC
  5
3128
  8
3
 10
117.7524552615605
 20
102.2743676340738
 30
0.0
 40
6.4748552728428272
 50
211.79881036561861
 51
212.98549674457101
  0
ARC
  5
3129
  8
3
 10
128.19048115960081
 20
108.7725269080632
 30
0.0
 40
18.770313059136591
 50
211.49774423587229
 51
211.86784235791541
  0
ARC
  5
312A
  8
3
 10
116.6003204649175
 20
101.49244357910339
 30
0.0
 40
5.0865206698254273
 50
208.0372379065065
 51
209.7854609734481
  0
ARC
  5
312B
  8
3
 10
115.9653871601427
 20
101.1601509697351
 30
0.0
 40
4.3699121400619871
 50
204.9754943672375
 51
208.10478688025
  0
ARC
  5
312C
  8
3
 10
122.419476684004
 20
104.44578623243299
 30
0.0
 40
11.610528393801021
 50
204.68340880070591
 51
206.22546508647659
  0
LINE
  5
312D
  8
0
 10
112.9360322355067
 20
99.812508381366243
 30
0.0
 11
112.9287622355068
 21
99.829387381366246
 31
0.0
  0
ARC
  5
312E
  8
0
 10
117.5321131272228
 20
101.80224852748439
 30
0.0
 40
5.0082951724240328
 50
202.9882599015238
 51
203.19855348170239
  0
ARC
  5
312F
  8
0
 10
117.5799319837636
 20
101.8228215885748
 30
0.0
 40
5.060351151224582
 50
202.7830917166705
 51
202.99124850982881
  0
ARC
  5
3130
  8
0
 10
117.5469482749657
 20
101.80661585969941
 30
0.0
 40
5.0236658193791941
 50
202.5484102399746
 51
202.7583585789944
  0
ARC
  5
3131
  8
0
 10
117.44674124933459
 20
101.7673209178774
 30
0.0
 40
4.9160513048871559
 50
202.35826795430771
 51
202.57328985316019
  0
ARC
  5
3132
  8
0
 10
117.5547100553247
 20
101.8114416544621
 30
0.0
 40
5.0326867744926727
 50
202.14596769211039
 51
202.3552269926621
  0
ARC
  5
3133
  8
0
 10
117.85496351217429
 20
101.9329365200488
 30
0.0
 40
5.3565891345148371
 50
201.9434431287286
 51
202.13897201063509
  0
ARC
  5
3134
  8
0
 10
117.4513506682938
 20
101.7693173018676
 30
0.0
 40
4.9210737884896938
 50
201.71610126754391
 51
201.93251082311019
  0
ARC
  5
3135
  8
0
 10
116.7923507470087
 20
101.5041171055893
 30
0.0
 40
4.2107186097425151
 50
201.42257065347641
 51
201.6814924627682
  0
ARC
  5
3136
  8
0
 10
117.72353505178231
 20
101.88282142671591
 30
0.0
 40
5.2159033765551586
 50
201.36276940739711
 51
201.55912706068929
  0
ARC
  5
3137
  8
0
 10
125.8567564773427
 20
105.0559582700038
 30
0.0
 40
13.94619928655522
 50
201.26522082678059
 51
201.3316147846117
  0
ARC
  5
3138
  8
0
 10
116.8500535791534
 20
101.53195796787379
 30
0.0
 40
4.2746802120412672
 50
200.7527476665359
 51
201.03126164901249
  0
ARC
  5
3139
  8
0
 10
116.421688525609
 20
101.3703703109604
 30
0.0
 40
3.8168520021846501
 50
200.28212131734219
 51
200.7629785581893
  0
ARC
  5
313A
  8
0
 10
122.43354940284929
 20
103.62887248705771
 30
0.0
 40
10.238912388394739
 50
200.24032510485239
 51
200.475175610028
  0
LINE
  5
313B
  8
0
 10
112.9360322355067
 20
99.812508381366243
 30
0.0
 11
112.9287622355068
 21
99.829386381366234
 31
0.0
  0
ARC
  5
313C
  8
0
 10
117.5215299962787
 20
101.797504089699
 30
0.0
 40
4.9966992123040024
 50
202.9855604522603
 51
203.19636316230589
  0
ARC
  5
313D
  8
0
 10
117.57354721006909
 20
101.8196651907396
 30
0.0
 40
5.0532403222511091
 50
202.7780770117584
 51
202.98656850366581
  0
ARC
  5
313E
  8
0
 10
117.5404471950781
 20
101.8057281566653
 30
0.0
 40
5.0173258310695044
 50
202.56733529327809
 51
202.7776772310539
  0
ARC
  5
313F
  8
0
 10
117.43633754856241
 20
101.7617236884137
 30
0.0
 40
4.9043004475091978
 50
202.3437131264262
 51
202.55937978557549
  0
ARC
  5
3140
  8
0
 10
117.54495187648079
 20
101.8080977081903
 30
0.0
 40
5.022389897953067
 50
202.15204786517219
 51
202.36198000095911
  0
ARC
  5
3141
  8
0
 10
117.84673836897041
 20
101.92975534169589
 30
0.0
 40
5.3477735143033609
 50
201.9439645452222
 51
202.140094298989
  0
ARC
  5
3142
  8
0
 10
117.4454619150174
 20
101.76599877883559
 30
0.0
 40
4.9143742436184032
 50
201.7042721378354
 51
201.92139887549149
  0
ARC
  5
3143
  8
0
 10
116.79006893983011
 20
101.5035058188971
 30
0.0
 40
4.2083715184486641
 50
201.4239450310335
 51
201.68373175338701
  0
ARC
  5
3144
  8
0
 10
117.7282358105286
 20
101.8820600439832
 30
0.0
 40
5.2199960814266442
 50
201.33384660919739
 51
201.5306012531947
  0
ARC
  5
3145
  8
0
 10
125.9178006361161
 20
105.080453116721
 30
0.0
 40
14.011963453524199
 50
201.26693704213511
 51
201.333239578828
  0
ARC
  5
3146
  8
0
 10
116.8623352591475
 20
101.5375213285497
 30
0.0
 40
4.2881339074335552
 50
200.75912382706849
 51
201.03817792460021
  0
ARC
  5
3147
  8
0
 10
116.44658324150301
 20
101.3798414545667
 30
0.0
 40
3.8434849729179459
 50
200.2772584286314
 51
200.7578718884686
  0
ARC
  5
3148
  8
0
 10
122.53597802653231
 20
103.6665226256483
 30
0.0
 40
10.348036825675621
 50
200.2348405388953
 51
200.4688709360594
  0
LINE
  5
3149
  8
0
 10
111.8698122355068
 20
99.597183381366236
 30
0.0
 11
111.8681422355068
 21
99.601596381366235
 31
0.0
  0
ARC
  5
314A
  8
0
 10
117.7556287758533
 20
101.8182586276444
 30
0.0
 40
6.2909529704835929
 50
200.5886066967941
 51
200.63155675852991
  0
ARC
  5
314B
  8
0
 10
117.79427921420459
 20
101.8254027514365
 30
0.0
 40
6.3296508207788218
 50
200.48347485549519
 51
200.5261135948943
  0
ARC
  5
314C
  8
0
 10
117.7571303660241
 20
101.8263889975952
 30
0.0
 40
6.2952112993242011
 50
200.5672372927462
 51
200.61020089920379
  0
ARC
  5
314D
  8
0
 10
117.6561140514255
 20
101.77695389476099
 30
0.0
 40
6.183276267740113
 50
200.4234248501084
 51
200.46719449356331
  0
ARC
  5
314E
  8
0
 10
117.80806885920769
 20
101.84667945143291
 30
0.0
 40
6.3500221478139398
 50
200.4920765434652
 51
200.53456159267071
  0
ARC
  5
314F
  8
0
 10
118.1972313857103
 20
101.9819072507856
 30
0.0
 40
6.761905731056145
 50
200.3713769273426
 51
200.4110164161273
  0
ARC
  5
3150
  8
0
 10
117.7028141402851
 20
101.794766344774
 30
0.0
 40
6.233267747752496
 50
200.29711035951581
 51
200.34078745883099
  0
ARC
  5
3151
  8
0
 10
116.8868089876085
 20
101.4985640374485
 30
0.0
 40
5.3651847091882949
 50
200.30125026838371
 51
200.35320417813631
  0
ARC
  5
3152
  8
0
 10
118.07665325400281
 20
101.9347191517669
 30
0.0
 40
6.6324452244556378
 50
200.22931457628741
 51
200.2687514901202
  0
ARC
  5
3153
  8
0
 10
128.13200929974121
 20
105.6540266958026
 30
0.0
 40
17.35360978782348
 50
200.2584813304185
 51
200.2721124547148
  0
ARC
  5
3154
  8
0
 10
116.99312206752541
 20
101.5384472125935
 30
0.0
 40
5.4787308235680401
 50
200.16031220855049
 51
200.21576787572641
  0
ARC
  5
3155
  8
0
 10
116.46417957063341
 20
101.34522244931991
 30
0.0
 40
4.9156011354422553
 50
200.0757501365315
 51
200.17095089607491
  0
ARC
  5
3156
  8
0
 10
124.2123049333179
 20
104.1812202473547
 30
0.0
 40
13.16643891375084
 50
200.04680504849031
 51
200.0933435218418
  0
LINE
  5
3157
  8
0
 10
112.8768722355068
 20
99.949317381366242
 30
0.0
 11
112.8769322355068
 21
99.949140381366234
 31
0.0
  0
ARC
  5
3158
  8
0
 10
116.81535276294819
 20
101.4541792801386
 30
0.0
 40
4.2161947699068429
 50
200.9139946063851
 51
200.91627864533959
  0
ARC
  5
3159
  8
0
 10
116.1798158712392
 20
101.1631795860856
 30
0.0
 40
3.5189368269845169
 50
200.18462337578359
 51
200.18698265555571
  0
ARC
  5
315A
  8
0
 10
114.66845253790029
 20
100.56123001005859
 30
0.0
 40
1.893188674022215
 50
198.87267868628891
 51
198.8764208111584
  0
ARC
  5
315B
  8
0
 10
113.65073314226549
 20
100.2612590256816
 30
0.0
 40
0.834391921728757
 50
201.99703234824031
 51
202.00436437455051
  0
ARC
  5
315C
  8
0
 10
113.2974559475669
 20
100.10051230742761
 30
0.0
 40
0.4469320364389847
 50
199.8665187452591
 51
199.87783289699379
  0
ARC
  5
315D
  8
0
 10
113.1299769043089
 20
100.02179349543481
 30
0.0
 40
0.26322074365409
 50
196.15668034783931
 51
196.17231792448939
  0
ARC
  5
315E
  8
0
 10
112.9925487133261
 20
99.990403327856825
 30
0.0
 40
0.1227572764578389
 50
199.96944888591869
 51
199.99676416738771
  0
ARC
  5
315F
  8
0
 10
112.9257207156369
 20
99.969965650319764
 30
0.0
 40
0.0530946292187262
 50
203.93591859114389
 51
203.98905937144741
  0
ARC
  5
3160
  8
0
 10
112.90497874651351
 20
99.95677546046133
 30
0.0
 40
0.029008158811918
 50
196.8243451408683
 51
196.89245240278751
  0
ARC
  5
3161
  8
0
 10
112.9114399344391
 20
99.962018960908054
 30
0.0
 40
0.0368482068974027
 50
201.78047577543691
 51
201.8223431074052
  0
ARC
  5
3162
  8
0
 10
112.8830816389976
 20
99.951387883207673
 30
0.0
 40
0.0066044647582219
 50
207.66540718877991
 51
207.85167407684551
  0
ARC
  5
3163
  8
0
 10
112.8785144636072
 20
99.948294381366239
 30
0.0
 40
0.0012722532529208
 50
179.63971854174139
 51
180.3602814582585
  0
ARC
  5
3164
  8
0
 10
112.877943916533
 20
99.948815789849874
 30
0.0
 40
0.0008789935183053
 50
217.03404080786541
 51
218.10314344453479
  0
LINE
  5
3165
  8
0
 10
112.8772522355068
 20
99.948273381366235
 30
0.0
 11
112.8785822355067
 21
99.944611381366244
 31
0.0
  0
ARC
  5
3166
  8
0
 10
117.8617853010482
 20
101.7664886956173
 30
0.0
 40
5.3058034019934359
 50
200.0825975735722
 51
200.12469660966499
  0
ARC
  5
3167
  8
0
 10
117.89710624700299
 20
101.7767727687917
 30
0.0
 40
5.3425068313840853
 50
200.09792294970379
 51
200.13970255037739
  0
ARC
  5
3168
  8
0
 10
117.8642428906174
 20
101.759088288904
 30
0.0
 40
5.3055665614455583
 50
200.08259663392141
 51
200.12469754931581
  0
ARC
  5
3169
  8
0
 10
117.7778266238237
 20
101.73421018557271
 30
0.0
 40
5.2158705737518893
 50
200.1947105510458
 51
200.23762488313471
  0
ARC
  5
316A
  8
0
 10
117.90373595535711
 20
101.7707739113564
 30
0.0
 40
5.3466629441325084
 50
200.13852861600239
 51
200.1801952523208
  0
ARC
  5
316B
  8
0
 10
118.23204270310529
 20
101.8990735496662
 30
0.0
 40
5.6990802199442188
 50
200.2522427839869
 51
200.2911253038732
  0
ARC
  5
316C
  8
0
 10
117.81285522334301
 20
101.7520489637368
 30
0.0
 40
5.254924997080388
 50
200.37256775097291
 51
200.41543310663121
  0
ARC
  5
316D
  8
0
 10
117.1209446853926
 20
101.4891898977599
 30
0.0
 40
4.5147857779393528
 50
200.35206803402551
 51
200.40309246877149
  0
ARC
  5
316E
  8
0
 10
118.12555229370081
 20
101.8514402945338
 30
0.0
 40
5.5826664455727357
 50
200.29322536019779
 51
200.331955175377
  0
ARC
  5
316F
  8
0
 10
126.6174569846842
 20
105.0161024467036
 30
0.0
 40
14.64508460564679
 50
200.39808386482571
 51
200.41143715042901
  0
ARC
  5
3170
  8
0
 10
117.2076915381398
 20
101.5248373462934
 30
0.0
 40
4.608535412938326
 50
200.53184341866549
 51
200.58636378959059
  0
ARC
  5
3171
  8
0
 10
116.7607119020654
 20
101.3507812717752
 30
0.0
 40
4.1289010855825952
 50
200.50622616959529
 51
200.59990403049611
  0
ARC
  5
3172
  8
0
 10
123.2509810290651
 20
103.7846673192477
 30
0.0
 40
11.060523136227591
 50
200.57258811201581
 51
200.6183865989457
  0
LINE
  5
3173
  8
3
 10
117.27425223550679
 20
96.803464381366226
 30
0.0
 11
117.2729622355068
 21
96.800699381366229
 31
0.0
  0
ARC
  5
3174
  8
3
 10
117.2789318571399
 20
96.799419010412834
 30
0.0
 40
0.0061053855096
 50
167.89454061301041
 51
202.27873067786791
  0
ARC
  5
3175
  8
3
 10
117.28388296259
 20
96.799409575205516
 30
0.0
 40
0.0108484714743624
 50
192.26832419038939
 51
218.0684479727409
  0
ARC
  5
3176
  8
3
 10
117.30294709228519
 20
96.805704721643593
 30
0.0
 40
0.0305060848061462
 50
205.19062035135661
 51
217.6455292034822
  0
ARC
  5
3177
  8
3
 10
117.4988548165645
 20
96.919199888880883
 30
0.0
 40
0.2566811598536268
 50
210.98097534594891
 51
212.9542138586996
  0
ARC
  5
3178
  8
3
 10
119.83612129587409
 20
98.412876468512636
 30
0.0
 40
3.0304613839935541
 50
212.61299570504639
 51
212.82043190123741
  0
ARC
  5
3179
  8
3
 10
117.7785791335356
 20
97.093782228020515
 30
0.0
 40
0.5864361618870916
 50
213.47235825199871
 51
214.75798312827061
  0
ARC
  5
317A
  8
3
 10
117.9206597761429
 20
97.185654587125924
 30
0.0
 40
0.7555626483212703
 50
214.33920315721409
 51
215.49448058067011
  0
ARC
  5
317B
  8
3
 10
118.76576308518
 20
97.770088067212967
 30
0.0
 40
1.783019965023394
 50
215.01700530451109
 51
215.57537494775369
  0
ARC
  5
317C
  8
3
 10
121.2615361613135
 20
99.527314804856303
 30
0.0
 40
4.8353204900010178
 50
215.30600541795721
 51
215.53560240974829
  0
ARC
  5
317D
  8
3
 10
174.39629510462811
 20
137.19912240025039
 30
0.0
 40
69.969521501073245
 50
215.34989824387071
 51
215.36741631383109
  0
ARC
  5
317E
  8
3
 10
108.8872001032408
 20
90.732288294123904
 30
0.0
 40
10.34618560220674
 50
35.093996509649891
 51
35.222864765332083
  0
ARC
  5
317F
  8
3
 10
112.9294149762426
 20
93.586983572740834
 30
0.0
 40
5.3975979568773003
 50
34.701598657289253
 51
34.968825089266993
  0
ARC
  5
3180
  8
3
 10
113.8023956141929
 20
94.198928872373116
 30
0.0
 40
4.3315183338259526
 50
34.264381969925033
 51
34.620811668069749
  0
ARC
  5
3181
  8
3
 10
114.3195657335841
 20
94.556890564427064
 30
0.0
 40
3.7025699570683281
 50
33.747434736876741
 51
34.192213087163289
  0
ARC
  5
3182
  8
3
 10
114.3031294811511
 20
94.546370023311113
 30
0.0
 40
3.7220811378744552
 50
33.273075617809567
 51
33.74153735954313
  0
ARC
  5
3183
  8
3
 10
114.1010691375523
 20
94.413664913509223
 30
0.0
 40
3.9638227775782102
 50
32.809443449556532
 51
33.27443099589356
  0
ARC
  5
3184
  8
3
 10
113.89618913276649
 20
94.281802506004055
 30
0.0
 40
4.2074689928382538
 50
32.346602643420717
 51
32.80690781439057
  0
ARC
  5
3185
  8
3
 10
113.7891218022702
 20
94.214123056963345
 30
0.0
 40
4.3341335490110691
 50
31.876132311120681
 51
32.345176908921779
  0
ARC
  5
3186
  8
3
 10
113.35395149704
 20
93.938175518228888
 30
0.0
 40
4.8494023464878646
 50
31.49150740541231
 51
31.92960261742482
  0
ARC
  5
3187
  8
3
 10
112.5172517980546
 20
93.420270263255503
 30
0.0
 40
5.8334119838349627
 50
31.155826148700921
 51
31.536278873762608
  0
ARC
  5
3188
  8
3
 10
111.3837442139038
 20
92.725959394993481
 30
0.0
 40
7.1626442478912598
 50
30.895102971540261
 51
31.21762810411996
  0
ARC
  5
3189
  8
3
 10
109.6044133114562
 20
91.651188206361198
 30
0.0
 40
9.2413683019511659
 50
30.688493068192109
 51
30.948678293638441
  0
ARC
  5
318A
  8
3
 10
107.3574440030752
 20
90.30712879810639
 30
0.0
 40
11.85963166304612
 50
30.521850399665841
 51
30.732186584950281
  0
ARC
  5
318B
  8
3
 10
104.0808560880855
 20
88.36010170787705
 30
0.0
 40
15.671037130342819
 50
30.40482306222378
 51
30.56999370252581
  0
ARC
  5
318C
  8
3
 10
99.364617805796343
 20
85.579123752796889
 30
0.0
 40
21.146130032853609
 50
30.309612462273691
 51
30.43623937651266
  0
ARC
  5
318D
  8
3
 10
90.443217524312971
 20
80.339093536934996
 30
0.0
 40
31.492578332975778
 50
30.260553098099368
 51
30.34852833387955
  0
ARC
  5
318E
  8
3
 10
78.822418242744661
 20
73.536582382441026
 30
0.0
 40
44.957973507237917
 50
30.221831246279191
 51
30.285422638576581
  0
ARC
  5
318F
  8
3
 10
63.90215677412197
 20
64.834621117227599
 30
0.0
 40
62.230445018998751
 50
30.182827031786079
 51
30.230223864633601
  0
ARC
  5
3190
  8
3
 10
15.181221361605649
 20
36.437479942660417
 30
0.0
 40
118.6230486391045
 50
30.182462824329441
 51
30.208056184300499
  0
ARC
  5
3191
  8
3
 10
595.83523688378273
 20
374.35181926930818
 30
0.0
 40
553.19924415971298
 50
210.2006841029355
 51
210.20633339803939
  0
ARC
  5
3192
  8
3
 10
12.20109571650047
 20
34.74992317273545
 30
0.0
 40
122.0476393785015
 50
30.112028385696011
 51
30.138312320229542
  0
ARC
  5
3193
  8
3
 10
94.447569173497016
 20
82.501923399954251
 30
0.0
 40
26.943871605446859
 50
29.893650215033951
 51
30.015792727441362
  0
ARC
  5
3194
  8
3
 10
104.3791633763511
 20
88.243712084799355
 30
0.0
 40
15.47202204457747
 50
29.5722174069762
 51
29.789844794703381
  0
ARC
  5
3195
  8
3
 10
109.001044024896
 20
90.89230047059219
 30
0.0
 40
10.14510700719792
 50
29.10539351202679
 51
29.444711727542568
  0
ARC
  5
3196
  8
3
 10
110.98675021601029
 20
92.015111148025426
 30
0.0
 40
7.8640026876165532
 50
28.548489487604488
 51
28.995035910206159
  0
ARC
  5
3197
  8
3
 10
112.39751055079761
 20
92.799135607413021
 30
0.0
 40
6.2501021825366569
 50
27.842815228639441
 51
28.415642296623751
  0
ARC
  5
3198
  8
3
 10
113.23861942329999
 20
93.255324313078631
 30
0.0
 40
5.2933153069613459
 50
27.040876683096432
 51
27.728739923618189
  0
ARC
  5
3199
  8
3
 10
113.97927959213339
 20
93.64739367493317
 30
0.0
 40
4.4553948730623629
 50
26.04981850625439
 51
26.880309861304699
  0
ARC
  5
319A
  8
3
 10
114.4623175318643
 20
93.893424222657941
 30
0.0
 40
3.9133927458498561
 50
24.958520935692679
 51
25.919373091452989
  0
ARC
  5
319B
  8
3
 10
114.9010156143699
 20
94.10760779959385
 30
0.0
 40
3.4252978058166281
 50
23.69086169532433
 51
24.806841687821571
  0
ARC
  5
319C
  8
3
 10
115.0890236500464
 20
94.193863458908609
 30
0.0
 40
3.2184779999488069
 50
22.431394970127101
 51
23.629539461415231
  0
ARC
  5
319D
  8
3
 10
115.2378798890069
 20
94.263230468124334
 30
0.0
 40
3.0544245750604651
 50
21.022948625254731
 51
22.294114284313402
  0
ARC
  5
319E
  8
3
 10
115.4930471176442
 20
94.370155704745372
 30
0.0
 40
2.7778958396687168
 50
19.411123118673771
 51
20.85239959714233
  0
ARC
  5
319F
  8
3
 10
115.6955304162172
 20
94.441133128336077
 30
0.0
 40
2.5633331514435782
 50
17.795101677187269
 51
19.418973646652571
  0
ARC
  5
31A0
  8
3
 10
115.0961529611197
 20
94.2166617601209
 30
0.0
 40
3.202781016655869
 50
17.11133990677401
 51
18.3416944935312
  0
ARC
  5
31A1
  8
3
 10
112.21495146237901
 20
93.318593191178209
 30
0.0
 40
6.2206928094520668
 50
16.631552086784708
 51
17.208795852341702
  0
ARC
  5
31A2
  8
3
 10
115.030904221914
 20
94.214318849867865
 30
0.0
 40
3.2665924887651538
 50
14.26170950117141
 51
15.714487832191519
  0
ARC
  5
31A3
  8
3
 10
114.51888402998181
 20
94.064105475165661
 30
0.0
 40
3.799887550673458
 50
12.584490127383139
 51
14.55493831305327
  0
ARC
  5
31A4
  8
3
 10
107.4334202778299
 20
92.324252470488261
 30
0.0
 40
11.095278758365531
 50
12.487692275366591
 51
13.38121565881219
  0
LINE
  5
31A5
  8
3
 10
118.2662122355067
 20
94.723383381366233
 30
0.0
 11
118.26377223550681
 21
94.710683381366223
 31
0.0
  0
ARC
  5
31A6
  8
3
 10
161.6922546100385
 20
86.362914422752056
 30
0.0
 40
44.223504247644343
 50
169.11938684338671
 51
169.13621553053201
  0
ARC
  5
31A7
  8
3
 10
162.68981862284781
 20
86.161346299807974
 30
0.0
 40
45.24118154736891
 50
169.123626972652
 51
169.1401503878856
  0
ARC
  5
31A8
  8
3
 10
162.9250037988086
 20
86.114132152468045
 30
0.0
 40
45.48105032341504
 50
169.1375577906002
 51
169.15408180170979
  0
ARC
  5
31A9
  8
3
 10
162.4298238676231
 20
86.209314460874964
 30
0.0
 40
44.976805598955437
 50
169.15447007000159
 51
169.17127306571939
  0
ARC
  5
31AA
  8
3
 10
163.9188952246667
 20
85.906106361454178
 30
0.0
 40
46.496329686375162
 50
169.1490289058205
 51
169.1652742990149
  0
ARC
  5
31AB
  8
3
 10
167.2634098564381
 20
85.303300386104951
 30
0.0
 40
49.894550214637327
 50
169.20733848690301
 51
169.22243477886721
  0
ARC
  5
31AC
  8
3
 10
163.5756203924438
 20
85.984748800540643
 30
0.0
 40
46.144387164302557
 50
169.19738257342021
 51
169.2140235137561
  0
ARC
  5
31AD
  8
3
 10
157.24346856720561
 20
87.197065327346337
 30
0.0
 40
39.697231379288702
 50
169.22253060857551
 51
169.24238520040899
  0
ARC
  5
31AE
  8
3
 10
166.84859376186071
 20
85.385446875243048
 30
0.0
 40
49.471700906899201
 50
169.2575112623112
 51
169.27249594209749
  0
ARC
  5
31AF
  8
3
 10
250.30724322225541
 20
69.462179522612004
 30
0.0
 40
134.4357647763924
 50
169.22555680057579
 51
169.23055072363579
  0
ARC
  5
31B0
  8
3
 10
158.199347814264
 20
87.03011688299074
 30
0.0
 40
40.667489899501362
 50
169.29741727038959
 51
169.3186801695538
  0
ARC
  5
31B1
  8
3
 10
153.94008410036119
 20
87.819007313758945
 30
0.0
 40
36.335810170100679
 50
169.29626224907051
 51
169.33300105888389
  0
ARC
  5
31B2
  8
3
 10
214.25189514394779
 20
76.421976708131865
 30
0.0
 40
97.715011591655227
 50
169.31169797928439
 51
169.32960705856021
  0
LINE
  5
31B3
  8
0
 10
121.52412223550679
 20
95.797242381366232
 30
0.0
 11
121.5224022355068
 21
95.85698838136625
 31
0.0
  0
ARC
  5
31B4
  8
0
 10
120.5892466908075
 20
95.8022618812399
 30
0.0
 40
0.9347589317140045
 50
3.3563643350865231
 51
7.087888358920817
  0
ARC
  5
31B5
  8
0
 10
120.5082129210984
 20
95.793511918281268
 30
0.0
 40
1.0162539695701449
 50
7.0137043902577698
 51
10.52700162196734
  0
ARC
  5
31B6
  8
0
 10
120.4681384301195
 20
95.786340767087324
 30
0.0
 40
1.056964159524219
 50
10.512305232589769
 51
13.95826198853055
  0
ARC
  5
31B7
  8
0
 10
120.5020444180728
 20
95.790274335560554
 30
0.0
 40
1.023119817239891
 50
14.20249539220843
 51
17.82647658228565
  0
ARC
  5
31B8
  8
0
 10
120.50889543580379
 20
95.792337292841466
 30
0.0
 40
1.0159661951879699
 50
17.834001269924219
 51
21.53935717964767
  0
ARC
  5
31B9
  8
0
 10
120.5084384893199
 20
95.789722420163827
 30
0.0
 40
1.0173537763588341
 50
21.666890461292919
 51
25.419402291737011
  0
ARC
  5
31BA
  8
0
 10
120.50549805346741
 20
95.788445897101951
 30
0.0
 40
1.0205574904747681
 50
25.413270905076391
 51
29.19689074609493
  0
ARC
  5
31BB
  8
0
 10
120.5139217314002
 20
95.790051490476586
 30
0.0
 40
1.012424445355983
 50
29.350119663501872
 51
33.20104818141872
  0
ARC
  5
31BC
  8
0
 10
120.5126313100897
 20
95.79010165585845
 30
0.0
 40
1.0134770179076451
 50
33.158727876506347
 51
37.031721836979052
  0
ARC
  5
31BD
  8
0
 10
120.5133699563401
 20
95.788016359202857
 30
0.0
 40
1.014145433765083
 50
37.150904451332231
 51
41.03899450028711
  0
ARC
  5
31BE
  8
0
 10
120.5183926893634
 20
95.792414527488461
 30
0.0
 40
1.0074692563325629
 50
41.03788058480756
 51
44.963699251266682
  0
ARC
  5
31BF
  8
0
 10
120.53216148859789
 20
95.803279144766734
 30
0.0
 40
0.9900516098235973
 50
45.081903659307208
 51
49.080584212057261
  0
ARC
  5
31C0
  8
0
 10
120.5185354225961
 20
95.793295117285069
 30
0.0
 40
1.006527898125801
 50
48.866732177588553
 51
52.779920132075489
  0
ARC
  5
31C1
  8
0
 10
120.4904350043229
 20
95.75432388403749
 30
0.0
 40
1.0545594013565771
 50
52.844899636875368
 51
56.545147242650913
  0
ARC
  5
31C2
  8
0
 10
120.5335298844135
 20
95.807612909348634
 30
0.0
 40
0.9863638753010288
 50
56.927239367186203
 51
60.904075070550562
  0
ARC
  5
31C3
  8
0
 10
120.5926912786374
 20
95.909533171354127
 30
0.0
 40
0.8685392766807106
 50
61.044886092182537
 51
65.605538897939425
  0
ARC
  5
31C4
  8
0
 10
120.50229974437229
 20
95.776718584628753
 30
0.0
 40
1.0271971382044851
 50
64.073275476659589
 51
67.69118505913643
  0
ARC
  5
31C5
  8
0
 10
120.10838230079941
 20
94.836485369660963
 30
0.0
 40
2.0465994394645848
 50
67.480598051049412
 51
69.120072405923963
  0
ARC
  5
31C6
  8
0
 10
120.57890347377609
 20
95.906162825239534
 30
0.0
 40
0.8814049207923266
 50
72.917670482074712
 51
77.599335240976316
  0
ARC
  5
31C7
  8
0
 10
120.596208079696
 20
95.997675023159076
 30
0.0
 40
0.7883164159563513
 50
77.399385017137575
 51
85.197116191994894
  0
ARC
  5
31C8
  8
0
 10
120.3942746333654
 20
94.830772127393445
 30
0.0
 40
1.9707502271422579
 50
82.186028607863221
 51
86.221902171937444
  0
LINE
  5
31CA
  8
3
 10
101.3568722355067
 20
84.069572381366257
 30
0.0
 11
102.2105622355068
 21
84.423895381366236
 31
0.0
  0
LINE
  5
31CC
  8
3
 10
102.33380223550679
 20
94.514774381366237
 30
0.0
 11
101.3568722355067
 21
95.009829381366217
 31
0.0
  0
LINE
  5
320B
  8
2
 10
107.0807565625326
 20
89.922239881366252
 30
0.0
 11
108.5241322355068
 21
92.422239881366437
 31
0.0
  0
LINE
  5
320C
  8
2
 10
120.5241322355059
 20
92.422239881366451
 30
0.0
 11
108.5241322355067
 21
92.422239881366451
 31
0.0
  0
LINE
  5
320D
  8
2
 10
121.0241322355063
 20
92.922239881366423
 30
0.0
 11
111.5241322355068
 21
92.922239881366437
 31
0.0
  0
LINE
  5
320E
  8
2
 10
120.5241322355059
 20
92.422239881366451
 30
0.0
 11
121.5241322355067
 21
93.422239881366451
 31
0.0
  0
LINE
  5
320F
  8
2
 10
110.65810683172241
 20
92.422239881366437
 30
0.0
 11
111.5241322355068
 21
92.922239881366394
 31
0.0
  0
LINE
  5
3210
  8
2
 10
120.5241322355059
 20
87.422239881366053
 30
0.0
 11
120.5241322355059
 21
92.422239881366451
 31
0.0
  0
LINE
  5
3211
  8
2
 10
110.65810683172241
 20
87.422239881366039
 30
0.0
 11
111.5241322355068
 21
86.922239881366067
 31
0.0
  0
LINE
  5
3212
  8
2
 10
111.5241322355068
 20
86.922239881366067
 30
0.0
 11
111.5241322355068
 21
92.922239881366437
 31
0.0
  0
LINE
  5
3213
  8
2
 10
107.0807565625326
 20
89.922239881366224
 30
0.0
 11
108.5241322355068
 21
87.422239881366039
 31
0.0
  0
LINE
  5
3214
  8
2
 10
108.5241322355068
 20
87.422239881366039
 30
0.0
 11
108.5241322355068
 21
92.422239881366437
 31
0.0
  0
LINE
  5
3215
  8
2
 10
120.5241322355059
 20
87.422239881366053
 30
0.0
 11
121.5241322355067
 21
86.422239881366039
 31
0.0
  0
LINE
  5
3216
  8
2
 10
121.0241322355063
 20
86.922239881366096
 30
0.0
 11
111.5241322355068
 21
86.922239881366096
 31
0.0
  0
LINE
  5
3217
  8
2
 10
120.5241322355059
 20
87.422239881366053
 30
0.0
 11
108.5241322355067
 21
87.422239881366053
 31
0.0
  0
TEXT
  5
3355
  8
0
 62
     3
 10
0.0
 20
0.0
 30
0.0
 40
10.0
  1
WK50A-SUS
  7
STANDARD1
  0
ENDSEC
  0
EOF
