  0
SECTION
  2
HEADER
  9
$ACADVER
  1
AC1009
  9
$INSBASE
 10
0.0
 20
0.0
 30
0.0
  9
$EXTMIN
 10
0.0
 20
-1.4802182810368341
 30
0.0
  9
$EXTMAX
 10
287.00749895957807
 20
209.0283283352482
 30
0.0
  9
$LIMMIN
 10
0.0
 20
0.0
  9
$LIMMAX
 10
385.0
 20
270.0
  9
$ORTHOMODE
 70
     1
  9
$REGENMODE
 70
     1
  9
$FILLMODE
 70
     1
  9
$QTEXTMODE
 70
     0
  9
$MIRRTEXT
 70
     0
  9
$DRAGMODE
 70
     2
  9
$LTSCALE
 40
10.0
  9
$OSMODE
 70
    55
  9
$ATTMODE
 70
     1
  9
$TEXTSIZE
 40
4.000000000000048
  9
$TRACEWID
 40
0.05
  9
$TEXTSTYLE
  7
STANDARD
  9
$CLAYER
  8
0
  9
$CELTYPE
  6
BYLAYER
  9
$CECOLOR
 62
   256
  9
$DIMSCALE
 40
1.0
  9
$DIMASZ
 40
3.0
  9
$DIMEXO
 40
2.0
  9
$DIMDLI
 40
0.38
  9
$DIMRND
 40
0.0
  9
$DIMDLE
 40
0.0
  9
$DIMEXE
 40
2.0
  9
$DIMTP
 40
0.0
  9
$DIMTM
 40
0.0
  9
$DIMTXT
 40
3.0
  9
$DIMCEN
 40
0.0
  9
$DIMTSZ
 40
0.0
  9
$DIMTOL
 70
     0
  9
$DIMLIM
 70
     0
  9
$DIMTIH
 70
     0
  9
$DIMTOH
 70
     0
  9
$DIMSE1
 70
     0
  9
$DIMSE2
 70
     0
  9
$DIMTAD
 70
     1
  9
$DIMZIN
 70
     0
  9
$DIMBLK
  1

  9
$DIMASO
 70
     1
  9
$DIMSHO
 70
     0
  9
$DIMPOST
  1

  9
$DIMAPOST
  1

  9
$DIMALT
 70
     0
  9
$DIMALTD
 70
     2
  9
$DIMALTF
 40
25.399999999999999
  9
$DIMLFAC
 40
1.0
  9
$DIMTOFL
 70
     1
  9
$DIMTVP
 40
1.6000000000000001
  9
$DIMTIX
 70
     1
  9
$DIMSOXD
 70
     0
  9
$DIMSAH
 70
     0
  9
$DIMBLK1
  1

  9
$DIMBLK2
  1

  9
$DIMSTYLE
  2
STANDARD
  9
$DIMCLRD
 70
     0
  9
$DIMCLRE
 70
     0
  9
$DIMCLRT
 70
     0
  9
$DIMTFAC
 40
1.0
  9
$DIMGAP
 40
1.0
  9
$LUNITS
 70
     2
  9
$LUPREC
 70
     4
  9
$SKETCHINC
 40
0.1
  9
$FILLETRAD
 40
0.0
  9
$AUNITS
 70
     0
  9
$AUPREC
 70
     4
  9
$MENU
  1
E:\r13\win\SUPPORT\ACAD
  9
$ELEVATION
 40
0.0
  9
$PELEVATION
 40
0.0
  9
$THICKNESS
 40
0.0
  9
$LIMCHECK
 70
     0
  9
$BLIPMODE
 70
     0
  9
$CHAMFERA
 40
0.0
  9
$CHAMFERB
 40
0.0
  9
$SKPOLY
 70
     0
  9
$TDCREATE
 40
2450280.598206134
  9
$TDUPDATE
 40
2456598.3911883682
  9
$TDINDWG
 40
0.0307199653
  9
$TDUSRTIMER
 40
0.0307199653
  9
$USRTIMER
 70
     1
  9
$ANGBASE
 50
0.0
  9
$ANGDIR
 70
     0
  9
$PDMODE
 70
     0
  9
$PDSIZE
 40
0.0
  9
$PLINEWID
 40
0.0
  9
$COORDS
 70
     1
  9
$SPLFRAME
 70
     0
  9
$SPLINETYPE
 70
     6
  9
$SPLINESEGS
 70
     8
  9
$ATTDIA
 70
     0
  9
$ATTREQ
 70
     1
  9
$HANDLING
 70
     1
  9
$HANDSEED
  5
7AC
  9
$SURFTAB1
 70
     6
  9
$SURFTAB2
 70
     6
  9
$SURFTYPE
 70
     6
  9
$SURFU
 70
     6
  9
$SURFV
 70
     6
  9
$UCSNAME
  2

  9
$UCSORG
 10
0.0
 20
0.0
 30
0.0
  9
$UCSXDIR
 10
1.0
 20
0.0
 30
0.0
  9
$UCSYDIR
 10
0.0
 20
1.0
 30
0.0
  9
$PUCSNAME
  2

  9
$PUCSORG
 10
0.0
 20
0.0
 30
0.0
  9
$PUCSXDIR
 10
1.0
 20
0.0
 30
0.0
  9
$PUCSYDIR
 10
0.0
 20
1.0
 30
0.0
  9
$USERI1
 70
     3
  9
$USERI2
 70
     1
  9
$USERI3
 70
     1
  9
$USERI4
 70
     0
  9
$USERI5
 70
     0
  9
$USERR1
 40
1.0
  9
$USERR2
 40
3.0
  9
$USERR3
 40
3.0
  9
$USERR4
 40
3.0
  9
$USERR5
 40
10.0
  9
$WORLDVIEW
 70
     1
  9
$SHADEDGE
 70
     3
  9
$SHADEDIF
 70
    70
  9
$TILEMODE
 70
     1
  9
$MAXACTVP
 70
    16
  9
$PLIMCHECK
 70
     0
  9
$PEXTMIN
 10
1.0000000000000000E+020
 20
1.0000000000000000E+020
 30
1.0000000000000000E+020
  9
$PEXTMAX
 10
-1.0000000000000000E+020
 20
-1.0000000000000000E+020
 30
-1.0000000000000000E+020
  9
$PLIMMIN
 10
0.0
 20
0.0
  9
$PLIMMAX
 10
12.0
 20
9.0
  9
$UNITMODE
 70
     0
  9
$VISRETAIN
 70
     0
  9
$PLINEGEN
 70
     0
  9
$PSLTSCALE
 70
     0
  0
ENDSEC
  0
SECTION
  2
TABLES
  0
TABLE
  2
VPORT
 70
     1
  0
VPORT
  2
*ACTIVE
 70
     0
 10
0.0
 20
0.0
 11
1.0
 21
1.0
 12
192.49412581440311
 22
197.44726035192559
 13
0.0
 23
0.0
 14
5.0
 24
5.0
 15
10.0
 25
10.0
 16
0.0
 26
0.0
 36
1.0
 17
0.0
 27
0.0
 37
0.0
 40
401.38042228973131
 41
1.7807262569832401
 42
50.0
 43
0.0
 44
0.0
 50
0.0
 51
0.0
 71
     0
 72
   500
 73
     1
 74
     0
 75
     0
 76
     0
 77
     0
 78
     2
  0
ENDTAB
  0
TABLE
  2
LTYPE
 70
     3
  0
LTYPE
  2
CONTINUOUS
 70
     0
  3
Solid Line
 72
    65
 73
     0
 40
0.0
  0
LTYPE
  2
CENTER
 70
     0
  3
____ _ ____ _ ____ _ ____ _ ____ _ ____ _ ____
 72
    65
 73
     4
 40
2.0
 49
1.25
 49
-0.25
 49
0.25
 49
-0.25
  0
LTYPE
  2
PHANTOM2
 70
     0
  3
___ _ _ ___ _ _ ___ _ _ ___ _ _
 72
    65
 73
     6
 40
1.25
 49
0.625
 49
-0.125
 49
0.125
 49
-0.125
 49
0.125
 49
-0.125
  0
ENDTAB
  0
TABLE
  2
LAYER
 70
     2
  0
LAYER
  2
0
 70
     0
 62
     7
  6
CONTINUOUS
  0
LAYER
  2
1
 70
     0
 62
     1
  6
CENTER
  0
ENDTAB
  0
TABLE
  2
STYLE
 70
     2
  0
STYLE
  2
STANDARD
 70
     0
 40
0.0
 41
1.0
 50
0.0
 71
     0
 42
4.000000000000048
  3
SIMPLEX
  4
BIGFONT
  0
STYLE
  2
STANDARD1
 70
     0
 40
0.0
 41
1.0
 50
0.0
 71
     0
 42
3.0
  3
txt
  4

  0
ENDTAB
  0
TABLE
  2
VIEW
 70
     0
  0
ENDTAB
  0
TABLE
  2
UCS
 70
     0
  0
ENDTAB
  0
TABLE
  2
APPID
 70
     3
  0
APPID
  2
ACAD
 70
     0
  0
APPID
  2
ACAD_MLEADERVER
 70
     0
  0
APPID
  2
ACAD_NAV_VCDISPLAY
 70
     0
  0
ENDTAB
  0
TABLE
  2
DIMSTYLE
 70
     1
  0
DIMSTYLE
  2
STANDARD
 70
     0
  3

  4

  5

  6

  7

 40
1.0
 41
0.18
 42
0.0625
 43
0.38
 44
0.18
 45
0.0
 46
0.0
 47
0.0
 48
0.0
140
0.18
141
0.09
142
0.0
143
25.399999999999999
144
1.0
145
0.0
146
1.0
147
0.09
 71
     0
 72
     0
 73
     1
 74
     1
 75
     0
 76
     0
 77
     0
 78
     0
170
     0
171
     2
172
     0
173
     0
174
     0
175
     0
176
     0
177
     0
178
     0
  0
ENDTAB
  0
ENDSEC
  0
SECTION
  2
BLOCKS
  0
BLOCK
  8
0
  2
$MODEL_SPACE
 70
     0
 10
0.0
 20
0.0
 30
0.0
  3
$MODEL_SPACE
  1

  0
ENDBLK
  5
63C
  8
0
  0
BLOCK
 67
     1
  8
0
  2
$PAPER_SPACE
 70
     0
 10
0.0
 20
0.0
 30
0.0
  3
$PAPER_SPACE
  1

  0
ENDBLK
  5
63A
 67
     1
  8
0
  0
BLOCK
  8
0
  2
STDGX5
 70
     0
 10
0.0
 20
0.0
 30
0.0
  3
STDGX5
  1

  0
ENDBLK
  5
176
  8
0
  0
ENDSEC
  0
SECTION
  2
ENTITIES
  0
INSERT
  5
1A0
  8
0
  2
STDGX5
 10
0.0
 20
0.0
 30
0.0
 41
0.25
 42
0.25
 43
0.25
  0
INSERT
  5
1A1
  8
0
  2
STDGX5
 10
0.0
 20
0.0
 30
0.0
 41
0.25
 42
0.25
 43
0.25
  0
INSERT
  5
1A2
  8
0
  2
STDGX5
 10
68.75
 20
0.0
 30
0.0
 41
0.25
 42
0.25
 43
0.25
  0
INSERT
  5
1A3
  8
0
  2
STDGX5
 10
68.75
 20
0.0
 30
0.0
 41
0.25
 42
0.25
 43
0.25
  0
INSERT
  5
1A4
  8
0
  2
STDGX5
 10
0.0
 20
0.0
 30
0.0
 41
0.5
 42
0.5
 43
0.5
  0
INSERT
  5
1A5
  8
0
  2
STDGX5
 10
0.0
 20
0.0
 30
0.0
 41
0.5
 42
0.5
 43
0.5
  0
INSERT
  5
1A6
  8
0
  2
STDGX5
 10
137.5
 20
0.0
 30
0.0
 41
0.5
 42
0.5
 43
0.5
  0
INSERT
  5
1A7
  8
0
  2
STDGX5
 10
137.5
 20
0.0
 30
0.0
 41
0.5
 42
0.5
 43
0.5
  0
INSERT
  5
1A9
  8
0
  2
STDGX5
 10
-35.0
 20
-100.0
 30
0.0
 41
0.3333333333333333
 42
0.3333333333333333
 43
0.3333333333333333
  0
INSERT
  5
1AA
  8
0
  2
STDGX5
 10
-35.0
 20
-100.0
 30
0.0
 41
0.3333333333333333
 42
0.3333333333333333
 43
0.3333333333333333
  0
INSERT
  5
1AB
  8
0
  2
STDGX5
 10
56.666666666666643
 20
-100.0
 30
0.0
 41
0.3333333333333333
 42
0.3333333333333333
 43
0.3333333333333333
  0
INSERT
  5
1AC
  8
0
  2
STDGX5
 10
56.666666666666643
 20
-100.0
 30
0.0
 41
0.3333333333333333
 42
0.3333333333333333
 43
0.3333333333333333
  0
INSERT
  5
1AE
  8
0
  2
STDGX5
 10
-35.0
 20
-100.0
 30
0.0
 41
0.3333333333333333
 42
0.3333333333333333
 43
0.3333333333333333
  0
INSERT
  5
1AF
  8
0
  2
STDGX5
 10
-35.0
 20
-100.0
 30
0.0
 41
0.3333333333333333
 42
0.3333333333333333
 43
0.3333333333333333
  0
INSERT
  5
1B0
  8
0
  2
STDGX5
 10
56.666666666666657
 20
-100.0
 30
0.0
 41
0.3333333333333333
 42
0.3333333333333333
 43
0.3333333333333333
  0
INSERT
  5
1B1
  8
0
  2
STDGX5
 10
56.666666666666657
 20
-100.0
 30
0.0
 41
0.3333333333333333
 42
0.3333333333333333
 43
0.3333333333333333
  0
INSERT
  5
1B2
  8
0
  2
STDGX5
 10
0.0
 20
0.0
 30
0.0
  0
INSERT
  5
1B3
  8
0
  2
STDGX5
 10
0.0
 20
0.0
 30
0.0
  0
INSERT
  5
1B4
  8
0
  2
STDGX5
 10
275.0
 20
0.0
 30
0.0
  0
INSERT
  5
1B5
  8
0
  2
STDGX5
 10
275.0
 20
0.0
 30
0.0
  0
INSERT
  5
3D9
  8
0
  2
STDGX5
 10
0.0
 20
0.0
 30
0.0
 41
0.25
 42
0.25
 43
0.25
  0
INSERT
  5
3DA
  8
0
  2
STDGX5
 10
0.0
 20
0.0
 30
0.0
 41
0.25
 42
0.25
 43
0.25
  0
INSERT
  5
3DB
  8
0
  2
STDGX5
 10
68.75
 20
0.0
 30
0.0
 41
0.25
 42
0.25
 43
0.25
  0
INSERT
  5
3DC
  8
0
  2
STDGX5
 10
68.75
 20
0.0
 30
0.0
 41
0.25
 42
0.25
 43
0.25
  0
INSERT
  5
3DD
  8
0
  2
STDGX5
 10
0.0
 20
0.0
 30
0.0
 41
0.5
 42
0.5
 43
0.5
  0
INSERT
  5
3DE
  8
0
  2
STDGX5
 10
0.0
 20
0.0
 30
0.0
 41
0.5
 42
0.5
 43
0.5
  0
INSERT
  5
3DF
  8
0
  2
STDGX5
 10
137.5
 20
0.0
 30
0.0
 41
0.5
 42
0.5
 43
0.5
  0
INSERT
  5
3E0
  8
0
  2
STDGX5
 10
137.5
 20
0.0
 30
0.0
 41
0.5
 42
0.5
 43
0.5
  0
INSERT
  5
3E2
  8
0
  2
STDGX5
 10
-35.0
 20
-100.0
 30
0.0
 41
0.3333333333333333
 42
0.3333333333333333
 43
0.3333333333333333
  0
INSERT
  5
3E3
  8
0
  2
STDGX5
 10
-35.0
 20
-100.0
 30
0.0
 41
0.3333333333333333
 42
0.3333333333333333
 43
0.3333333333333333
  0
INSERT
  5
3E4
  8
0
  2
STDGX5
 10
56.666666666666643
 20
-100.0
 30
0.0
 41
0.3333333333333333
 42
0.3333333333333333
 43
0.3333333333333333
  0
INSERT
  5
3E5
  8
0
  2
STDGX5
 10
56.666666666666643
 20
-100.0
 30
0.0
 41
0.3333333333333333
 42
0.3333333333333333
 43
0.3333333333333333
  0
INSERT
  5
3E7
  8
0
  2
STDGX5
 10
-35.0
 20
-100.0
 30
0.0
 41
0.3333333333333333
 42
0.3333333333333333
 43
0.3333333333333333
  0
INSERT
  5
3E8
  8
0
  2
STDGX5
 10
-35.0
 20
-100.0
 30
0.0
 41
0.3333333333333333
 42
0.3333333333333333
 43
0.3333333333333333
  0
INSERT
  5
3E9
  8
0
  2
STDGX5
 10
56.666666666666657
 20
-100.0
 30
0.0
 41
0.3333333333333333
 42
0.3333333333333333
 43
0.3333333333333333
  0
INSERT
  5
3EA
  8
0
  2
STDGX5
 10
56.666666666666657
 20
-100.0
 30
0.0
 41
0.3333333333333333
 42
0.3333333333333333
 43
0.3333333333333333
  0
INSERT
  5
3EB
  8
0
  2
STDGX5
 10
0.0
 20
0.0
 30
0.0
  0
INSERT
  5
3EC
  8
0
  2
STDGX5
 10
0.0
 20
0.0
 30
0.0
  0
INSERT
  5
3ED
  8
0
  2
STDGX5
 10
275.0
 20
0.0
 30
0.0
  0
INSERT
  5
3EE
  8
0
  2
STDGX5
 10
275.0
 20
0.0
 30
0.0
  0
LINE
  5
50B
  8
0
 10
183.58427776138569
 20
142.71114874558651
 30
0.0
 11
183.58427776138569
 21
129.71114874558651
 31
0.0
  0
LINE
  5
50C
  8
1
 10
144.58427776138549
 20
136.21114874558651
 30
0.0
 11
210.58427776138601
 21
136.21114874558651
 31
0.0
  0
LINE
  5
50D
  8
0
 10
151.38427776138579
 20
139.21114874558651
 30
0.0
 11
155.58427776138561
 21
139.21114874558651
 31
0.0
  0
LINE
  5
50E
  8
0
 10
184.08427776138569
 20
143.21114874558651
 30
0.0
 11
192.58427776138569
 21
143.21114874558651
 31
0.0
  0
LINE
  5
50F
  8
0
 10
184.08427776138569
 20
129.21114874558651
 30
0.0
 11
192.58427776138569
 21
129.21114874558651
 31
0.0
  0
LINE
  5
510
  8
0
 10
151.38427776138579
 20
133.21114874558651
 30
0.0
 11
155.58427776138561
 21
133.21114874558651
 31
0.0
  0
LINE
  5
511
  8
0
 10
155.58427776138561
 20
142.2111487455866
 30
0.0
 11
155.58427776138561
 21
130.21114874558651
 31
0.0
  0
LINE
  5
512
  8
0
 10
205.58427776138601
 20
147.2111487455868
 30
0.0
 11
205.58427776138601
 21
140.81114874558119
 31
0.0
  0
LINE
  5
513
  8
0
 10
201.08427776138601
 20
147.71114874558651
 30
0.0
 11
201.08427776138609
 21
124.7111487455866
 31
0.0
  0
LINE
  5
514
  8
0
 10
192.58427776138569
 20
143.21114874558651
 30
0.0
 11
192.58427776138569
 21
129.21114874558651
 31
0.0
  0
LINE
  5
515
  8
0
 10
199.58427776138569
 20
148.71114874558651
 30
0.0
 11
199.58427776138569
 21
123.7111487455865
 31
0.0
  0
LINE
  5
516
  8
0
 10
192.58427776138569
 20
143.21114874558651
 30
0.0
 11
199.58427776138569
 21
148.71114874558651
 31
0.0
  0
LINE
  5
517
  8
0
 10
192.58427776138569
 20
129.21114874558651
 30
0.0
 11
199.58427776138569
 21
123.7111487455865
 31
0.0
  0
LINE
  5
518
  8
0
 10
205.08427776138601
 20
124.7111487455864
 30
0.0
 11
201.08427776138601
 21
124.7111487455864
 31
0.0
  0
LINE
  5
519
  8
0
 10
205.08427776138601
 20
147.7111487455868
 30
0.0
 11
201.08427776138601
 21
147.71114874558671
 31
0.0
  0
LINE
  5
51A
  8
0
 10
184.08427776138569
 20
143.21114874558651
 30
0.0
 11
184.08427776138569
 21
129.21114874558651
 31
0.0
  0
LINE
  5
51B
  8
0
 10
184.08427776138569
 20
129.21114874558651
 30
0.0
 11
183.58427776138569
 21
129.7111487455866
 31
0.0
  0
LINE
  5
51C
  8
0
 10
184.08427776138569
 20
143.21114874558651
 30
0.0
 11
183.58427776138569
 21
142.71114874558651
 31
0.0
  0
ARC
  5
51D
  8
0
 10
205.08427776138601
 20
147.2111487455868
 30
0.0
 40
0.5
 50
0.0
 51
90.000000000000298
  0
ARC
  5
51E
  8
0
 10
205.08427776138601
 20
125.2111487455864
 30
0.0
 40
0.5
 50
269.99999999999972
 51
0.0
  0
ARC
  5
51F
  8
0
 10
199.58427776138569
 20
125.3361487455872
 30
0.0
 40
1.6250000000006251
 50
269.99999999985567
 51
337.38013505208647
  0
ARC
  5
520
  8
0
 10
199.58427776138569
 20
147.08614874558589
 30
0.0
 40
1.6250000000006251
 50
22.619864947913459
 51
90.000000000144311
  0
ARC
  5
521
  8
0
 10
205.58427776138001
 20
136.2111487455868
 30
0.0
 40
0.5999999999997954
 50
89.999999999424574
 51
270.00000000057543
  0
ARC
  5
522
  8
0
 10
205.58427776138001
 20
132.21114874559009
 30
0.0
 40
0.5999999999997954
 50
89.999999999424574
 51
270.00000000057543
  0
ARC
  5
523
  8
0
 10
205.58427776138601
 20
140.21114874558671
 30
0.0
 40
0.5999999999997954
 50
89.999999999424574
 51
270.00000000057543
  0
LINE
  5
524
  8
0
 10
205.58427776138601
 20
139.61114874559229
 30
0.0
 11
205.58427776138609
 21
136.81114874559029
 31
0.0
  0
LINE
  5
525
  8
0
 10
205.58427776138609
 20
135.61114874558319
 30
0.0
 11
205.58427776138601
 21
132.81114874558151
 31
0.0
  0
LINE
  5
526
  8
0
 10
205.58427776138601
 20
131.6111487455986
 30
0.0
 11
205.58427776138601
 21
125.2111487455864
 31
0.0
  0
CIRCLE
  5
527
  8
0
 10
269.50749895957853
 20
136.21114874558651
 30
0.0
 40
12.499999999999631
  0
LINE
  5
528
  8
1
 10
269.50749895957853
 20
118.7111487455869
 30
0.0
 11
269.50749895957853
 21
153.7111487455862
 31
0.0
  0
LINE
  5
529
  8
1
 10
287.00749895957807
 20
136.21114874558651
 30
0.0
 11
252.0074989595789
 21
136.21114874558651
 31
0.0
  0
CIRCLE
  5
52A
  8
0
 10
269.50749895957853
 20
136.21114874558651
 30
0.0
 40
11.500000000000229
  0
LINE
  5
52B
  8
0
 10
258.96757486118031
 20
140.81114874558719
 30
0.0
 11
280.0474230579768
 21
140.81114874558719
 31
0.0
  0
LINE
  5
52C
  8
0
 10
258.52159890541748
 20
139.61114874558621
 30
0.0
 11
280.49339901373912
 21
139.61114874558621
 31
0.0
  0
LINE
  5
52D
  8
0
 10
258.0231617997764
 20
136.81114874558421
 30
0.0
 11
280.99183611938031
 21
136.81114874558421
 31
0.0
  0
LINE
  5
52E
  8
0
 10
258.0231617997764
 20
135.61114874558939
 30
0.0
 11
280.99183611938042
 21
135.6111487455893
 31
0.0
  0
LINE
  5
52F
  8
0
 10
258.5215989054177
 20
132.8111487455875
 30
0.0
 11
280.49339901373918
 21
132.8111487455875
 31
0.0
  0
LINE
  5
530
  8
0
 10
258.96757486117718
 20
131.6111487455926
 30
0.0
 11
280.04742305797981
 21
131.6111487455926
 31
0.0
  0
LINE
  5
531
  8
0
 10
151.38427776138579
 20
133.21114874558651
 30
0.0
 11
151.38427776138579
 21
139.2111487455866
 31
0.0
  0
LINE
  5
532
  8
0
 10
151.38427776138579
 20
133.21114874558651
 30
0.0
 11
150.00320315618819
 21
134.00851254066839
 31
0.0
  0
LINE
  5
533
  8
0
 10
151.38427776138579
 20
139.21114874558651
 30
0.0
 11
150.0032031561885
 21
138.41378495050489
 31
0.0
  0
ARC
  5
534
  8
0
 10
155.58427776138581
 20
136.21114874558651
 30
0.0
 40
6.0
 50
158.46275075361859
 51
201.53724924637871
  0
LINE
  5
535
  8
0
 10
150.0032031561876
 20
134.0085125406687
 30
0.0
 11
150.0032031561876
 21
138.41378495050441
 31
0.0
  0
CIRCLE
  5
536
  8
0
 10
91.327922569417964
 20
136.21114874558651
 30
0.0
 40
12.499999999999631
  0
LINE
  5
537
  8
1
 10
108.82792256941759
 20
136.21114874558651
 30
0.0
 11
73.82792256941832
 21
136.21114874558651
 31
0.0
  0
LINE
  5
538
  8
1
 10
91.327922569417964
 20
153.71114874558609
 30
0.0
 11
91.327922569417964
 21
118.7111487455869
 31
0.0
  0
CIRCLE
  5
539
  8
0
 10
91.327922569417964
 20
136.21114874558651
 30
0.0
 40
7.0000000000000284
  0
CIRCLE
  5
53A
  8
0
 10
91.327922569417964
 20
136.21114874558651
 30
0.0
 40
3.0
  0
CIRCLE
  5
53B
  8
0
 10
91.327922569417964
 20
136.21114874558651
 30
0.0
 40
2.2026362049170838
  0
LINE
  5
53C
  8
0
 10
156.58427776138561
 20
143.21114874558651
 30
0.0
 11
182.58427776138569
 21
143.21114874558651
 31
0.0
  0
LINE
  5
53D
  8
0
 10
156.58427776138561
 20
129.21114874558651
 30
0.0
 11
182.58427776138569
 21
129.21114874558651
 31
0.0
  0
LINE
  5
53E
  8
0
 10
156.58427776138561
 20
143.21114874558651
 30
0.0
 11
155.58427776138561
 21
142.2111487455866
 31
0.0
  0
LINE
  5
53F
  8
0
 10
155.58427776138561
 20
130.21114874558651
 30
0.0
 11
156.58427776138561
 21
129.21114874558651
 31
0.0
  0
LINE
  5
540
  8
0
 10
182.58427776138569
 20
143.21114874558651
 30
0.0
 11
183.58427776138569
 21
142.2111487455866
 31
0.0
  0
LINE
  5
541
  8
0
 10
183.58427776138569
 20
130.21114874558651
 30
0.0
 11
182.58427776138569
 21
129.21114874558651
 31
0.0
  0
LINE
  5
542
  8
0
 10
156.58427776138561
 20
143.21114874558651
 30
0.0
 11
156.58427776138561
 21
129.21114874558651
 31
0.0
  0
LINE
  5
543
  8
0
 10
182.58427776138569
 20
129.21114874558651
 30
0.0
 11
182.58427776138569
 21
143.21114874558651
 31
0.0
  0
POLYLINE
  5
544
  8
0
 66
     1
 10
0.0
 20
0.0
 30
0.0
  0
VERTEX
  5
545
  8
0
 10
204.98427776138021
 20
185.74870513396121
 30
0.0
  0
VERTEX
  5
546
  8
0
 10
204.9918799040552
 20
185.7860408256044
 30
0.0
  0
VERTEX
  5
547
  8
0
 10
205.0170332606412
 20
185.82580487130869
 30
0.0
  0
VERTEX
  5
548
  8
0
 10
205.07130023004959
 20
185.87236352827719
 30
0.0
 42
-0.048443127698431
  0
VERTEX
  5
549
  8
0
 10
205.16001369266991
 20
185.91819799505839
 30
0.0
 42
-0.0270168651307056
 70
     2
 50
21.776634895216869
  0
VERTEX
  5
54A
  8
0
 10
205.24938234129041
 20
185.94841542600659
 30
0.0
  0
VERTEX
  5
54B
  8
0
 10
205.3396172201094
 20
185.96829801709029
 30
0.0
 42
-0.0199340369257074
  0
VERTEX
  5
54C
  8
0
 10
205.46326002585531
 20
185.98343998152151
 30
0.0
 42
-0.0205018244111976
  0
VERTEX
  5
54D
  8
0
 10
205.58427776138601
 20
185.98840423685019
 30
0.0
 42
-0.0205018244113817
  0
SEQEND
  5
54E
  8
0
  0
POLYLINE
  5
54F
  8
0
 66
     1
 10
0.0
 20
0.0
 30
0.0
  0
VERTEX
  5
550
  8
0
 10
205.58427776138601
 20
185.54242828108809
 30
0.0
  0
VERTEX
  5
551
  8
0
 10
205.4637591888511
 20
185.54669199867899
 30
0.0
 42
-0.0169526581580364
  0
VERTEX
  5
552
  8
0
 10
205.33865728281609
 20
185.55982922986991
 30
0.0
  0
VERTEX
  5
553
  8
0
 10
205.24965673232921
 20
185.57670713947749
 30
0.0
 42
-0.023714783381983
  0
VERTEX
  5
554
  8
0
 10
205.16001369266991
 20
185.60284537249279
 30
0.0
 42
-0.0452343338686246
 70
     2
 50
161.02729894572721
  0
VERTEX
  5
555
  8
0
 10
205.0666690494343
 20
185.64470341696219
 30
0.0
  0
VERTEX
  5
556
  8
0
 10
205.01432914131721
 20
185.68470870826141
 30
0.0
  0
VERTEX
  5
557
  8
0
 10
204.99111930615021
 20
185.7180397101861
 30
0.0
  0
VERTEX
  5
558
  8
0
 10
204.98427776138021
 20
185.74870513396121
 30
0.0
  0
SEQEND
  5
559
  8
0
  0
POLYLINE
  5
55A
  8
0
 66
     1
 10
0.0
 20
0.0
 30
0.0
  0
VERTEX
  5
55B
  8
0
 10
205.58427776138601
 20
207.5142283894082
 30
0.0
  0
VERTEX
  5
55C
  8
0
 10
205.4637591888511
 20
207.5099646718173
 30
0.0
 42
0.0169526581580364
  0
VERTEX
  5
55D
  8
0
 10
205.33865728281609
 20
207.49682744062639
 30
0.0
  0
VERTEX
  5
55E
  8
0
 10
205.24965673232921
 20
207.4799495310188
 30
0.0
 42
0.023714783381983
  0
VERTEX
  5
55F
  8
0
 10
205.16001369266991
 20
207.4538112980035
 30
0.0
 42
0.0452343338686246
 70
     2
 50
198.97270105427279
  0
VERTEX
  5
560
  8
0
 10
205.0666690494343
 20
207.41195325353411
 30
0.0
 50
198.9727010542727
  0
VERTEX
  5
561
  8
0
 10
205.01432914131721
 20
207.37194796223491
 30
0.0
 50
198.9727010542727
  0
VERTEX
  5
562
  8
0
 10
204.99111930615021
 20
207.33861696031019
 30
0.0
 50
198.9727010542727
  0
VERTEX
  5
563
  8
0
 10
204.98427776138021
 20
207.30795153653511
 30
0.0
  0
SEQEND
  5
564
  8
0
  0
POLYLINE
  5
565
  8
0
 66
     1
 10
0.0
 20
0.0
 30
0.0
  0
VERTEX
  5
566
  8
0
 10
204.98427776138021
 20
207.30795153653511
 30
0.0
  0
VERTEX
  5
567
  8
0
 10
204.9918799040552
 20
207.27061584489189
 30
0.0
  0
VERTEX
  5
568
  8
0
 10
205.0170332606412
 20
207.2308517991876
 30
0.0
  0
VERTEX
  5
569
  8
0
 10
205.07130023004959
 20
207.1842931422191
 30
0.0
 42
0.048443127698431
  0
VERTEX
  5
56A
  8
0
 10
205.16001369266991
 20
207.13845867543799
 30
0.0
 42
0.0270168651307056
 70
     2
 50
338.22336510478311
  0
VERTEX
  5
56B
  8
0
 10
205.24938234129041
 20
207.1082412444897
 30
0.0
 50
338.22336510478311
  0
VERTEX
  5
56C
  8
0
 10
205.3396172201094
 20
207.088358653406
 30
0.0
 42
0.0199340369257074
 50
338.22336510478311
  0
VERTEX
  5
56D
  8
0
 10
205.46326002585531
 20
207.07321668897481
 30
0.0
 42
0.0205018244111976
 50
338.22336510478311
  0
VERTEX
  5
56E
  8
0
 10
205.58427776138601
 20
207.06825243364611
 30
0.0
 42
0.0205018244113817
  0
SEQEND
  5
56F
  8
0
  0
LINE
  5
570
  8
0
 10
183.58427776138569
 20
203.02832833524809
 30
0.0
 11
183.58427776138569
 21
190.0283283352482
 31
0.0
  0
LINE
  5
571
  8
1
 10
144.58427776138549
 20
196.5283283352482
 30
0.0
 11
210.58427776138601
 21
196.52832833524809
 31
0.0
  0
LINE
  5
572
  8
0
 10
151.38427776138579
 20
199.5283283352482
 30
0.0
 11
155.58427776138561
 21
199.5283283352482
 31
0.0
  0
LINE
  5
573
  8
0
 10
184.08427776138569
 20
203.5283283352482
 30
0.0
 11
192.58427776138569
 21
203.5283283352482
 31
0.0
  0
LINE
  5
574
  8
0
 10
184.08427776138569
 20
189.5283283352482
 30
0.0
 11
192.58427776138569
 21
189.5283283352482
 31
0.0
  0
LINE
  5
575
  8
0
 10
151.38427776138579
 20
193.5283283352482
 30
0.0
 11
155.58427776138561
 21
193.5283283352482
 31
0.0
  0
LINE
  5
576
  8
0
 10
201.08427776138601
 20
208.0283283352482
 30
0.0
 11
201.08427776138609
 21
185.0283283352482
 31
0.0
  0
LINE
  5
577
  8
0
 10
192.58427776138569
 20
203.5283283352482
 30
0.0
 11
192.58427776138569
 21
189.5283283352482
 31
0.0
  0
LINE
  5
578
  8
0
 10
199.58427776138569
 20
209.0283283352482
 30
0.0
 11
199.58427776138569
 21
184.0283283352482
 31
0.0
  0
LINE
  5
579
  8
0
 10
192.58427776138569
 20
203.5283283352482
 30
0.0
 11
199.58427776138569
 21
209.0283283352482
 31
0.0
  0
LINE
  5
57A
  8
0
 10
192.58427776138569
 20
189.5283283352482
 30
0.0
 11
199.58427776138569
 21
184.0283283352482
 31
0.0
  0
LINE
  5
57B
  8
0
 10
205.08427776138601
 20
185.02832833524801
 30
0.0
 11
201.08427776138601
 21
185.02832833524809
 31
0.0
  0
LINE
  5
57C
  8
0
 10
205.08427776138601
 20
208.0283283352484
 30
0.0
 11
201.08427776138601
 21
208.0283283352484
 31
0.0
  0
LINE
  5
57D
  8
0
 10
184.08427776138569
 20
203.5283283352482
 30
0.0
 11
184.08427776138569
 21
189.5283283352482
 31
0.0
  0
LINE
  5
57E
  8
0
 10
184.08427776138569
 20
189.5283283352482
 30
0.0
 11
183.58427776138569
 21
190.0283283352482
 31
0.0
  0
LINE
  5
57F
  8
0
 10
184.08427776138569
 20
203.5283283352482
 30
0.0
 11
183.58427776138569
 21
203.0283283352482
 31
0.0
  0
ARC
  5
580
  8
0
 10
205.08427776138601
 20
207.5283283352484
 30
0.0
 40
0.5
 50
0.0
 51
90.000000000000298
  0
ARC
  5
581
  8
0
 10
205.08427776138601
 20
185.52832833524801
 30
0.0
 40
0.5
 50
269.99999999999972
 51
0.0
  0
ARC
  5
582
  8
0
 10
199.58427776138569
 20
185.6533283352488
 30
0.0
 40
1.6250000000006251
 50
269.99999999985567
 51
337.38013505208647
  0
ARC
  5
583
  8
0
 10
199.58427776138569
 20
207.40332833524761
 30
0.0
 40
1.6250000000006251
 50
22.619864947913459
 51
90.000000000144311
  0
LINE
  5
584
  8
0
 10
151.38427776138579
 20
193.5283283352482
 30
0.0
 11
151.38427776138579
 21
199.5283283352482
 31
0.0
  0
LINE
  5
585
  8
0
 10
151.38427776138579
 20
193.5283283352482
 30
0.0
 11
150.00320315618819
 21
194.32569213033
 31
0.0
  0
LINE
  5
586
  8
0
 10
151.38427776138579
 20
199.5283283352482
 30
0.0
 11
150.0032031561885
 21
198.73096454016661
 31
0.0
  0
ARC
  5
587
  8
0
 10
155.58427776138581
 20
196.5283283352482
 30
0.0
 40
6.0
 50
158.46275075361859
 51
201.53724924637871
  0
LINE
  5
588
  8
0
 10
150.0032031561876
 20
194.3256921303304
 30
0.0
 11
150.0032031561876
 21
198.73096454016601
 31
0.0
  0
LINE
  5
589
  8
0
 10
205.58427776138601
 20
185.52832833524789
 30
0.0
 11
205.58427776138601
 21
185.54242828108801
 31
0.0
  0
LINE
  5
58A
  8
0
 10
205.58427776138601
 20
207.0682524336444
 30
0.0
 11
205.58427776138601
 21
185.9884042368507
 31
0.0
  0
LINE
  5
58B
  8
0
 10
205.58427776138601
 20
207.5283283352484
 30
0.0
 11
205.58427776138601
 21
207.51422838940829
 31
0.0
  0
LINE
  5
58C
  8
0
 10
205.58427776138601
 20
185.54242828108809
 30
0.0
 11
205.58427776138601
 21
185.52832833524801
 31
0.0
  0
LINE
  5
58D
  8
0
 10
182.58427776138569
 20
189.5283283352482
 30
0.0
 11
182.58427776138569
 21
203.5283283352482
 31
0.0
  0
LINE
  5
58E
  8
0
 10
156.58427776138561
 20
203.5283283352482
 30
0.0
 11
156.58427776138561
 21
189.5283283352482
 31
0.0
  0
LINE
  5
58F
  8
0
 10
155.58427776138561
 20
190.5283283352482
 30
0.0
 11
156.58427776138561
 21
189.5283283352482
 31
0.0
  0
LINE
  5
590
  8
0
 10
156.58427776138561
 20
203.5283283352482
 30
0.0
 11
155.58427776138561
 21
202.5283283352482
 31
0.0
  0
LINE
  5
591
  8
0
 10
156.58427776138561
 20
189.5283283352482
 30
0.0
 11
182.58427776138569
 21
189.5283283352482
 31
0.0
  0
LINE
  5
592
  8
0
 10
156.58427776138561
 20
203.5283283352482
 30
0.0
 11
182.58427776138569
 21
203.5283283352482
 31
0.0
  0
LINE
  5
593
  8
0
 10
155.58427776138561
 20
202.5283283352482
 30
0.0
 11
155.58427776138561
 21
190.5283283352482
 31
0.0
  0
LINE
  5
594
  8
0
 10
183.58427776138569
 20
190.5283283352482
 30
0.0
 11
182.58427776138569
 21
189.5283283352482
 31
0.0
  0
LINE
  5
595
  8
0
 10
182.58427776138569
 20
203.5283283352482
 30
0.0
 11
183.58427776138569
 21
202.5283283352482
 31
0.0
  0
LINE
  5
596
  8
0
 10
182.58427776138569
 20
68.893969155924935
 30
0.0
 11
183.58427776138569
 21
69.893969155924935
 31
0.0
  0
LINE
  5
597
  8
0
 10
183.58427776138569
 20
81.893969155924935
 30
0.0
 11
182.58427776138569
 21
82.893969155924935
 31
0.0
  0
LINE
  5
598
  8
0
 10
155.58427776138561
 20
69.893969155924935
 30
0.0
 11
155.58427776138561
 21
81.893969155924935
 31
0.0
  0
LINE
  5
599
  8
0
 10
156.58427776138561
 20
68.893969155924935
 30
0.0
 11
182.58427776138569
 21
68.893969155924935
 31
0.0
  0
LINE
  5
59A
  8
0
 10
156.58427776138561
 20
82.893969155924935
 30
0.0
 11
182.58427776138569
 21
82.893969155924935
 31
0.0
  0
LINE
  5
59B
  8
0
 10
156.58427776138561
 20
68.893969155924935
 30
0.0
 11
155.58427776138561
 21
69.893969155924935
 31
0.0
  0
LINE
  5
59C
  8
0
 10
155.58427776138561
 20
81.893969155924935
 30
0.0
 11
156.58427776138561
 21
82.893969155924935
 31
0.0
  0
LINE
  5
59D
  8
0
 10
156.58427776138561
 20
68.893969155924935
 30
0.0
 11
156.58427776138561
 21
82.893969155924935
 31
0.0
  0
LINE
  5
59E
  8
0
 10
182.58427776138569
 20
82.893969155924935
 30
0.0
 11
182.58427776138569
 21
68.893969155924935
 31
0.0
  0
LINE
  5
59F
  8
0
 10
205.58427776138601
 20
86.879869210085047
 30
0.0
 11
205.58427776138601
 21
86.893969155925134
 31
0.0
  0
LINE
  5
5A0
  8
0
 10
205.58427776138601
 20
64.893969155924708
 30
0.0
 11
205.58427776138601
 21
64.908069101764852
 31
0.0
  0
LINE
  5
5A1
  8
0
 10
205.58427776138601
 20
65.354045057528737
 30
0.0
 11
205.58427776138601
 21
86.433893254322413
 31
0.0
  0
LINE
  5
5A2
  8
0
 10
205.58427776138601
 20
86.893969155925234
 30
0.0
 11
205.58427776138601
 21
86.879869210085076
 31
0.0
  0
LINE
  5
5A3
  8
0
 10
150.0032031561876
 20
78.096605360842744
 30
0.0
 11
150.0032031561876
 21
73.69133295100707
 31
0.0
  0
ARC
  5
5A4
  8
0
 10
155.58427776138581
 20
75.893969155924935
 30
0.0
 40
6.0
 50
158.46275075362129
 51
201.53724924638141
  0
LINE
  5
5A5
  8
0
 10
151.38427776138579
 20
72.893969155924907
 30
0.0
 11
150.0032031561885
 21
73.691332951006558
 31
0.0
  0
LINE
  5
5A6
  8
0
 10
151.38427776138579
 20
78.893969155924964
 30
0.0
 11
150.00320315618819
 21
78.096605360843142
 31
0.0
  0
LINE
  5
5A7
  8
0
 10
151.38427776138579
 20
78.893969155924964
 30
0.0
 11
151.38427776138579
 21
72.893969155924907
 31
0.0
  0
ARC
  5
5A8
  8
0
 10
199.58427776138569
 20
65.018969155925532
 30
0.0
 40
1.6250000000006251
 50
269.99999999985567
 51
337.38013505208647
  0
ARC
  5
5A9
  8
0
 10
199.58427776138569
 20
86.768969155924253
 30
0.0
 40
1.6250000000006251
 50
22.61986494791347
 51
90.000000000144325
  0
ARC
  5
5AA
  8
0
 10
205.08427776138601
 20
86.893969155925134
 30
0.0
 40
0.5
 50
0.0
 51
90.000000000000298
  0
ARC
  5
5AB
  8
0
 10
205.08427776138601
 20
64.893969155924708
 30
0.0
 40
0.5
 50
269.99999999999972
 51
0.0
  0
LINE
  5
5AC
  8
0
 10
184.08427776138569
 20
68.893969155924907
 30
0.0
 11
183.58427776138569
 21
69.393969155924964
 31
0.0
  0
LINE
  5
5AD
  8
0
 10
184.08427776138569
 20
82.893969155924935
 30
0.0
 11
183.58427776138569
 21
82.393969155924935
 31
0.0
  0
LINE
  5
5AE
  8
0
 10
184.08427776138569
 20
68.893969155924907
 30
0.0
 11
184.08427776138569
 21
82.893969155924935
 31
0.0
  0
LINE
  5
5AF
  8
0
 10
205.08427776138601
 20
64.393969155924708
 30
0.0
 11
201.08427776138601
 21
64.393969155924736
 31
0.0
  0
LINE
  5
5B0
  8
0
 10
205.08427776138601
 20
87.393969155925134
 30
0.0
 11
201.08427776138601
 21
87.393969155925049
 31
0.0
  0
LINE
  5
5B1
  8
0
 10
192.58427776138569
 20
82.893969155924935
 30
0.0
 11
199.58427776138569
 21
88.393969155924935
 31
0.0
  0
LINE
  5
5B2
  8
0
 10
192.58427776138569
 20
68.893969155924907
 30
0.0
 11
199.58427776138569
 21
63.393969155924907
 31
0.0
  0
LINE
  5
5B3
  8
0
 10
199.58427776138569
 20
63.393969155924907
 30
0.0
 11
199.58427776138569
 21
88.393969155924935
 31
0.0
  0
LINE
  5
5B4
  8
0
 10
192.58427776138569
 20
68.893969155924907
 30
0.0
 11
192.58427776138569
 21
82.893969155924935
 31
0.0
  0
LINE
  5
5B5
  8
0
 10
201.08427776138601
 20
64.393969155924907
 30
0.0
 11
201.08427776138609
 21
87.393969155924879
 31
0.0
  0
LINE
  5
5B6
  8
0
 10
151.38427776138579
 20
78.893969155924935
 30
0.0
 11
155.58427776138561
 21
78.893969155924935
 31
0.0
  0
LINE
  5
5B7
  8
0
 10
184.08427776138569
 20
82.893969155924935
 30
0.0
 11
192.58427776138569
 21
82.893969155924921
 31
0.0
  0
LINE
  5
5B8
  8
0
 10
184.08427776138569
 20
68.893969155924907
 30
0.0
 11
192.58427776138569
 21
68.893969155924893
 31
0.0
  0
LINE
  5
5B9
  8
0
 10
151.38427776138579
 20
72.893969155924907
 30
0.0
 11
155.58427776138561
 21
72.893969155924907
 31
0.0
  0
LINE
  5
5BA
  8
1
 10
144.58427776138549
 20
75.893969155924935
 30
0.0
 11
210.58427776138601
 21
75.893969155924935
 31
0.0
  0
LINE
  5
5BB
  8
0
 10
183.58427776138569
 20
69.393969155925049
 30
0.0
 11
183.58427776138569
 21
82.393969155924964
 31
0.0
  0
POLYLINE
  5
5BC
  8
0
 66
     1
 10
0.0
 20
0.0
 30
0.0
  0
VERTEX
  5
5BD
  8
0
 10
204.98427776138021
 20
65.114345954638026
 30
0.0
  0
VERTEX
  5
5BE
  8
0
 10
204.9918799040552
 20
65.151681646281276
 30
0.0
  0
VERTEX
  5
5BF
  8
0
 10
205.0170332606412
 20
65.191445691985507
 30
0.0
  0
VERTEX
  5
5C0
  8
0
 10
205.07130023004959
 20
65.238004348954036
 30
0.0
 42
-0.048443127698431
  0
VERTEX
  5
5C1
  8
0
 10
205.16001369266991
 20
65.283838815735152
 30
0.0
 42
-0.0270168651307056
 70
     2
 50
21.776634895216869
  0
VERTEX
  5
5C2
  8
0
 10
205.24938234129041
 20
65.314056246683407
 30
0.0
  0
VERTEX
  5
5C3
  8
0
 10
205.3396172201094
 20
65.333938837767136
 30
0.0
 42
-0.0199340369257074
  0
VERTEX
  5
5C4
  8
0
 10
205.46326002585531
 20
65.349080802198344
 30
0.0
 42
-0.0205018244111976
  0
VERTEX
  5
5C5
  8
0
 10
205.58427776138601
 20
65.354045057527003
 30
0.0
 42
-0.0205018244113817
  0
SEQEND
  5
5C6
  8
0
  0
POLYLINE
  5
5C7
  8
0
 66
     1
 10
0.0
 20
0.0
 30
0.0
  0
VERTEX
  5
5C8
  8
0
 10
205.58427776138601
 20
64.90806910176488
 30
0.0
  0
VERTEX
  5
5C9
  8
0
 10
205.4637591888511
 20
64.912332819355868
 30
0.0
 42
-0.0169526581580364
  0
VERTEX
  5
5CA
  8
0
 10
205.33865728281609
 20
64.925470050546693
 30
0.0
  0
VERTEX
  5
5CB
  8
0
 10
205.24965673232921
 20
64.942347960154279
 30
0.0
 42
-0.023714783381983
  0
VERTEX
  5
5CC
  8
0
 10
205.16001369266991
 20
64.96848619316961
 30
0.0
 42
-0.0452343338686246
 70
     2
 50
161.02729894572721
  0
VERTEX
  5
5CD
  8
0
 10
205.0666690494343
 20
65.010344237639032
 30
0.0
  0
VERTEX
  5
5CE
  8
0
 10
205.01432914131721
 20
65.050349528938213
 30
0.0
  0
VERTEX
  5
5CF
  8
0
 10
204.99111930615021
 20
65.083680530862949
 30
0.0
  0
VERTEX
  5
5D0
  8
0
 10
204.98427776138021
 20
65.114345954638026
 30
0.0
  0
SEQEND
  5
5D1
  8
0
  0
POLYLINE
  5
5D2
  8
0
 66
     1
 10
0.0
 20
0.0
 30
0.0
  0
VERTEX
  5
5D3
  8
0
 10
205.58427776138601
 20
86.879869210085047
 30
0.0
  0
VERTEX
  5
5D4
  8
0
 10
205.4637591888511
 20
86.87560549249406
 30
0.0
 42
0.0169526581580364
  0
VERTEX
  5
5D5
  8
0
 10
205.33865728281609
 20
86.862468261303235
 30
0.0
  0
VERTEX
  5
5D6
  8
0
 10
205.24965673232921
 20
86.845590351695648
 30
0.0
 42
0.023714783381983
  0
VERTEX
  5
5D7
  8
0
 10
205.16001369266991
 20
86.819452118680303
 30
0.0
 42
0.0452343338686246
 70
     2
 50
198.97270105427279
  0
VERTEX
  5
5D8
  8
0
 10
205.0666690494343
 20
86.777594074210896
 30
0.0
  0
VERTEX
  5
5D9
  8
0
 10
205.01432914131721
 20
86.7375887829117
 30
0.0
  0
VERTEX
  5
5DA
  8
0
 10
204.99111930615021
 20
86.704257780986978
 30
0.0
  0
VERTEX
  5
5DB
  8
0
 10
204.98427776138021
 20
86.673592357211916
 30
0.0
  0
SEQEND
  5
5DC
  8
0
  0
POLYLINE
  5
5DD
  8
0
 66
     1
 10
0.0
 20
0.0
 30
0.0
  0
VERTEX
  5
5DE
  8
0
 10
204.98427776138021
 20
86.673592357211916
 30
0.0
  0
VERTEX
  5
5DF
  8
0
 10
204.9918799040552
 20
86.636256665568666
 30
0.0
  0
VERTEX
  5
5E0
  8
0
 10
205.0170332606412
 20
86.596492619864435
 30
0.0
  0
VERTEX
  5
5E1
  8
0
 10
205.07130023004959
 20
86.549933962895878
 30
0.0
 42
0.048443127698431
  0
VERTEX
  5
5E2
  8
0
 10
205.16001369266991
 20
86.504099496114776
 30
0.0
 42
0.0270168651307056
 70
     2
 50
338.22336510478311
  0
VERTEX
  5
5E3
  8
0
 10
205.24938234129041
 20
86.473882065166521
 30
0.0
  0
VERTEX
  5
5E4
  8
0
 10
205.3396172201094
 20
86.453999474082792
 30
0.0
 42
0.0199340369257074
  0
VERTEX
  5
5E5
  8
0
 10
205.46326002585531
 20
86.438857509651569
 30
0.0
 42
0.0205018244111976
  0
VERTEX
  5
5E6
  8
0
 10
205.58427776138601
 20
86.433893254322925
 30
0.0
 42
0.0205018244113817
  0
SEQEND
  5
5E7
  8
0
  0
INSERT
  5
5E8
  8
0
  2
STDGX5
 10
0.0
 20
0.0
 30
0.0
 41
0.25
 42
0.25
 43
0.25
  0
INSERT
  5
5E9
  8
0
  2
STDGX5
 10
0.0
 20
0.0
 30
0.0
 41
0.25
 42
0.25
 43
0.25
  0
INSERT
  5
5EA
  8
0
  2
STDGX5
 10
68.75
 20
0.0
 30
0.0
 41
0.25
 42
0.25
 43
0.25
  0
INSERT
  5
5EB
  8
0
  2
STDGX5
 10
68.75
 20
0.0
 30
0.0
 41
0.25
 42
0.25
 43
0.25
  0
INSERT
  5
5EC
  8
0
  2
STDGX5
 10
0.0
 20
0.0
 30
0.0
 41
0.5
 42
0.5
 43
0.5
  0
INSERT
  5
5ED
  8
0
  2
STDGX5
 10
0.0
 20
0.0
 30
0.0
 41
0.5
 42
0.5
 43
0.5
  0
INSERT
  5
5EE
  8
0
  2
STDGX5
 10
137.5
 20
0.0
 30
0.0
 41
0.5
 42
0.5
 43
0.5
  0
INSERT
  5
5EF
  8
0
  2
STDGX5
 10
137.5
 20
0.0
 30
0.0
 41
0.5
 42
0.5
 43
0.5
  0
INSERT
  5
5F1
  8
0
  2
STDGX5
 10
-35.0
 20
-100.0
 30
0.0
 41
0.3333333333333333
 42
0.3333333333333333
 43
0.3333333333333333
  0
INSERT
  5
5F2
  8
0
  2
STDGX5
 10
-35.0
 20
-100.0
 30
0.0
 41
0.3333333333333333
 42
0.3333333333333333
 43
0.3333333333333333
  0
INSERT
  5
5F3
  8
0
  2
STDGX5
 10
56.666666666666643
 20
-100.0
 30
0.0
 41
0.3333333333333333
 42
0.3333333333333333
 43
0.3333333333333333
  0
INSERT
  5
5F4
  8
0
  2
STDGX5
 10
56.666666666666643
 20
-100.0
 30
0.0
 41
0.3333333333333333
 42
0.3333333333333333
 43
0.3333333333333333
  0
INSERT
  5
5F6
  8
0
  2
STDGX5
 10
-35.0
 20
-100.0
 30
0.0
 41
0.3333333333333333
 42
0.3333333333333333
 43
0.3333333333333333
  0
INSERT
  5
5F7
  8
0
  2
STDGX5
 10
-35.0
 20
-100.0
 30
0.0
 41
0.3333333333333333
 42
0.3333333333333333
 43
0.3333333333333333
  0
INSERT
  5
5F8
  8
0
  2
STDGX5
 10
56.666666666666657
 20
-100.0
 30
0.0
 41
0.3333333333333333
 42
0.3333333333333333
 43
0.3333333333333333
  0
INSERT
  5
5F9
  8
0
  2
STDGX5
 10
56.666666666666657
 20
-100.0
 30
0.0
 41
0.3333333333333333
 42
0.3333333333333333
 43
0.3333333333333333
  0
INSERT
  5
5FA
  8
0
  2
STDGX5
 10
0.0
 20
0.0
 30
0.0
  0
INSERT
  5
5FB
  8
0
  2
STDGX5
 10
0.0
 20
0.0
 30
0.0
  0
INSERT
  5
5FC
  8
0
  2
STDGX5
 10
275.0
 20
0.0
 30
0.0
  0
INSERT
  5
5FD
  8
0
  2
STDGX5
 10
275.0
 20
0.0
 30
0.0
  0
TEXT
  5
71C
  8
0
 62
     3
 10
0.0
 20
0.0
 30
0.0
 40
5.0
  1
WDX12
  7
STANDARD1
  0
ENDSEC
  0
EOF
