  0
SECTION
  2
HEADER
  9
$ACADVER
  1
AC1009
  9
$INSBASE
 10
0.0
 20
0.0
 30
0.0
  9
$EXTMIN
 10
0.0
 20
-2.960436562073669
 30
0.0
  9
$EXTMAX
 10
345.95787611743953
 20
264.41539790584579
 30
0.0
  9
$LIMMIN
 10
0.0
 20
0.0
  9
$LIMMAX
 10
375.0
 20
270.0
  9
$ORTHOMODE
 70
     1
  9
$REGENMODE
 70
     1
  9
$FILLMODE
 70
     1
  9
$QTEXTMODE
 70
     0
  9
$MIRRTEXT
 70
     0
  9
$DRAGMODE
 70
     2
  9
$LTSCALE
 40
10.0
  9
$OSMODE
 70
    55
  9
$ATTMODE
 70
     1
  9
$TEXTSIZE
 40
0.2
  9
$TRACEWID
 40
0.05
  9
$TEXTSTYLE
  7
STANDARD
  9
$CLAYER
  8
0
  9
$CELTYPE
  6
BYLAYER
  9
$CECOLOR
 62
   256
  9
$DIMSCALE
 40
1.0
  9
$DIMASZ
 40
3.0
  9
$DIMEXO
 40
2.0
  9
$DIMDLI
 40
0.38
  9
$DIMRND
 40
0.0
  9
$DIMDLE
 40
0.0
  9
$DIMEXE
 40
2.0
  9
$DIMTP
 40
0.0
  9
$DIMTM
 40
0.0
  9
$DIMTXT
 40
3.2000000000000002
  9
$DIMCEN
 40
0.0
  9
$DIMTSZ
 40
0.0
  9
$DIMTOL
 70
     0
  9
$DIMLIM
 70
     0
  9
$DIMTIH
 70
     0
  9
$DIMTOH
 70
     0
  9
$DIMSE1
 70
     0
  9
$DIMSE2
 70
     0
  9
$DIMTAD
 70
     1
  9
$DIMZIN
 70
     0
  9
$DIMBLK
  1

  9
$DIMASO
 70
     0
  9
$DIMSHO
 70
     0
  9
$DIMPOST
  1

  9
$DIMAPOST
  1

  9
$DIMALT
 70
     0
  9
$DIMALTD
 70
     2
  9
$DIMALTF
 40
25.399999999999999
  9
$DIMLFAC
 40
1.0
  9
$DIMTOFL
 70
     1
  9
$DIMTVP
 40
1.6000000000000001
  9
$DIMTIX
 70
     1
  9
$DIMSOXD
 70
     0
  9
$DIMSAH
 70
     0
  9
$DIMBLK1
  1

  9
$DIMBLK2
  1

  9
$DIMSTYLE
  2
STANDARD
  9
$DIMCLRD
 70
     0
  9
$DIMCLRE
 70
     0
  9
$DIMCLRT
 70
     0
  9
$DIMTFAC
 40
1.0
  9
$DIMGAP
 40
0.09
  9
$LUNITS
 70
     2
  9
$LUPREC
 70
     4
  9
$SKETCHINC
 40
0.1
  9
$FILLETRAD
 40
0.0
  9
$AUNITS
 70
     0
  9
$AUPREC
 70
     4
  9
$MENU
  1
E:\r13\win\SUPPORT\ACAD
  9
$ELEVATION
 40
0.0
  9
$PELEVATION
 40
0.0
  9
$THICKNESS
 40
0.0
  9
$LIMCHECK
 70
     0
  9
$BLIPMODE
 70
     0
  9
$CHAMFERA
 40
0.0
  9
$CHAMFERB
 40
0.0
  9
$SKPOLY
 70
     0
  9
$TDCREATE
 40
2449839.7758796299
  9
$TDUPDATE
 40
2456598.4016415281
  9
$TDINDWG
 40
0.0000858912
  9
$TDUSRTIMER
 40
0.0000858912
  9
$USRTIMER
 70
     1
  9
$ANGBASE
 50
0.0
  9
$ANGDIR
 70
     0
  9
$PDMODE
 70
     0
  9
$PDSIZE
 40
0.0
  9
$PLINEWID
 40
0.0
  9
$COORDS
 70
     1
  9
$SPLFRAME
 70
     0
  9
$SPLINETYPE
 70
     6
  9
$SPLINESEGS
 70
     8
  9
$ATTDIA
 70
     0
  9
$ATTREQ
 70
     1
  9
$HANDLING
 70
     1
  9
$HANDSEED
  5
2C7
  9
$SURFTAB1
 70
     6
  9
$SURFTAB2
 70
     6
  9
$SURFTYPE
 70
     6
  9
$SURFU
 70
     6
  9
$SURFV
 70
     6
  9
$UCSNAME
  2

  9
$UCSORG
 10
0.0
 20
0.0
 30
0.0
  9
$UCSXDIR
 10
1.0
 20
0.0
 30
0.0
  9
$UCSYDIR
 10
0.0
 20
1.0
 30
0.0
  9
$PUCSNAME
  2

  9
$PUCSORG
 10
0.0
 20
0.0
 30
0.0
  9
$PUCSXDIR
 10
1.0
 20
0.0
 30
0.0
  9
$PUCSYDIR
 10
0.0
 20
1.0
 30
0.0
  9
$USERI1
 70
     0
  9
$USERI2
 70
     1
  9
$USERI3
 70
     0
  9
$USERI4
 70
     0
  9
$USERI5
 70
     0
  9
$USERR1
 40
0.0
  9
$USERR2
 40
0.0
  9
$USERR3
 40
0.0
  9
$USERR4
 40
0.0
  9
$USERR5
 40
0.0
  9
$WORLDVIEW
 70
     1
  9
$SHADEDGE
 70
     3
  9
$SHADEDIF
 70
    70
  9
$TILEMODE
 70
     1
  9
$MAXACTVP
 70
    16
  9
$PLIMCHECK
 70
     0
  9
$PEXTMIN
 10
1.0000000000000000E+020
 20
1.0000000000000000E+020
 30
1.0000000000000000E+020
  9
$PEXTMAX
 10
-1.0000000000000000E+020
 20
-1.0000000000000000E+020
 30
-1.0000000000000000E+020
  9
$PLIMMIN
 10
0.0
 20
0.0
  9
$PLIMMAX
 10
12.0
 20
9.0
  9
$UNITMODE
 70
     0
  9
$VISRETAIN
 70
     0
  9
$PLINEGEN
 70
     0
  9
$PSLTSCALE
 70
     0
  0
ENDSEC
  0
SECTION
  2
TABLES
  0
TABLE
  2
VPORT
 70
     1
  0
VPORT
  2
*ACTIVE
 70
     0
 10
0.0
 20
0.0
 11
1.0
 21
1.0
 12
187.4942783906524
 22
197.0509055860143
 13
0.0
 23
0.0
 14
10.0
 24
10.0
 15
10.0
 25
10.0
 16
0.0
 26
0.0
 36
1.0
 17
0.0
 27
0.0
 37
0.0
 40
403.57315882993248
 41
1.7807262569832401
 42
50.0
 43
0.0
 44
0.0
 50
0.0
 51
0.0
 71
     0
 72
   500
 73
     1
 74
     0
 75
     0
 76
     0
 77
     0
 78
     2
  0
ENDTAB
  0
TABLE
  2
LTYPE
 70
     4
  0
LTYPE
  2
CONTINUOUS
 70
     0
  3
Solid Line
 72
    65
 73
     0
 40
0.0
  0
LTYPE
  2
CENTER
 70
     0
  3
____ _ ____ _ ____ _ ____ _ ____ _ ____ _ ____
 72
    65
 73
     4
 40
2.0
 49
1.25
 49
-0.25
 49
0.25
 49
-0.25
  0
LTYPE
  2
HIDDEN
 70
     0
  3
_ _ _ _ _ _ _ _ _ _ _ _ _ _ _ _ _ _ _ _ _ _ _
 72
    65
 73
     2
 40
0.375
 49
0.25
 49
-0.125
  0
LTYPE
  2
PHANTOM2
 70
     0
  3
___ _ _ ___ _ _ ___ _ _ ___ _ _
 72
    65
 73
     6
 40
1.25
 49
0.625
 49
-0.125
 49
0.125
 49
-0.125
 49
0.125
 49
-0.125
  0
ENDTAB
  0
TABLE
  2
LAYER
 70
     4
  0
LAYER
  2
0
 70
     0
 62
     7
  6
CONTINUOUS
  0
LAYER
  2
1
 70
     0
 62
     1
  6
CENTER
  0
LAYER
  2
2
 70
     0
 62
     2
  6
HIDDEN
  0
LAYER
  2
4
 70
     0
 62
     4
  6
CONTINUOUS
  0
ENDTAB
  0
TABLE
  2
STYLE
 70
     2
  0
STYLE
  2
STANDARD
 70
     0
 40
0.0
 41
1.0
 50
0.0
 71
     0
 42
0.2
  3
TXT
  4
BIGFONT
  0
STYLE
  2
STANDARD1
 70
     0
 40
0.0
 41
1.0
 50
0.0
 71
     0
 42
3.0
  3
txt
  4

  0
ENDTAB
  0
TABLE
  2
VIEW
 70
     1
  0
VIEW
  2
ALL
 70
     0
 40
270.0
 10
220.99159663865549
 20
135.0
 41
0.0
 11
0.0
 21
0.0
 31
1.0
 12
0.0
 22
0.0
 32
0.0
 42
0.0
 43
0.0
 44
0.0
 50
0.0
 71
     0
  0
ENDTAB
  0
TABLE
  2
UCS
 70
     0
  0
ENDTAB
  0
TABLE
  2
APPID
 70
     3
  0
APPID
  2
ACAD
 70
     0
  0
APPID
  2
ACAD_MLEADERVER
 70
     0
  0
APPID
  2
ACAD_NAV_VCDISPLAY
 70
     0
  0
ENDTAB
  0
TABLE
  2
DIMSTYLE
 70
     1
  0
DIMSTYLE
  2
STANDARD
 70
     0
  3

  4

  5

  6

  7

 40
1.0
 41
0.18
 42
0.0625
 43
0.38
 44
0.18
 45
0.0
 46
0.0
 47
0.0
 48
0.0
140
0.18
141
0.09
142
0.0
143
25.399999999999999
144
1.0
145
0.0
146
1.0
147
0.09
 71
     0
 72
     0
 73
     1
 74
     1
 75
     0
 76
     0
 77
     0
 78
     0
170
     0
171
     2
172
     0
173
     0
174
     0
175
     0
176
     0
177
     0
178
     0
  0
ENDTAB
  0
ENDSEC
  0
SECTION
  2
BLOCKS
  0
BLOCK
  8
0
  2
$MODEL_SPACE
 70
     0
 10
0.0
 20
0.0
 30
0.0
  3
$MODEL_SPACE
  1

  0
ENDBLK
  5
17B
  8
0
  0
BLOCK
 67
     1
  8
0
  2
$PAPER_SPACE
 70
     0
 10
0.0
 20
0.0
 30
0.0
  3
$PAPER_SPACE
  1

  0
ENDBLK
  5
179
 67
     1
  8
0
  0
ENDSEC
  0
SECTION
  2
ENTITIES
  0
LINE
  5
3E
  8
0
 10
64.126873430020552
 20
117.37572626922611
 30
0.0
 11
66.041088361499376
 21
121.99704991809941
 31
0.0
  0
LINE
  5
3F
  8
0
 10
65.974632495043096
 20
116.6103594044959
 30
0.0
 11
67.888847426521949
 21
121.2316830533692
 31
0.0
  0
LINE
  5
40
  8
0
 10
57.85720716776499
 20
122.0342496030882
 30
0.0
 11
61.394215159806571
 21
125.57125759512989
 31
0.0
  0
LINE
  5
41
  8
0
 10
59.271420730138061
 20
120.62003604071521
 30
0.0
 11
62.808428722179663
 21
124.1570440327568
 31
0.0
  0
LINE
  5
42
  8
0
 10
53.847530531545729
 20
128.73746136799329
 30
0.0
 11
58.468854180419029
 21
130.65167629947209
 31
0.0
  0
LINE
  5
43
  8
0
 10
54.612897396275898
 20
126.8897023029707
 30
0.0
 11
59.234221045149212
 21
128.80391723444961
 31
0.0
  0
LINE
  5
44
  8
0
 10
52.708280441417983
 20
136.46485833750029
 30
0.0
 11
57.71036511398524
 21
136.4648583375004
 31
0.0
  0
LINE
  5
45
  8
0
 10
52.708280441417983
 20
134.4648583375004
 30
0.0
 11
57.71036511398524
 21
134.4648583375004
 31
0.0
  0
LINE
  5
46
  8
0
 10
54.612897396275898
 20
144.04001437202999
 30
0.0
 11
59.234221045149233
 21
142.12579944055119
 31
0.0
  0
LINE
  5
47
  8
0
 10
53.847530531545729
 20
142.19225530700751
 30
0.0
 11
58.468854180419036
 21
140.2780403755286
 31
0.0
  0
LINE
  5
48
  8
0
 10
59.27142073013804
 20
150.3096806342856
 30
0.0
 11
62.808428722179663
 21
146.772672642244
 31
0.0
  0
LINE
  5
49
  8
0
 10
57.857207167764969
 20
148.89546707191261
 30
0.0
 11
61.394215159806564
 21
145.3584590798709
 31
0.0
  0
LINE
  5
4A
  8
0
 10
65.974632495043068
 20
154.3193572705049
 30
0.0
 11
67.888847426521934
 21
149.69803362163159
 31
0.0
  0
LINE
  5
4B
  8
0
 10
64.126873430020524
 20
153.5539904057747
 30
0.0
 11
66.041088361499362
 21
148.9326667569014
 31
0.0
  0
LINE
  5
4C
  8
0
 10
73.702029464550179
 20
155.45860736063261
 30
0.0
 11
73.702029464550193
 21
150.45652268806529
 31
0.0
  0
LINE
  5
4D
  8
0
 10
71.702029464550193
 20
155.45860736063261
 30
0.0
 11
71.702029464550193
 21
150.45652268806529
 31
0.0
  0
LINE
  5
4E
  8
0
 10
81.277185499079863
 20
153.5539904057747
 30
0.0
 11
79.362970567601053
 21
148.9326667569014
 31
0.0
  0
LINE
  5
4F
  8
0
 10
79.429426434057333
 20
154.3193572705049
 30
0.0
 11
77.515211502578481
 21
149.69803362163159
 31
0.0
  0
LINE
  5
50
  8
0
 10
87.546851761335432
 20
148.89546707191261
 30
0.0
 11
84.009843769293838
 21
145.3584590798709
 31
0.0
  0
LINE
  5
51
  8
0
 10
86.132638198962354
 20
150.3096806342856
 30
0.0
 11
82.595630206920745
 21
146.772672642244
 31
0.0
  0
LINE
  5
52
  8
0
 10
91.556528397554658
 20
142.19225530700751
 30
0.0
 11
86.935204748681343
 21
140.2780403755286
 31
0.0
  0
LINE
  5
53
  8
0
 10
90.791161532824475
 20
144.04001437202999
 30
0.0
 11
86.169837883951146
 21
142.12579944055119
 31
0.0
  0
LINE
  5
54
  8
0
 10
92.695778487682404
 20
134.4648583375004
 30
0.0
 11
87.693693815115154
 21
134.4648583375004
 31
0.0
  0
LINE
  5
55
  8
0
 10
92.695778487682404
 20
136.4648583375004
 30
0.0
 11
87.693693815115154
 21
136.4648583375004
 31
0.0
  0
LINE
  5
56
  8
0
 10
90.791161532824503
 20
126.8897023029707
 30
0.0
 11
86.169837883951189
 21
128.80391723444961
 31
0.0
  0
LINE
  5
57
  8
0
 10
91.556528397554658
 20
128.73746136799329
 30
0.0
 11
86.935204748681343
 21
130.65167629947209
 31
0.0
  0
LINE
  5
58
  8
0
 10
86.132638198962354
 20
120.62003604071521
 30
0.0
 11
82.595630206920731
 21
124.1570440327568
 31
0.0
  0
LINE
  5
59
  8
0
 10
87.546851761335404
 20
122.0342496030882
 30
0.0
 11
84.009843769293823
 21
125.57125759512989
 31
0.0
  0
LINE
  5
5A
  8
0
 10
79.429426434057319
 20
116.61035940449599
 30
0.0
 11
77.515211502578452
 21
121.2316830533692
 31
0.0
  0
LINE
  5
5B
  8
0
 10
81.277185499079863
 20
117.37572626922611
 30
0.0
 11
79.362970567601025
 21
121.99704991809941
 31
0.0
  0
LINE
  5
5C
  8
0
 10
71.702029464550193
 20
115.47110931436821
 30
0.0
 11
71.702029464550193
 21
120.4731939869354
 31
0.0
  0
LINE
  5
5D
  8
0
 10
73.702029464550179
 20
115.47110931436821
 30
0.0
 11
73.702029464550193
 21
120.4731939869354
 31
0.0
  0
LINE
  5
5E
  8
4
 10
72.702029464550193
 20
135.3748583375004
 30
0.0
 11
72.702029464550193
 21
135.55485833750041
 31
0.0
  0
LINE
  5
5F
  8
4
 10
72.61202946455019
 20
135.4648583375004
 30
0.0
 11
72.792029464550197
 21
135.4648583375004
 31
0.0
  0
LINE
  5
60
  8
4
 10
72.702029464550193
 20
135.3748583375004
 30
0.0
 11
72.702029464550193
 21
135.55485833750041
 31
0.0
  0
LINE
  5
61
  8
4
 10
72.61202946455019
 20
135.4648583375004
 30
0.0
 11
72.792029464550197
 21
135.4648583375004
 31
0.0
  0
TEXT
  5
62
  8
0
 10
52.197292753337159
 20
143.49951902752539
 30
0.0
 40
3.0
  1
M
 50
65.999999999999986
 72
     1
 11
52.604029396412969
 21
144.41306448516801
 31
0.0
  0
TEXT
  5
63
  8
0
 10
51.34754413704443
 20
140.80793389352061
 30
0.0
 40
3.0
  1
0
 50
74.0
 72
     1
 11
51.554272153907178
 21
141.52888016547439
 31
0.0
  0
TEXT
  5
64
  8
0
 10
50.776958851275573
 20
137.5363984898803
 30
0.0
 40
3.0
  1
5
 50
82.0
 72
     1
 11
50.916131952235631
 21
138.5266665586218
 31
0.0
  0
TEXT
  5
65
  8
0
 10
53.214134361010721
 20
125.1463340034439
 30
0.0
 40
3.0
  1
V
 50
114.0
 72
     1
 11
52.604029396397017
 21
126.5166521899078
 31
0.0
  0
TEXT
  5
66
  8
0
 10
51.692090831808542
 20
128.92020566160809
 30
0.0
 40
3.0
  1
I
 50
106.0
 72
     1
 11
51.554272153900037
 21
129.4008365095772
 31
0.0
  0
TEXT
  5
67
  8
0
 10
51.055305053193933
 20
131.41278204766309
 30
0.0
 40
3.0
  1
P
 50
98.0
 72
     1
 11
50.916131952233869
 21
132.40305011640459
 31
0.0
  0
TEXT
  5
68
  8
0
 10
50.702029464550193
 20
134.4648583375004
 30
0.0
 40
3.0
  1
-
 50
90.0
 72
     1
 11
50.702029464550193
 21
135.4648583375004
 31
0.0
  0
CIRCLE
  5
69
  8
0
 10
72.702029464550193
 20
135.4648583375004
 30
0.0
 40
5.0
  0
CIRCLE
  5
6A
  8
0
 10
72.702029464550193
 20
135.4648583375004
 30
0.0
 40
12.0
  0
CIRCLE
  5
6B
  8
0
 10
72.702029464550193
 20
135.4648583375004
 30
0.0
 40
15.0
  0
CIRCLE
  5
6C
  8
0
 10
72.702029464550193
 20
135.4648583375004
 30
0.0
 40
20.0
  0
LINE
  5
6D
  8
1
 10
72.702029464550193
 20
173.2148583375004
 30
0.0
 11
72.702029464550193
 21
97.714858337500416
 31
0.0
  0
LINE
  5
6E
  8
1
 10
34.952029464550201
 20
135.4648583375004
 30
0.0
 11
110.45202946455019
 21
135.4648583375004
 31
0.0
  0
CIRCLE
  5
6F
  8
0
 10
72.702029464550193
 20
135.4648583375004
 30
0.0
 40
27.75
  0
LINE
  5
70
  8
1
 10
184.51934914346941
 20
110.4648583375004
 30
0.0
 11
204.51934914346941
 21
110.4648583375004
 31
0.0
  0
LINE
  5
71
  8
1
 10
184.51934914346941
 20
160.4648583375004
 30
0.0
 11
204.51934914346941
 21
160.4648583375004
 31
0.0
  0
LINE
  5
72
  8
0
 10
201.01934914346941
 20
120.4648583375004
 30
0.0
 11
201.01934914346941
 21
107.7148583375004
 31
0.0
  0
LINE
  5
73
  8
0
 10
203.01934914346941
 20
150.4648583375004
 30
0.0
 11
203.01934914346941
 21
120.4648583375004
 31
0.0
  0
LINE
  5
74
  8
0
 10
201.01934914346941
 20
163.2148583375004
 30
0.0
 11
201.01934914346941
 21
150.4648583375004
 31
0.0
  0
LINE
  5
75
  8
0
 10
188.01934914346941
 20
163.2148583375004
 30
0.0
 11
188.01934914346941
 21
107.7148583375004
 31
0.0
  0
LINE
  5
76
  8
0
 10
188.01934914346941
 20
107.7148583375004
 30
0.0
 11
189.51934914347569
 21
107.7148583375004
 31
0.0
  0
LINE
  5
77
  8
0
 10
189.51934914347569
 20
107.7148583375004
 30
0.0
 11
191.52118543193981
 21
113.2148583375004
 31
0.0
  0
LINE
  5
78
  8
0
 10
191.52118543193981
 20
113.2148583375004
 30
0.0
 11
197.51751285499751
 21
113.2148583375004
 31
0.0
  0
LINE
  5
79
  8
0
 10
197.51751285499751
 20
113.2148583375004
 30
0.0
 11
199.5193491434616
 21
107.7148583375004
 31
0.0
  0
LINE
  5
7A
  8
0
 10
199.5193491434616
 20
107.7148583375004
 30
0.0
 11
201.01934914346941
 21
107.7148583375004
 31
0.0
  0
LINE
  5
7B
  8
0
 10
201.01934914346941
 20
120.4648583375004
 30
0.0
 11
203.01934914346941
 21
120.4648583375004
 31
0.0
  0
LINE
  5
7C
  8
0
 10
201.01934914346941
 20
150.4648583375004
 30
0.0
 11
203.01934914346941
 21
150.4648583375004
 31
0.0
  0
LINE
  5
7D
  8
0
 10
199.5193491434616
 20
163.2148583375004
 30
0.0
 11
201.01934914346941
 21
163.2148583375004
 31
0.0
  0
LINE
  5
7E
  8
0
 10
197.51751285499751
 20
157.7148583375004
 30
0.0
 11
199.5193491434616
 21
163.2148583375004
 31
0.0
  0
LINE
  5
7F
  8
0
 10
191.52118543193981
 20
157.7148583375004
 30
0.0
 11
197.51751285499751
 21
157.7148583375004
 31
0.0
  0
LINE
  5
80
  8
0
 10
189.51934914347569
 20
163.2148583375004
 30
0.0
 11
191.52118543193981
 21
157.7148583375004
 31
0.0
  0
LINE
  5
81
  8
0
 10
188.01934914346941
 20
163.2148583375004
 30
0.0
 11
189.51934914347569
 21
163.2148583375004
 31
0.0
  0
LINE
  5
82
  8
1
 10
178.01934914346941
 20
135.4648583375004
 30
0.0
 11
213.01934914346941
 21
135.4648583375004
 31
0.0
  0
LINE
  5
83
  8
1
 10
194.51934914346941
 20
173.2148583375004
 30
0.0
 11
194.51934914346941
 21
97.714858337500416
 31
0.0
  0
CIRCLE
  5
84
  8
0
 10
308.20787611743953
 20
135.4648583375004
 30
0.0
 40
27.75
  0
LINE
  5
85
  8
1
 10
345.95787611743953
 20
135.4648583375004
 30
0.0
 11
270.45787611743953
 21
135.4648583375004
 31
0.0
  0
LINE
  5
86
  8
1
 10
308.20787611743953
 20
97.714858337500445
 30
0.0
 11
308.20787611743953
 21
173.2148583375004
 31
0.0
  0
CIRCLE
  5
87
  8
0
 10
308.20787611743953
 20
135.4648583375004
 30
0.0
 40
20.0
  0
CIRCLE
  5
88
  8
0
 10
308.20787611743953
 20
135.4648583375004
 30
0.0
 40
15.0
  0
CIRCLE
  5
89
  8
0
 10
308.20787611743953
 20
135.4648583375004
 30
0.0
 40
12.0
  0
CIRCLE
  5
8A
  8
0
 10
308.20787611743953
 20
135.4648583375004
 30
0.0
 40
5.0
  0
LINE
  5
8B
  8
4
 10
308.2978761174395
 20
135.4648583375004
 30
0.0
 11
308.11787611743949
 21
135.4648583375004
 31
0.0
  0
LINE
  5
8C
  8
4
 10
308.20787611743953
 20
135.55485833750041
 30
0.0
 11
308.20787611743953
 21
135.3748583375004
 31
0.0
  0
LINE
  5
8D
  8
4
 10
308.2978761174395
 20
135.4648583375004
 30
0.0
 11
308.11787611743949
 21
135.4648583375004
 31
0.0
  0
LINE
  5
8E
  8
4
 10
308.20787611743953
 20
135.55485833750041
 30
0.0
 11
308.20787611743953
 21
135.3748583375004
 31
0.0
  0
LINE
  5
8F
  8
0
 10
307.20787611743953
 20
155.4586073606327
 30
0.0
 11
307.20787611743953
 21
150.45652268806541
 31
0.0
  0
LINE
  5
90
  8
0
 10
309.20787611743953
 20
155.4586073606327
 30
0.0
 11
309.20787611743953
 21
150.45652268806541
 31
0.0
  0
LINE
  5
91
  8
0
 10
299.63272008290983
 20
153.5539904057747
 30
0.0
 11
301.54693501438868
 21
148.9326667569014
 31
0.0
  0
LINE
  5
92
  8
0
 10
301.48047914793239
 20
154.3193572705049
 30
0.0
 11
303.39469407941129
 21
149.69803362163159
 31
0.0
  0
LINE
  5
93
  8
0
 10
293.36305382065427
 20
148.89546707191261
 30
0.0
 11
296.90006181269592
 21
145.35845907987101
 31
0.0
  0
LINE
  5
94
  8
0
 10
294.77726738302732
 20
150.30968063428571
 30
0.0
 11
298.31427537506897
 21
146.77267264224409
 31
0.0
  0
LINE
  5
95
  8
0
 10
289.35337718443498
 20
142.19225530700751
 30
0.0
 11
293.97470083330842
 21
140.27804037552869
 31
0.0
  0
LINE
  5
96
  8
0
 10
290.11874404916517
 20
144.0400143720301
 30
0.0
 11
294.7400676980385
 21
142.1257994405513
 31
0.0
  0
LINE
  5
97
  8
0
 10
288.21412709430729
 20
134.4648583375004
 30
0.0
 11
293.21621176687449
 21
134.4648583375004
 31
0.0
  0
LINE
  5
98
  8
0
 10
288.21412709430729
 20
136.4648583375004
 30
0.0
 11
293.21621176687449
 21
136.4648583375004
 31
0.0
  0
LINE
  5
99
  8
0
 10
290.11874404916517
 20
126.8897023029708
 30
0.0
 11
294.74006769803862
 21
128.80391723444961
 31
0.0
  0
LINE
  5
9A
  8
0
 10
289.35337718443498
 20
128.73746136799329
 30
0.0
 11
293.97470083330842
 21
130.6516762994722
 31
0.0
  0
LINE
  5
9B
  8
0
 10
294.77726738302732
 20
120.62003604071521
 30
0.0
 11
298.31427537506897
 21
124.1570440327568
 31
0.0
  0
LINE
  5
9C
  8
0
 10
293.36305382065427
 20
122.0342496030883
 30
0.0
 11
296.90006181269592
 21
125.57125759512989
 31
0.0
  0
LINE
  5
9D
  8
0
 10
301.48047914793239
 20
116.6103594044959
 30
0.0
 11
303.39469407941129
 21
121.2316830533693
 31
0.0
  0
LINE
  5
9E
  8
0
 10
299.63272008290983
 20
117.37572626922611
 30
0.0
 11
301.54693501438868
 21
121.99704991809941
 31
0.0
  0
LINE
  5
9F
  8
0
 10
309.20787611743953
 20
115.47110931436821
 30
0.0
 11
309.20787611743953
 21
120.4731939869355
 31
0.0
  0
LINE
  5
A0
  8
0
 10
307.20787611743953
 20
115.47110931436821
 30
0.0
 11
307.20787611743953
 21
120.4731939869355
 31
0.0
  0
LINE
  5
A1
  8
0
 10
316.78303215196922
 20
117.37572626922611
 30
0.0
 11
314.86881722049043
 21
121.99704991809941
 31
0.0
  0
LINE
  5
A2
  8
0
 10
314.93527308694672
 20
116.6103594044959
 30
0.0
 11
313.02105815546781
 21
121.2316830533693
 31
0.0
  0
LINE
  5
A3
  8
0
 10
323.05269841422472
 20
122.0342496030883
 30
0.0
 11
319.51569042218313
 21
125.57125759512989
 31
0.0
  0
LINE
  5
A4
  8
0
 10
321.63848485185167
 20
120.62003604071521
 30
0.0
 11
318.10147685981002
 21
124.1570440327568
 31
0.0
  0
LINE
  5
A5
  8
0
 10
327.0623750504439
 20
128.73746136799329
 30
0.0
 11
322.44105140157058
 21
130.6516762994722
 31
0.0
  0
LINE
  5
A6
  8
0
 10
326.29700818571382
 20
126.8897023029708
 30
0.0
 11
321.67568453684049
 21
128.80391723444961
 31
0.0
  0
LINE
  5
A7
  8
0
 10
328.20162514057171
 20
136.4648583375004
 30
0.0
 11
323.19954046800439
 21
136.4648583375004
 31
0.0
  0
LINE
  5
A8
  8
0
 10
328.20162514057171
 20
134.46485833750049
 30
0.0
 11
323.19954046800439
 21
134.4648583375004
 31
0.0
  0
LINE
  5
A9
  8
0
 10
326.29700818571382
 20
144.0400143720301
 30
0.0
 11
321.67568453684049
 21
142.1257994405513
 31
0.0
  0
LINE
  5
AA
  8
0
 10
327.0623750504439
 20
142.19225530700751
 30
0.0
 11
322.44105140157069
 21
140.27804037552869
 31
0.0
  0
LINE
  5
AB
  8
0
 10
321.63848485185162
 20
150.30968063428571
 30
0.0
 11
318.10147685981002
 21
146.77267264224409
 31
0.0
  0
LINE
  5
AC
  8
0
 10
323.05269841422472
 20
148.89546707191261
 30
0.0
 11
319.51569042218313
 21
145.35845907987101
 31
0.0
  0
LINE
  5
AD
  8
0
 10
314.93527308694661
 20
154.3193572705049
 30
0.0
 11
313.02105815546781
 21
149.69803362163159
 31
0.0
  0
LINE
  5
AE
  8
0
 10
316.78303215196922
 20
153.5539904057747
 30
0.0
 11
314.86881722049031
 21
148.9326667569014
 31
0.0
  0
LINE
  5
AF
  8
2
 10
190.51934914346941
 20
147.4648583375004
 30
0.0
 11
190.51934914346941
 21
140.964856001485
 31
0.0
  0
LINE
  5
B0
  8
2
 10
198.51934914346941
 20
129.96486139074801
 30
0.0
 11
198.51934914346941
 21
123.4648583375004
 31
0.0
  0
ARC
  5
B1
  8
2
 10
198.01934914346941
 20
140.9648583375004
 30
0.0
 40
0.5
 50
270.0
 51
0.0
  0
LINE
  5
B2
  8
2
 10
198.01934914346941
 20
140.4648583375004
 30
0.0
 11
191.01934914346941
 21
140.4648583375004
 31
0.0
  0
ARC
  5
B3
  8
2
 10
191.01934914346941
 20
140.9648583375004
 30
0.0
 40
0.5
 50
180.00000000000011
 51
270.0
  0
ARC
  5
B4
  8
2
 10
191.01934914346941
 20
129.9648583375004
 30
0.0
 40
0.5
 50
90.0
 51
179.99999999999989
  0
ARC
  5
B5
  8
2
 10
198.01934914346941
 20
129.9648583375004
 30
0.0
 40
0.5
 50
0.0
 51
90.0
  0
LINE
  5
B6
  8
2
 10
198.01934914346941
 20
130.4648583375004
 30
0.0
 11
191.01934914346941
 21
130.4648583375004
 31
0.0
  0
LINE
  5
B7
  8
2
 10
190.51934914346941
 20
123.4648583375004
 30
0.0
 11
190.51934914346941
 21
129.96485976801191
 31
0.0
  0
LINE
  5
B8
  8
2
 10
198.51934914346941
 20
147.4648583375004
 30
0.0
 11
198.51934914346941
 21
140.964856001485
 31
0.0
  0
LINE
  5
B9
  8
2
 10
198.51934914346941
 20
147.4648583375004
 30
0.0
 11
203.01934914346941
 21
147.4648583375004
 31
0.0
  0
LINE
  5
BA
  8
2
 10
190.51934914346941
 20
147.4648583375004
 30
0.0
 11
188.01934914346941
 21
147.4648583375004
 31
0.0
  0
LINE
  5
BB
  8
2
 10
190.51934914346941
 20
123.4648583375004
 30
0.0
 11
188.01934914346941
 21
123.4648583375004
 31
0.0
  0
LINE
  5
BC
  8
2
 10
198.51934914346941
 20
123.4648583375004
 30
0.0
 11
203.01934914346941
 21
123.4648583375004
 31
0.0
  0
LINE
  5
BD
  8
0
 10
189.51934914347561
 20
163.2148583375004
 30
0.0
 11
189.51934914347569
 21
107.7148583375004
 31
0.0
  0
LINE
  5
BE
  8
0
 10
191.52118543193981
 20
157.7148583375004
 30
0.0
 11
191.52118543193981
 21
113.2148583375004
 31
0.0
  0
LINE
  5
BF
  8
0
 10
197.51751285499751
 20
157.7148583375004
 30
0.0
 11
197.51751285499751
 21
113.2148583375004
 31
0.0
  0
LINE
  5
C0
  8
0
 10
199.5193491434616
 20
163.2148583375004
 30
0.0
 11
199.5193491434616
 21
107.7148583375004
 31
0.0
  0
LINE
  5
C1
  8
0
 10
201.01934914346941
 20
150.4648583375004
 30
0.0
 11
201.01934914346941
 21
120.4648583375004
 31
0.0
  0
LINE
  5
C2
  8
0
 10
201.01934914346941
 20
241.66539790584579
 30
0.0
 11
201.01934914346941
 21
211.66539790584579
 31
0.0
  0
LINE
  5
C3
  8
0
 10
199.5193491434616
 20
254.41539790584571
 30
0.0
 11
199.5193491434616
 21
198.91539790584571
 31
0.0
  0
LINE
  5
C4
  8
0
 10
197.51751285499751
 20
248.91539790584579
 30
0.0
 11
197.51751285499751
 21
204.41539790584571
 31
0.0
  0
LINE
  5
C5
  8
0
 10
191.52118543193981
 20
248.91539790584579
 30
0.0
 11
191.52118543193981
 21
204.41539790584571
 31
0.0
  0
LINE
  5
C6
  8
0
 10
189.51934914347561
 20
254.41539790584571
 30
0.0
 11
189.51934914347569
 21
198.91539790584571
 31
0.0
  0
LINE
  5
C7
  8
2
 10
198.51934914346941
 20
214.66539790584579
 30
0.0
 11
203.01934914346941
 21
214.66539790584579
 31
0.0
  0
LINE
  5
C8
  8
2
 10
190.51934914346941
 20
214.66539790584579
 30
0.0
 11
188.01934914346941
 21
214.66539790584579
 31
0.0
  0
LINE
  5
C9
  8
2
 10
190.51934914346941
 20
238.66539790584579
 30
0.0
 11
188.01934914346941
 21
238.66539790584579
 31
0.0
  0
LINE
  5
CA
  8
2
 10
198.51934914346941
 20
238.66539790584579
 30
0.0
 11
203.01934914346941
 21
238.66539790584579
 31
0.0
  0
LINE
  5
CB
  8
2
 10
198.51934914346941
 20
238.66539790584579
 30
0.0
 11
198.51934914346941
 21
232.16539556983031
 31
0.0
  0
LINE
  5
CC
  8
2
 10
190.51934914346941
 20
214.66539790584579
 30
0.0
 11
190.51934914346941
 21
221.16539933635721
 31
0.0
  0
LINE
  5
CD
  8
2
 10
198.01934914346941
 20
221.66539790584579
 30
0.0
 11
191.01934914346941
 21
221.66539790584579
 31
0.0
  0
ARC
  5
CE
  8
2
 10
198.01934914346941
 20
221.16539790584571
 30
0.0
 40
0.5
 50
0.0
 51
90.0
  0
ARC
  5
CF
  8
2
 10
191.01934914346941
 20
221.16539790584571
 30
0.0
 40
0.5
 50
90.0
 51
179.99999999999989
  0
ARC
  5
D0
  8
2
 10
191.01934914346941
 20
232.16539790584579
 30
0.0
 40
0.5
 50
180.00000000000011
 51
270.0
  0
LINE
  5
D1
  8
2
 10
198.01934914346941
 20
231.66539790584571
 30
0.0
 11
191.01934914346941
 21
231.66539790584571
 31
0.0
  0
ARC
  5
D2
  8
2
 10
198.01934914346941
 20
232.16539790584579
 30
0.0
 40
0.5
 50
270.0
 51
0.0
  0
LINE
  5
D3
  8
2
 10
198.51934914346941
 20
221.1654009590934
 30
0.0
 11
198.51934914346941
 21
214.66539790584579
 31
0.0
  0
LINE
  5
D4
  8
2
 10
190.51934914346941
 20
238.66539790584579
 30
0.0
 11
190.51934914346941
 21
232.16539556983031
 31
0.0
  0
LINE
  5
D5
  8
1
 10
194.51934914346941
 20
264.41539790584579
 30
0.0
 11
194.51934914346941
 21
188.91539790584571
 31
0.0
  0
LINE
  5
D6
  8
1
 10
178.01934914346941
 20
226.66539790584579
 30
0.0
 11
213.01934914346941
 21
226.66539790584579
 31
0.0
  0
LINE
  5
D7
  8
0
 10
188.01934914346941
 20
254.41539790584571
 30
0.0
 11
189.51934914347569
 21
254.41539790584571
 31
0.0
  0
LINE
  5
D8
  8
0
 10
189.51934914347569
 20
254.41539790584571
 30
0.0
 11
191.52118543193981
 21
248.91539790584579
 31
0.0
  0
LINE
  5
D9
  8
0
 10
191.52118543193981
 20
248.91539790584579
 30
0.0
 11
197.51751285499751
 21
248.91539790584579
 31
0.0
  0
LINE
  5
DA
  8
0
 10
197.51751285499751
 20
248.91539790584579
 30
0.0
 11
199.5193491434616
 21
254.41539790584571
 31
0.0
  0
LINE
  5
DB
  8
0
 10
199.5193491434616
 20
254.41539790584571
 30
0.0
 11
201.01934914346941
 21
254.41539790584571
 31
0.0
  0
LINE
  5
DC
  8
0
 10
201.01934914346941
 20
241.66539790584579
 30
0.0
 11
203.01934914346941
 21
241.66539790584579
 31
0.0
  0
LINE
  5
DD
  8
0
 10
201.01934914346941
 20
211.66539790584579
 30
0.0
 11
203.01934914346941
 21
211.66539790584579
 31
0.0
  0
LINE
  5
DE
  8
0
 10
199.5193491434616
 20
198.91539790584571
 30
0.0
 11
201.01934914346941
 21
198.91539790584571
 31
0.0
  0
LINE
  5
DF
  8
0
 10
197.51751285499751
 20
204.41539790584571
 30
0.0
 11
199.5193491434616
 21
198.91539790584571
 31
0.0
  0
LINE
  5
E0
  8
0
 10
191.52118543193981
 20
204.41539790584571
 30
0.0
 11
197.51751285499751
 21
204.41539790584571
 31
0.0
  0
LINE
  5
E1
  8
0
 10
189.51934914347569
 20
198.91539790584571
 30
0.0
 11
191.52118543193981
 21
204.41539790584571
 31
0.0
  0
LINE
  5
E2
  8
0
 10
188.01934914346941
 20
198.91539790584571
 30
0.0
 11
189.51934914347569
 21
198.91539790584571
 31
0.0
  0
LINE
  5
E3
  8
0
 10
188.01934914346941
 20
254.41539790584571
 30
0.0
 11
188.01934914346941
 21
198.91539790584571
 31
0.0
  0
LINE
  5
E4
  8
0
 10
201.01934914346941
 20
254.41539790584571
 30
0.0
 11
201.01934914346941
 21
241.66539790584579
 31
0.0
  0
LINE
  5
E5
  8
0
 10
203.01934914346941
 20
241.66539790584579
 30
0.0
 11
203.01934914346941
 21
211.66539790584579
 31
0.0
  0
LINE
  5
E6
  8
0
 10
201.01934914346941
 20
211.66539790584579
 30
0.0
 11
201.01934914346941
 21
198.91539790584571
 31
0.0
  0
LINE
  5
E7
  8
1
 10
184.51934914346941
 20
251.66539790584579
 30
0.0
 11
204.51934914346941
 21
251.66539790584579
 31
0.0
  0
LINE
  5
E8
  8
1
 10
184.51934914346941
 20
201.66539790584571
 30
0.0
 11
204.51934914346941
 21
201.66539790584571
 31
0.0
  0
LINE
  5
E9
  8
0
 10
201.01934914346941
 20
59.250829560522021
 30
0.0
 11
201.01934914346941
 21
29.250829560522021
 31
0.0
  0
LINE
  5
EA
  8
0
 10
199.5193491434616
 20
72.000829560522021
 30
0.0
 11
199.5193491434616
 21
16.500829560522011
 31
0.0
  0
LINE
  5
EB
  8
0
 10
197.51751285499751
 20
66.500829560522021
 30
0.0
 11
197.51751285499751
 21
22.000829560522021
 31
0.0
  0
LINE
  5
EC
  8
0
 10
191.52118543193981
 20
66.500829560522021
 30
0.0
 11
191.52118543193981
 21
22.000829560522021
 31
0.0
  0
LINE
  5
ED
  8
0
 10
189.51934914347561
 20
72.000829560522021
 30
0.0
 11
189.51934914347569
 21
16.500829560522011
 31
0.0
  0
LINE
  5
EE
  8
2
 10
198.51934914346941
 20
32.250829560522021
 30
0.0
 11
203.01934914346941
 21
32.250829560522021
 31
0.0
  0
LINE
  5
EF
  8
2
 10
190.51934914346941
 20
32.250829560522021
 30
0.0
 11
188.01934914346941
 21
32.250829560522021
 31
0.0
  0
LINE
  5
F0
  8
2
 10
190.51934914346941
 20
56.250829560522021
 30
0.0
 11
188.01934914346941
 21
56.250829560522021
 31
0.0
  0
LINE
  5
F1
  8
2
 10
198.51934914346941
 20
56.250829560522021
 30
0.0
 11
203.01934914346941
 21
56.250829560522021
 31
0.0
  0
LINE
  5
F2
  8
2
 10
198.51934914346941
 20
56.250829560522021
 30
0.0
 11
198.51934914346941
 21
49.750827224506573
 31
0.0
  0
LINE
  5
F3
  8
2
 10
190.51934914346941
 20
32.250829560522021
 30
0.0
 11
190.51934914346941
 21
38.750830991033489
 31
0.0
  0
LINE
  5
F4
  8
2
 10
198.01934914346941
 20
39.250829560522021
 30
0.0
 11
191.01934914346941
 21
39.250829560522021
 31
0.0
  0
ARC
  5
F5
  8
2
 10
198.01934914346941
 20
38.750829560522021
 30
0.0
 40
0.5
 50
0.0
 51
90.0
  0
ARC
  5
F6
  8
2
 10
191.01934914346941
 20
38.750829560522021
 30
0.0
 40
0.5
 50
90.0
 51
179.99999999999989
  0
ARC
  5
F7
  8
2
 10
191.01934914346941
 20
49.750829560522021
 30
0.0
 40
0.5
 50
180.00000000000011
 51
270.0
  0
LINE
  5
F8
  8
2
 10
198.01934914346941
 20
49.250829560522021
 30
0.0
 11
191.01934914346941
 21
49.250829560522021
 31
0.0
  0
ARC
  5
F9
  8
2
 10
198.01934914346941
 20
49.750829560522021
 30
0.0
 40
0.5
 50
270.0
 51
0.0
  0
LINE
  5
FA
  8
2
 10
198.51934914346941
 20
38.75083261376961
 30
0.0
 11
198.51934914346941
 21
32.250829560522021
 31
0.0
  0
LINE
  5
FB
  8
2
 10
190.51934914346941
 20
56.250829560522021
 30
0.0
 11
190.51934914346941
 21
49.750827224506573
 31
0.0
  0
LINE
  5
FC
  8
1
 10
194.51934914346941
 20
82.000829560522021
 30
0.0
 11
194.51934914346941
 21
6.500829560522007
 31
0.0
  0
LINE
  5
FD
  8
1
 10
178.01934914346941
 20
44.250829560522021
 30
0.0
 11
213.01934914346941
 21
44.250829560522021
 31
0.0
  0
LINE
  5
FE
  8
0
 10
188.01934914346941
 20
72.000829560522021
 30
0.0
 11
189.51934914347569
 21
72.000829560522021
 31
0.0
  0
LINE
  5
FF
  8
0
 10
189.51934914347569
 20
72.000829560522021
 30
0.0
 11
191.52118543193981
 21
66.500829560522021
 31
0.0
  0
LINE
  5
100
  8
0
 10
191.52118543193981
 20
66.500829560522021
 30
0.0
 11
197.51751285499751
 21
66.500829560522021
 31
0.0
  0
LINE
  5
101
  8
0
 10
197.51751285499751
 20
66.500829560522021
 30
0.0
 11
199.5193491434616
 21
72.000829560522021
 31
0.0
  0
LINE
  5
102
  8
0
 10
199.5193491434616
 20
72.000829560522021
 30
0.0
 11
201.01934914346941
 21
72.000829560522021
 31
0.0
  0
LINE
  5
103
  8
0
 10
201.01934914346941
 20
59.250829560522021
 30
0.0
 11
203.01934914346941
 21
59.250829560522021
 31
0.0
  0
LINE
  5
104
  8
0
 10
201.01934914346941
 20
29.250829560522021
 30
0.0
 11
203.01934914346941
 21
29.250829560522021
 31
0.0
  0
LINE
  5
105
  8
0
 10
199.5193491434616
 20
16.500829560522011
 30
0.0
 11
201.01934914346941
 21
16.500829560522011
 31
0.0
  0
LINE
  5
106
  8
0
 10
197.51751285499751
 20
22.000829560522011
 30
0.0
 11
199.5193491434616
 21
16.500829560522011
 31
0.0
  0
LINE
  5
107
  8
0
 10
191.52118543193981
 20
22.000829560522011
 30
0.0
 11
197.51751285499751
 21
22.000829560522011
 31
0.0
  0
LINE
  5
108
  8
0
 10
189.51934914347569
 20
16.500829560522011
 30
0.0
 11
191.52118543193981
 21
22.000829560522011
 31
0.0
  0
LINE
  5
109
  8
0
 10
188.01934914346941
 20
16.500829560522011
 30
0.0
 11
189.51934914347569
 21
16.500829560522011
 31
0.0
  0
LINE
  5
10A
  8
0
 10
188.01934914346941
 20
72.000829560522021
 30
0.0
 11
188.01934914346941
 21
16.500829560521989
 31
0.0
  0
LINE
  5
10B
  8
0
 10
201.01934914346941
 20
72.000829560522021
 30
0.0
 11
201.01934914346941
 21
59.250829560522021
 31
0.0
  0
LINE
  5
10C
  8
0
 10
203.01934914346941
 20
59.250829560522021
 30
0.0
 11
203.01934914346941
 21
29.250829560522021
 31
0.0
  0
LINE
  5
10D
  8
0
 10
201.01934914346941
 20
29.250829560522021
 30
0.0
 11
201.01934914346941
 21
16.500829560522011
 31
0.0
  0
LINE
  5
10E
  8
1
 10
184.51934914346941
 20
69.250829560522021
 30
0.0
 11
204.51934914346941
 21
69.250829560522021
 31
0.0
  0
LINE
  5
10F
  8
1
 10
184.51934914346941
 20
19.250829560522
 30
0.0
 11
204.51934914346941
 21
19.250829560522
 31
0.0
  0
TEXT
  5
22E
  8
0
 62
     3
 10
0.0
 20
0.0
 30
0.0
 40
10.0
  1
VIP50M
  7
STANDARD1
  0
ENDSEC
  0
EOF
