  0
SECTION
  2
HEADER
  9
$ACADVER
  1
AC1009
  9
$INSBASE
 10
0.0
 20
0.0
 30
0.0
  9
$EXTMIN
 10
0.0
 20
-2.960436562073669
 30
0.0
  9
$EXTMAX
 10
115.6889495225102
 20
181.99999999999989
 30
0.0
  9
$LIMMIN
 10
0.0
 20
0.0
  9
$LIMMAX
 10
750.0
 20
540.0
  9
$ORTHOMODE
 70
     1
  9
$REGENMODE
 70
     1
  9
$FILLMODE
 70
     1
  9
$QTEXTMODE
 70
     0
  9
$MIRRTEXT
 70
     0
  9
$DRAGMODE
 70
     2
  9
$LTSCALE
 40
5.0
  9
$OSMODE
 70
    37
  9
$ATTMODE
 70
     1
  9
$TEXTSIZE
 40
0.2
  9
$TRACEWID
 40
0.05
  9
$TEXTSTYLE
  7
STANDARD
  9
$CLAYER
  8
0
  9
$CELTYPE
  6
BYLAYER
  9
$CECOLOR
 62
   256
  9
$DIMSCALE
 40
1.0
  9
$DIMASZ
 40
3.0
  9
$DIMEXO
 40
2.0
  9
$DIMDLI
 40
0.38
  9
$DIMRND
 40
0.0
  9
$DIMDLE
 40
0.0
  9
$DIMEXE
 40
2.0
  9
$DIMTP
 40
0.0
  9
$DIMTM
 40
0.0
  9
$DIMTXT
 40
3.2000000000000002
  9
$DIMCEN
 40
0.0
  9
$DIMTSZ
 40
0.0
  9
$DIMTOL
 70
     0
  9
$DIMLIM
 70
     0
  9
$DIMTIH
 70
     0
  9
$DIMTOH
 70
     0
  9
$DIMSE1
 70
     0
  9
$DIMSE2
 70
     0
  9
$DIMTAD
 70
     1
  9
$DIMZIN
 70
     0
  9
$DIMBLK
  1

  9
$DIMASO
 70
     0
  9
$DIMSHO
 70
     0
  9
$DIMPOST
  1

  9
$DIMAPOST
  1

  9
$DIMALT
 70
     0
  9
$DIMALTD
 70
     2
  9
$DIMALTF
 40
25.399999999999999
  9
$DIMLFAC
 40
1.0
  9
$DIMTOFL
 70
     0
  9
$DIMTVP
 40
1.6000000000000001
  9
$DIMTIX
 70
     1
  9
$DIMSOXD
 70
     0
  9
$DIMSAH
 70
     0
  9
$DIMBLK1
  1

  9
$DIMBLK2
  1

  9
$DIMSTYLE
  2
STANDARD
  9
$DIMCLRD
 70
     0
  9
$DIMCLRE
 70
     0
  9
$DIMCLRT
 70
     0
  9
$DIMTFAC
 40
1.0
  9
$DIMGAP
 40
0.09
  9
$LUNITS
 70
     2
  9
$LUPREC
 70
     4
  9
$SKETCHINC
 40
0.1
  9
$FILLETRAD
 40
0.0
  9
$AUNITS
 70
     0
  9
$AUPREC
 70
     4
  9
$MENU
  1
E:\r13\win\SUPPORT\ACAD
  9
$ELEVATION
 40
0.0
  9
$PELEVATION
 40
0.0
  9
$THICKNESS
 40
0.0
  9
$LIMCHECK
 70
     0
  9
$BLIPMODE
 70
     0
  9
$CHAMFERA
 40
0.0
  9
$CHAMFERB
 40
0.0
  9
$SKPOLY
 70
     0
  9
$TDCREATE
 40
2449840.6227546302
  9
$TDUPDATE
 40
2457162.6034486229
  9
$TDINDWG
 40
0.0155941435
  9
$TDUSRTIMER
 40
2456426.2974548731
  9
$USRTIMER
 70
     1
  9
$ANGBASE
 50
0.0
  9
$ANGDIR
 70
     0
  9
$PDMODE
 70
     0
  9
$PDSIZE
 40
0.0
  9
$PLINEWID
 40
0.0
  9
$COORDS
 70
     1
  9
$SPLFRAME
 70
     0
  9
$SPLINETYPE
 70
     6
  9
$SPLINESEGS
 70
     8
  9
$ATTDIA
 70
     0
  9
$ATTREQ
 70
     1
  9
$HANDLING
 70
     1
  9
$HANDSEED
  5
685
  9
$SURFTAB1
 70
     6
  9
$SURFTAB2
 70
     6
  9
$SURFTYPE
 70
     6
  9
$SURFU
 70
     6
  9
$SURFV
 70
     6
  9
$UCSNAME
  2

  9
$UCSORG
 10
0.0
 20
0.0
 30
0.0
  9
$UCSXDIR
 10
1.0
 20
0.0
 30
0.0
  9
$UCSYDIR
 10
0.0
 20
1.0
 30
0.0
  9
$PUCSNAME
  2

  9
$PUCSORG
 10
0.0
 20
0.0
 30
0.0
  9
$PUCSXDIR
 10
1.0
 20
0.0
 30
0.0
  9
$PUCSYDIR
 10
0.0
 20
1.0
 30
0.0
  9
$USERI1
 70
     0
  9
$USERI2
 70
     1
  9
$USERI3
 70
     0
  9
$USERI4
 70
     0
  9
$USERI5
 70
     0
  9
$USERR1
 40
0.0
  9
$USERR2
 40
0.0
  9
$USERR3
 40
0.0
  9
$USERR4
 40
0.0
  9
$USERR5
 40
0.0
  9
$WORLDVIEW
 70
     1
  9
$SHADEDGE
 70
     3
  9
$SHADEDIF
 70
    70
  9
$TILEMODE
 70
     1
  9
$MAXACTVP
 70
    16
  9
$PLIMCHECK
 70
     0
  9
$PEXTMIN
 10
1.0000000000000000E+020
 20
1.0000000000000000E+020
 30
1.0000000000000000E+020
  9
$PEXTMAX
 10
-1.0000000000000000E+020
 20
-1.0000000000000000E+020
 30
-1.0000000000000000E+020
  9
$PLIMMIN
 10
0.0
 20
0.0
  9
$PLIMMAX
 10
12.0
 20
9.0
  9
$UNITMODE
 70
     0
  9
$VISRETAIN
 70
     0
  9
$PLINEGEN
 70
     0
  9
$PSLTSCALE
 70
     0
  0
ENDSEC
  0
SECTION
  2
TABLES
  0
TABLE
  2
VPORT
 70
     1
  0
VPORT
  2
*ACTIVE
 70
     0
 10
0.0
 20
0.0
 11
1.0
 21
1.0
 12
245.19230769230771
 22
135.0
 13
0.0
 23
0.0
 14
20.0
 24
20.0
 15
20.0
 25
20.0
 16
0.0
 26
0.0
 36
1.0
 17
0.0
 27
0.0
 37
0.0
 40
270.0
 41
1.816239316239316
 42
50.0
 43
0.0
 44
0.0
 50
0.0
 51
0.0
 71
    16
 72
   100
 73
     1
 74
     0
 75
     0
 76
     0
 77
     0
 78
     2
  0
ENDTAB
  0
TABLE
  2
LTYPE
 70
     3
  0
LTYPE
  2
CONTINUOUS
 70
     0
  3
Solid Line
 72
    65
 73
     0
 40
0.0
  0
LTYPE
  2
PHANTOM2
 70
     0
  3
___ _ _ ___ _ _ ___ _ _ ___ _ _
 72
    65
 73
     6
 40
1.25
 49
0.625
 49
-0.125
 49
0.125
 49
-0.125
 49
0.125
 49
-0.125
  0
LTYPE
  2
CENTER
 70
     0
  3
____ _ ____ _ ____ _ ____ _ ____ _ ____ _ ____
 72
    65
 73
     4
 40
2.0
 49
1.25
 49
-0.25
 49
0.25
 49
-0.25
  0
ENDTAB
  0
TABLE
  2
LAYER
 70
     3
  0
LAYER
  2
0
 70
     0
 62
     7
  6
CONTINUOUS
  0
LAYER
  2
1
 70
     0
 62
     1
  6
CENTER
  0
LAYER
  2
3
 70
     0
 62
     3
  6
CONTINUOUS
  0
ENDTAB
  0
TABLE
  2
STYLE
 70
     2
  0
STYLE
  2
STANDARD
 70
     0
 40
0.0
 41
1.0
 50
0.0
 71
     0
 42
0.2
  3
TXT
  4
BIGFONT
  0
STYLE
  2
STANDARD1
 70
     0
 40
0.0
 41
1.0
 50
0.0
 71
     0
 42
3.0
  3
txt
  4

  0
ENDTAB
  0
TABLE
  2
VIEW
 70
     1
  0
VIEW
  2
ALL
 70
     0
 40
540.0
 10
441.98319299999991
 20
270.0
 41
0.0
 11
0.0
 21
0.0
 31
1.0
 12
0.0
 22
0.0
 32
0.0
 42
0.0
 43
0.0
 44
0.0
 50
0.0
 71
     0
  0
ENDTAB
  0
TABLE
  2
UCS
 70
     0
  0
ENDTAB
  0
TABLE
  2
APPID
 70
     7
  0
APPID
  2
ACAD
 70
     0
  0
APPID
  2
ACADANNOTATIVE
 70
     0
  0
APPID
  2
ACAD_NAV_VCDISPLAY
 70
     0
  0
APPID
  2
ACAD_EXEMPT_FROM_CAD_STANDARDS
 70
     0
  0
APPID
  2
ACAD_DSTYLE_DIMJAG
 70
     0
  0
APPID
  2
ACAD_DSTYLE_DIMTALN
 70
     0
  0
APPID
  2
ACAD_MLEADERVER
 70
     0
  0
ENDTAB
  0
TABLE
  2
DIMSTYLE
 70
     1
  0
DIMSTYLE
  2
STANDARD
 70
     0
  3

  4

  5

  6

  7

 40
1.0
 41
0.18
 42
0.0625
 43
0.38
 44
0.18
 45
0.0
 46
0.0
 47
0.0
 48
0.0
140
0.18
141
0.09
142
0.0
143
25.399999999999999
144
1.0
145
0.0
146
1.0
147
0.09
 71
     0
 72
     0
 73
     1
 74
     1
 75
     0
 76
     0
 77
     0
 78
     0
170
     0
171
     2
172
     0
173
     0
174
     0
175
     0
176
     0
177
     0
178
     0
  0
ENDTAB
  0
ENDSEC
  0
SECTION
  2
BLOCKS
  0
BLOCK
  8
0
  2
$MODEL_SPACE
 70
     0
 10
0.0
 20
0.0
 30
0.0
  3
$MODEL_SPACE
  1

  0
ENDBLK
  5
4FB
  8
0
  0
BLOCK
 67
     1
  8
0
  2
$PAPER_SPACE
 70
     0
 10
0.0
 20
0.0
 30
0.0
  3
$PAPER_SPACE
  1

  0
ENDBLK
  5
4F7
 67
     1
  8
0
  0
ENDSEC
  0
SECTION
  2
ENTITIES
  0
LINE
  5
40A
  8
1
 10
50.0
 20
121.9999999999999
 30
0.0
 11
50.0
 21
48.0
 31
0.0
  0
LINE
  5
40B
  8
0
 10
65.0
 20
69.999999999999986
 30
0.0
 11
65.0
 21
99.999999999999943
 31
0.0
  0
LINE
  5
40C
  8
0
 10
35.0
 20
99.999999999999943
 30
0.0
 11
35.0
 21
69.999999999999986
 31
0.0
  0
LINE
  5
40D
  8
0
 10
54.0
 20
50.766999999999953
 30
0.0
 11
54.0
 21
69.999999999999986
 31
0.0
  0
LINE
  5
40E
  8
0
 10
45.999999999999993
 20
69.999999999999986
 30
0.0
 11
45.999999999999993
 21
50.766999999999953
 31
0.0
  0
LINE
  5
40F
  8
0
 10
53.233000000000011
 20
50.0
 30
0.0
 11
54.0
 21
50.766999999999953
 31
0.0
  0
LINE
  5
410
  8
0
 10
45.999999999999993
 20
50.766999999999953
 30
0.0
 11
46.766999999999989
 21
50.0
 31
0.0
  0
LINE
  5
411
  8
0
 10
54.0
 20
119.2329999999999
 30
0.0
 11
53.233000000000011
 21
119.9999999999999
 31
0.0
  0
LINE
  5
412
  8
0
 10
46.766999999999989
 20
119.9999999999999
 30
0.0
 11
45.999999999999993
 21
119.2329999999999
 31
0.0
  0
LINE
  5
413
  8
0
 10
54.0
 20
99.999999999999943
 30
0.0
 11
54.0
 21
119.2329999999999
 31
0.0
  0
LINE
  5
414
  8
0
 10
45.999999999999993
 20
119.2329999999999
 30
0.0
 11
45.999999999999993
 21
99.999999999999943
 31
0.0
  0
LINE
  5
415
  8
0
 10
35.0
 20
99.999999999999943
 30
0.0
 11
65.0
 21
99.999999999999943
 31
0.0
  0
LINE
  5
416
  8
0
 10
35.0
 20
69.999999999999986
 30
0.0
 11
65.0
 21
69.999999999999986
 31
0.0
  0
LINE
  5
417
  8
0
 10
45.999999999999993
 20
50.766999999999953
 30
0.0
 11
54.0
 21
50.766999999999953
 31
0.0
  0
LINE
  5
418
  8
0
 10
46.76700000000001
 20
50.0
 30
0.0
 11
53.23299999999999
 21
50.0
 31
0.0
  0
LINE
  5
419
  8
0
 10
46.76700000000001
 20
119.9999999999999
 30
0.0
 11
53.23299999999999
 21
119.9999999999999
 31
0.0
  0
LINE
  5
41A
  8
0
 10
45.999999999999993
 20
119.2329999999999
 30
0.0
 11
54.0
 21
119.2329999999999
 31
0.0
  0
LINE
  5
41B
  8
3
 10
53.23299999999999
 20
50.0
 30
0.0
 11
53.23299999999999
 21
68.999999999999986
 31
0.0
  0
LINE
  5
41C
  8
3
 10
54.0
 20
69.999999999999986
 30
0.0
 11
53.23299999999999
 21
68.999999999999986
 31
0.0
  0
LINE
  5
41D
  8
0
 10
54.0
 20
68.999999999999986
 30
0.0
 11
45.999999999999993
 21
68.999999999999986
 31
0.0
  0
LINE
  5
41E
  8
3
 10
46.76700000000001
 20
50.0
 30
0.0
 11
46.76700000000001
 21
68.999999999999986
 31
0.0
  0
LINE
  5
41F
  8
3
 10
45.999999999999993
 20
69.999999999999986
 30
0.0
 11
46.76700000000001
 21
68.999999999999986
 31
0.0
  0
LINE
  5
420
  8
3
 10
53.23299999999999
 20
119.9999999999999
 30
0.0
 11
53.23299999999999
 21
100.9999999999999
 31
0.0
  0
LINE
  5
421
  8
3
 10
54.0
 20
99.999999999999943
 30
0.0
 11
53.23299999999999
 21
100.9999999999999
 31
0.0
  0
LINE
  5
422
  8
0
 10
54.0
 20
100.9999999999999
 30
0.0
 11
45.999999999999993
 21
100.9999999999999
 31
0.0
  0
LINE
  5
423
  8
3
 10
46.76700000000001
 20
119.9999999999999
 30
0.0
 11
46.76700000000001
 21
100.9999999999999
 31
0.0
  0
LINE
  5
424
  8
3
 10
45.999999999999993
 20
99.999999999999943
 30
0.0
 11
46.76700000000001
 21
100.9999999999999
 31
0.0
  0
LINE
  5
42F
  8
1
 10
32.999999999999993
 20
164.99999999999989
 30
0.0
 11
67.0
 21
164.99999999999989
 31
0.0
  0
LINE
  5
430
  8
1
 10
50.0
 20
181.99999999999989
 30
0.0
 11
50.0
 21
147.99999999999989
 31
0.0
  0
CIRCLE
  5
431
  8
0
 10
50.0
 20
164.99999999999989
 30
0.0
 40
15.0
  0
CIRCLE
  5
432
  8
0
 10
50.0
 20
164.99999999999989
 30
0.0
 40
4.0
  0
CIRCLE
  5
433
  8
3
 10
50.0
 20
164.99999999999989
 30
0.0
 40
3.2330000000000001
  0
TEXT
  5
57D
  8
0
 62
     3
 10
0.0
 20
0.0
 30
0.0
 40
10.0
  1
VD1-3030M8-SUS
  7
STANDARD1
  0
ENDSEC
  0
EOF
