  0
SECTION
  2
HEADER
  9
$ACADVER
  1
AC1009
  9
$INSBASE
 10
0.0
 20
0.0
 30
0.0
  9
$EXTMIN
 10
0.0
 20
-2.960436562073669
 30
0.0
  9
$EXTMAX
 10
323.5473092177354
 20
180.3722735888895
 30
0.0
  9
$LIMMIN
 10
0.0
 20
0.0
  9
$LIMMAX
 10
375.0
 20
270.0
  9
$ORTHOMODE
 70
     1
  9
$REGENMODE
 70
     1
  9
$FILLMODE
 70
     1
  9
$QTEXTMODE
 70
     0
  9
$MIRRTEXT
 70
     0
  9
$DRAGMODE
 70
     2
  9
$LTSCALE
 40
10.0
  9
$OSMODE
 70
    55
  9
$ATTMODE
 70
     1
  9
$TEXTSIZE
 40
2.0
  9
$TRACEWID
 40
0.05
  9
$TEXTSTYLE
  7
STANDARD
  9
$CLAYER
  8
0
  9
$CELTYPE
  6
BYLAYER
  9
$CECOLOR
 62
   256
  9
$DIMSCALE
 40
1.0
  9
$DIMASZ
 40
2.5
  9
$DIMEXO
 40
2.0
  9
$DIMDLI
 40
0.38
  9
$DIMRND
 40
0.0
  9
$DIMDLE
 40
0.0
  9
$DIMEXE
 40
2.0
  9
$DIMTP
 40
0.0
  9
$DIMTM
 40
0.0
  9
$DIMTXT
 40
3.0
  9
$DIMCEN
 40
0.09
  9
$DIMTSZ
 40
0.0
  9
$DIMTOL
 70
     0
  9
$DIMLIM
 70
     0
  9
$DIMTIH
 70
     0
  9
$DIMTOH
 70
     0
  9
$DIMSE1
 70
     0
  9
$DIMSE2
 70
     0
  9
$DIMTAD
 70
     1
  9
$DIMZIN
 70
     0
  9
$DIMBLK
  1

  9
$DIMASO
 70
     1
  9
$DIMSHO
 70
     0
  9
$DIMPOST
  1

  9
$DIMAPOST
  1

  9
$DIMALT
 70
     0
  9
$DIMALTD
 70
     2
  9
$DIMALTF
 40
25.399999999999999
  9
$DIMLFAC
 40
1.0
  9
$DIMTOFL
 70
     0
  9
$DIMTVP
 40
1.6000000000000001
  9
$DIMTIX
 70
     1
  9
$DIMSOXD
 70
     0
  9
$DIMSAH
 70
     0
  9
$DIMBLK1
  1

  9
$DIMBLK2
  1

  9
$DIMSTYLE
  2
STANDARD
  9
$DIMCLRD
 70
     0
  9
$DIMCLRE
 70
     0
  9
$DIMCLRT
 70
     0
  9
$DIMTFAC
 40
1.0
  9
$DIMGAP
 40
0.09
  9
$LUNITS
 70
     2
  9
$LUPREC
 70
     4
  9
$SKETCHINC
 40
0.1
  9
$FILLETRAD
 40
2.5
  9
$AUNITS
 70
     0
  9
$AUPREC
 70
     0
  9
$MENU
  1
E:\r13\win\SUPPORT\ACAD
  9
$ELEVATION
 40
0.0
  9
$PELEVATION
 40
0.0
  9
$THICKNESS
 40
0.0
  9
$LIMCHECK
 70
     0
  9
$BLIPMODE
 70
     0
  9
$CHAMFERA
 40
0.0
  9
$CHAMFERB
 40
0.0
  9
$SKPOLY
 70
     0
  9
$TDCREATE
 40
2448650.5678784722
  9
$TDUPDATE
 40
2456598.4096217249
  9
$TDINDWG
 40
0.0554762269
  9
$TDUSRTIMER
 40
0.0554762269
  9
$USRTIMER
 70
     1
  9
$ANGBASE
 50
0.0
  9
$ANGDIR
 70
     0
  9
$PDMODE
 70
     0
  9
$PDSIZE
 40
0.0
  9
$PLINEWID
 40
0.0
  9
$COORDS
 70
     1
  9
$SPLFRAME
 70
     0
  9
$SPLINETYPE
 70
     6
  9
$SPLINESEGS
 70
     8
  9
$ATTDIA
 70
     0
  9
$ATTREQ
 70
     1
  9
$HANDLING
 70
     1
  9
$HANDSEED
  5
7BF
  9
$SURFTAB1
 70
     6
  9
$SURFTAB2
 70
     6
  9
$SURFTYPE
 70
     6
  9
$SURFU
 70
     6
  9
$SURFV
 70
     6
  9
$UCSNAME
  2

  9
$UCSORG
 10
0.0
 20
0.0
 30
0.0
  9
$UCSXDIR
 10
1.0
 20
0.0
 30
0.0
  9
$UCSYDIR
 10
0.0
 20
1.0
 30
0.0
  9
$PUCSNAME
  2

  9
$PUCSORG
 10
0.0
 20
0.0
 30
0.0
  9
$PUCSXDIR
 10
1.0
 20
0.0
 30
0.0
  9
$PUCSYDIR
 10
0.0
 20
1.0
 30
0.0
  9
$USERI1
 70
     0
  9
$USERI2
 70
     1
  9
$USERI3
 70
     1
  9
$USERI4
 70
     0
  9
$USERI5
 70
     0
  9
$USERR1
 40
0.0
  9
$USERR2
 40
0.0
  9
$USERR3
 40
0.0
  9
$USERR4
 40
0.0
  9
$USERR5
 40
0.0
  9
$WORLDVIEW
 70
     1
  9
$SHADEDGE
 70
     3
  9
$SHADEDIF
 70
    70
  9
$TILEMODE
 70
     1
  9
$MAXACTVP
 70
    16
  9
$PLIMCHECK
 70
     0
  9
$PEXTMIN
 10
1.0000000000000000E+020
 20
1.0000000000000000E+020
 30
1.0000000000000000E+020
  9
$PEXTMAX
 10
-1.0000000000000000E+020
 20
-1.0000000000000000E+020
 30
-1.0000000000000000E+020
  9
$PLIMMIN
 10
0.0
 20
0.0
  9
$PLIMMAX
 10
12.0
 20
9.0
  9
$UNITMODE
 70
     0
  9
$VISRETAIN
 70
     0
  9
$PLINEGEN
 70
     1
  9
$PSLTSCALE
 70
     0
  0
ENDSEC
  0
SECTION
  2
TABLES
  0
TABLE
  2
VPORT
 70
     1
  0
VPORT
  2
*ACTIVE
 70
     0
 10
0.0
 20
0.0
 11
1.0
 21
1.0
 12
187.4942783906524
 22
197.0509055860143
 13
0.0
 23
0.0
 14
10.0
 24
10.0
 15
10.0
 25
10.0
 16
0.0
 26
0.0
 36
1.0
 17
0.0
 27
0.0
 37
0.0
 40
403.57315882993248
 41
1.7807262569832401
 42
50.0
 43
0.0
 44
0.0
 50
0.0
 51
0.0
 71
     0
 72
   500
 73
     1
 74
     0
 75
     0
 76
     0
 77
     0
 78
     2
  0
ENDTAB
  0
TABLE
  2
LTYPE
 70
     4
  0
LTYPE
  2
CONTINUOUS
 70
     0
  3
Solid Line
 72
    65
 73
     0
 40
0.0
  0
LTYPE
  2
CENTER
 70
     0
  3
____ _ ____ _ ____ _ ____ _ ____ _ ____ _ ____
 72
    65
 73
     4
 40
2.0
 49
1.25
 49
-0.25
 49
0.25
 49
-0.25
  0
LTYPE
  2
HIDDEN
 70
     0
  3
_ _ _ _ _ _ _ _ _ _ _ _ _ _ _ _ _ _ _ _ _ _ _
 72
    65
 73
     2
 40
0.375
 49
0.25
 49
-0.125
  0
LTYPE
  2
PHANTOM2
 70
     0
  3
___ _ _ ___ _ _ ___ _ _ ___ _ _
 72
    65
 73
     6
 40
1.25
 49
0.625
 49
-0.125
 49
0.125
 49
-0.125
 49
0.125
 49
-0.125
  0
ENDTAB
  0
TABLE
  2
LAYER
 70
     3
  0
LAYER
  2
0
 70
     0
 62
     7
  6
CONTINUOUS
  0
LAYER
  2
1
 70
     0
 62
     1
  6
CENTER
  0
LAYER
  2
2
 70
     0
 62
     2
  6
HIDDEN
  0
ENDTAB
  0
TABLE
  2
STYLE
 70
     2
  0
STYLE
  2
STANDARD
 70
     0
 40
0.0
 41
1.0
 50
0.0
 71
     0
 42
2.0
  3
TXT
  4
BIGFONT
  0
STYLE
  2
STANDARD1
 70
     0
 40
0.0
 41
1.0
 50
0.0
 71
     0
 42
3.0
  3
txt
  4

  0
ENDTAB
  0
TABLE
  2
VIEW
 70
     1
  0
VIEW
  2
ALL
 70
     0
 40
270.0
 10
220.99159663865549
 20
135.0
 41
0.0
 11
0.0
 21
0.0
 31
1.0
 12
0.0
 22
0.0
 32
0.0
 42
0.0
 43
0.0
 44
0.0
 50
0.0
 71
     0
  0
ENDTAB
  0
TABLE
  2
UCS
 70
     0
  0
ENDTAB
  0
TABLE
  2
APPID
 70
     3
  0
APPID
  2
ACAD
 70
     0
  0
APPID
  2
ACAD_MLEADERVER
 70
     0
  0
APPID
  2
ACAD_NAV_VCDISPLAY
 70
     0
  0
ENDTAB
  0
TABLE
  2
DIMSTYLE
 70
     1
  0
DIMSTYLE
  2
STANDARD
 70
     0
  3

  4

  5

  6

  7

 40
1.0
 41
0.18
 42
0.0625
 43
0.38
 44
0.18
 45
0.0
 46
0.0
 47
0.0
 48
0.0
140
0.18
141
0.09
142
0.0
143
25.399999999999999
144
1.0
145
0.0
146
1.0
147
0.09
 71
     0
 72
     0
 73
     1
 74
     1
 75
     0
 76
     0
 77
     0
 78
     0
170
     0
171
     2
172
     0
173
     0
174
     0
175
     0
176
     0
177
     0
178
     0
  0
ENDTAB
  0
ENDSEC
  0
SECTION
  2
BLOCKS
  0
BLOCK
  8
0
  2
$MODEL_SPACE
 70
     0
 10
0.0
 20
0.0
 30
0.0
  3
$MODEL_SPACE
  1

  0
ENDBLK
  5
217
  8
0
  0
BLOCK
 67
     1
  8
0
  2
$PAPER_SPACE
 70
     0
 10
0.0
 20
0.0
 30
0.0
  3
$PAPER_SPACE
  1

  0
ENDBLK
  5
215
 67
     1
  8
0
  0
ENDSEC
  0
SECTION
  2
ENTITIES
  0
LINE
  5
5F1
  8
0
  6
CONTINUOUS
 62
     7
 10
306.54730921773529
 20
116.56392111271251
 30
0.0
 11
318.5473092177354
 21
116.56392111271251
 31
0.0
  0
LINE
  5
5F2
  8
0
  6
CONTINUOUS
 62
     7
 10
106.5473092177353
 20
116.56392111271251
 30
0.0
 11
118.5473092177353
 21
116.56392111271261
 31
0.0
  0
LINE
  5
5F3
  8
2
 10
116.5473092177353
 20
157.3722735888895
 30
0.0
 11
116.5473092177353
 21
169.3722735888895
 31
0.0
  0
LINE
  5
5F4
  8
0
 10
306.54730921773529
 20
156.3722735888895
 30
0.0
 11
306.5473092177354
 21
180.3722735888895
 31
0.0
  0
LINE
  5
5F5
  8
0
 10
118.5473092177353
 20
156.37227358888941
 30
0.0
 11
118.5473092177353
 21
180.3722735888895
 31
0.0
  0
LINE
  5
5F6
  8
0
 10
318.5473092177354
 20
156.3722735888895
 30
0.0
 11
306.54730921773529
 21
156.37227358888941
 31
0.0
  0
LINE
  5
5F7
  8
0
 10
106.5473092177353
 20
156.37227358888941
 30
0.0
 11
118.5473092177353
 21
156.37227358888941
 31
0.0
  0
LINE
  5
5F8
  8
0
 10
54.54730921773529
 20
76.563921112712478
 30
0.0
 11
42.547309217735283
 21
76.563921112712478
 31
0.0
  0
LINE
  5
5F9
  8
1
 10
47.547309217735283
 20
109.56392111271251
 30
0.0
 11
71.54730921773529
 21
109.56392111271251
 31
0.0
  0
LINE
  5
5FA
  8
0
 10
318.5473092177354
 20
180.3722735888895
 30
0.0
 11
306.5473092177354
 21
180.3722735888895
 31
0.0
  0
LINE
  5
5FB
  8
0
 10
318.54730921773529
 20
156.3722735888895
 30
0.0
 11
318.5473092177354
 21
180.3722735888895
 31
0.0
  0
LINE
  5
5FC
  8
0
 10
106.5473092177353
 20
156.37227358888941
 30
0.0
 11
106.5473092177353
 21
180.3722735888895
 31
0.0
  0
LINE
  5
5FD
  8
0
 10
106.5473092177353
 20
180.3722735888895
 30
0.0
 11
118.5473092177353
 21
180.3722735888895
 31
0.0
  0
LINE
  5
5FE
  8
1
 10
101.5473092177353
 20
163.3722735888895
 30
0.0
 11
323.5473092177354
 21
163.3722735888895
 31
0.0
  0
LINE
  5
5FF
  8
0
 10
118.5473092177353
 20
169.3722735888895
 30
0.0
 11
306.54730921773529
 21
169.3722735888895
 31
0.0
  0
LINE
  5
600
  8
0
 10
118.5473092177353
 20
157.37227358888941
 30
0.0
 11
306.54730921773529
 21
157.3722735888895
 31
0.0
  0
LINE
  5
601
  8
2
 10
306.54730921773529
 20
169.3722735888895
 30
0.0
 11
308.54730921773529
 21
169.3722735888895
 31
0.0
  0
LINE
  5
602
  8
2
 10
308.54730921773529
 20
169.3722735888895
 30
0.0
 11
308.54730921773529
 21
157.37227358888941
 31
0.0
  0
LINE
  5
603
  8
2
 10
306.54730921773529
 20
157.3722735888895
 30
0.0
 11
308.54730921773529
 21
157.37227358888941
 31
0.0
  0
LINE
  5
604
  8
2
 10
118.5473092177353
 20
157.3722735888895
 30
0.0
 11
116.5473092177353
 21
157.3722735888895
 31
0.0
  0
LINE
  5
605
  8
2
 10
118.5473092177353
 20
169.3722735888895
 30
0.0
 11
116.5473092177353
 21
169.3722735888895
 31
0.0
  0
LINE
  5
606
  8
2
 10
118.5473092177353
 20
115.56392111271251
 30
0.0
 11
116.5473092177353
 21
115.56392111271261
 31
0.0
  0
LINE
  5
607
  8
2
 10
116.5473092177353
 20
115.56392111271261
 30
0.0
 11
116.5473092177353
 21
103.56392111271251
 31
0.0
  0
LINE
  5
608
  8
2
 10
118.5473092177353
 20
103.56392111271251
 30
0.0
 11
116.5473092177353
 21
103.56392111271251
 31
0.0
  0
LINE
  5
609
  8
2
 10
306.54730921773529
 20
103.56392111271251
 30
0.0
 11
308.54730921773529
 21
103.56392111271251
 31
0.0
  0
LINE
  5
60A
  8
2
 10
308.54730921773529
 20
115.56392111271261
 30
0.0
 11
308.54730921773529
 21
103.56392111271251
 31
0.0
  0
LINE
  5
60B
  8
2
 10
306.54730921773529
 20
115.56392111271251
 30
0.0
 11
308.54730921773529
 21
115.56392111271261
 31
0.0
  0
LINE
  5
60E
  8
0
  6
CONTINUOUS
 62
     7
 10
306.54730921773529
 20
76.563921112712478
 30
0.0
 11
318.54730921773529
 21
76.563921112712436
 31
0.0
  0
LINE
  5
60F
  8
0
  6
CONTINUOUS
 62
     7
 10
306.54730921773529
 20
76.563921112712478
 30
0.0
 11
306.54730921773529
 21
116.56392111271251
 31
0.0
  0
LINE
  5
610
  8
0
  6
CONTINUOUS
 62
     7
 10
318.54730921773529
 20
76.563921112712478
 30
0.0
 11
318.5473092177354
 21
116.56392111271251
 31
0.0
  0
LINE
  5
611
  8
2
 10
310.5473092177354
 20
82.563921112712478
 30
0.0
 11
310.92630921773559
 21
83.220368368781536
 31
0.0
  0
LINE
  5
612
  8
2
 10
314.54730921773529
 20
82.563921112712478
 30
0.0
 11
314.1683092177351
 21
83.220368368781536
 31
0.0
  0
LINE
  5
613
  8
2
 10
314.1683092177351
 20
83.563921112712364
 30
0.0
 11
312.54730921773529
 21
84.537916176155932
 31
0.0
  0
LINE
  5
614
  8
2
 10
310.92630921773571
 20
83.563921112712464
 30
0.0
 11
312.54730921773529
 21
84.537916176155932
 31
0.0
  0
LINE
  5
615
  8
2
 10
310.92630921773559
 20
83.563921112712464
 30
0.0
 11
314.1683092177351
 21
83.563921112712464
 31
0.0
  0
LINE
  5
616
  8
2
 10
310.54730921773529
 20
82.563921112712478
 30
0.0
 11
314.54730921773529
 21
82.563921112712478
 31
0.0
  0
LINE
  5
617
  8
2
 10
314.1683092177351
 20
77.36392111271249
 30
0.0
 11
314.1683092177351
 21
83.563921112712464
 31
0.0
  0
LINE
  5
618
  8
2
 10
314.54730921773529
 20
76.984921112712243
 30
0.0
 11
314.54730921773529
 21
82.563921112712478
 31
0.0
  0
LINE
  5
619
  8
2
 10
310.92630921773559
 20
77.36392111271249
 30
0.0
 11
310.92630921773559
 21
83.563921112712464
 31
0.0
  0
LINE
  5
61A
  8
2
 10
310.54730921773529
 20
76.984921112712243
 30
0.0
 11
310.54730921773529
 21
82.563921112712478
 31
0.0
  0
LINE
  5
61B
  8
2
 10
314.96830921773511
 20
76.563921112712478
 30
0.0
 11
314.1683092177351
 21
77.36392111271249
 31
0.0
  0
LINE
  5
61C
  8
2
 10
314.1683092177351
 20
77.36392111271249
 30
0.0
 11
310.92630921773559
 21
77.36392111271249
 31
0.0
  0
LINE
  5
61D
  8
2
 10
310.92630921773559
 20
77.36392111271249
 30
0.0
 11
310.12630921773552
 21
76.563921112712478
 31
0.0
  0
LINE
  5
61E
  8
2
 10
310.04730921773529
 20
85.563921112712478
 30
0.0
 11
309.54730921773529
 21
85.063921112712478
 31
0.0
  0
LINE
  5
61F
  8
2
 10
310.04730921773529
 20
82.663921112712487
 30
0.0
 11
309.54730921773529
 21
83.163921112712501
 31
0.0
  0
LINE
  5
620
  8
2
 10
309.54730921773529
 20
83.163921112712444
 30
0.0
 11
309.54730921773529
 21
85.063921112712478
 31
0.0
  0
LINE
  5
621
  8
2
 10
310.04730921773529
 20
78.363921112712461
 30
0.0
 11
309.54730921773529
 21
78.863921112712461
 31
0.0
  0
LINE
  5
622
  8
2
 10
310.04730921773529
 20
81.363921112712475
 30
0.0
 11
310.04730921773529
 21
82.663921112712444
 31
0.0
  0
LINE
  5
623
  8
2
 10
310.04730921773529
 20
77.063921112712478
 30
0.0
 11
309.54730921773529
 21
76.563921112712478
 31
0.0
  0
LINE
  5
624
  8
2
 10
310.04730921773529
 20
81.363921112712475
 30
0.0
 11
309.54730921773529
 21
80.863921112712461
 31
0.0
  0
LINE
  5
625
  8
2
 10
309.54730921773529
 20
80.863921112712461
 30
0.0
 11
309.54730921773529
 21
78.863921112712461
 31
0.0
  0
LINE
  5
626
  8
2
 10
310.04730921773529
 20
78.363921112712461
 30
0.0
 11
310.04730921773529
 21
77.063921112712478
 31
0.0
  0
LINE
  5
627
  8
2
 10
315.0473092177354
 20
78.363921112712461
 30
0.0
 11
315.0473092177354
 21
77.063921112712478
 31
0.0
  0
LINE
  5
628
  8
2
 10
315.54730921773529
 20
80.863921112712461
 30
0.0
 11
315.54730921773529
 21
78.863921112712461
 31
0.0
  0
LINE
  5
629
  8
2
 10
315.0473092177354
 20
81.363921112712475
 30
0.0
 11
315.54730921773529
 21
80.863921112712461
 31
0.0
  0
LINE
  5
62A
  8
2
 10
315.0473092177354
 20
81.363921112712475
 30
0.0
 11
315.0473092177354
 21
82.663921112712444
 31
0.0
  0
LINE
  5
62B
  8
2
 10
315.0473092177354
 20
78.363921112712461
 30
0.0
 11
315.54730921773529
 21
78.863921112712461
 31
0.0
  0
LINE
  5
62C
  8
2
 10
315.54730921773529
 20
83.163921112712444
 30
0.0
 11
315.54730921773529
 21
85.063921112712478
 31
0.0
  0
LINE
  5
62D
  8
2
 10
315.0473092177354
 20
82.663921112712487
 30
0.0
 11
315.54730921773529
 21
83.163921112712501
 31
0.0
  0
LINE
  5
62E
  8
2
 10
315.0473092177354
 20
85.563921112712478
 30
0.0
 11
315.54730921773529
 21
85.063921112712478
 31
0.0
  0
LINE
  5
62F
  8
2
 10
315.0473092177354
 20
77.063921112712478
 30
0.0
 11
315.54730921773529
 21
76.563921112712478
 31
0.0
  0
LINE
  5
630
  8
2
 10
310.04730921773529
 20
85.563921112712478
 30
0.0
 11
315.0473092177354
 21
85.563921112712478
 31
0.0
  0
LINE
  5
631
  8
1
 10
312.54730921773529
 20
71.563921112712478
 30
0.0
 11
312.54730921773529
 21
90.563921112712507
 31
0.0
  0
LINE
  5
632
  8
0
 10
118.5473092177353
 20
103.56392111271251
 30
0.0
 11
306.54730921773529
 21
103.56392111271251
 31
0.0
  0
LINE
  5
633
  8
0
 10
118.5473092177353
 20
115.56392111271251
 30
0.0
 11
306.54730921773529
 21
115.56392111271251
 31
0.0
  0
LINE
  5
634
  8
1
 10
101.5473092177353
 20
109.56392111271251
 30
0.0
 11
323.5473092177354
 21
109.56392111271251
 31
0.0
  0
LINE
  5
635
  8
2
 10
110.0473092177353
 20
85.563921112712478
 30
0.0
 11
115.0473092177353
 21
85.563921112712478
 31
0.0
  0
LINE
  5
636
  8
2
 10
115.0473092177353
 20
77.063921112712478
 30
0.0
 11
115.5473092177353
 21
76.563921112712478
 31
0.0
  0
LINE
  5
637
  8
2
 10
115.0473092177353
 20
85.563921112712478
 30
0.0
 11
115.5473092177353
 21
85.063921112712478
 31
0.0
  0
LINE
  5
638
  8
2
 10
115.0473092177353
 20
82.663921112712487
 30
0.0
 11
115.5473092177353
 21
83.163921112712501
 31
0.0
  0
LINE
  5
639
  8
2
 10
115.5473092177353
 20
83.163921112712444
 30
0.0
 11
115.5473092177353
 21
85.063921112712478
 31
0.0
  0
LINE
  5
63A
  8
2
 10
115.0473092177353
 20
78.36392111271249
 30
0.0
 11
115.5473092177353
 21
78.863921112712475
 31
0.0
  0
LINE
  5
63B
  8
2
 10
115.0473092177353
 20
81.363921112712475
 30
0.0
 11
115.0473092177353
 21
82.663921112712444
 31
0.0
  0
LINE
  5
63C
  8
2
 10
115.0473092177353
 20
81.363921112712475
 30
0.0
 11
115.5473092177353
 21
80.863921112712504
 31
0.0
  0
LINE
  5
63D
  8
2
 10
115.5473092177353
 20
80.863921112712504
 30
0.0
 11
115.5473092177353
 21
78.863921112712475
 31
0.0
  0
LINE
  5
63E
  8
2
 10
115.0473092177353
 20
78.36392111271249
 30
0.0
 11
115.0473092177353
 21
77.063921112712478
 31
0.0
  0
LINE
  5
63F
  8
2
 10
110.0473092177353
 20
78.36392111271249
 30
0.0
 11
110.0473092177353
 21
77.063921112712478
 31
0.0
  0
LINE
  5
640
  8
2
 10
109.5473092177353
 20
80.863921112712504
 30
0.0
 11
109.5473092177353
 21
78.863921112712475
 31
0.0
  0
LINE
  5
641
  8
2
 10
110.0473092177353
 20
81.363921112712475
 30
0.0
 11
109.5473092177353
 21
80.863921112712504
 31
0.0
  0
LINE
  5
642
  8
2
 10
110.0473092177353
 20
77.063921112712478
 30
0.0
 11
109.5473092177353
 21
76.563921112712478
 31
0.0
  0
LINE
  5
643
  8
2
 10
110.0473092177353
 20
81.363921112712475
 30
0.0
 11
110.0473092177353
 21
82.663921112712444
 31
0.0
  0
LINE
  5
644
  8
2
 10
110.0473092177353
 20
78.36392111271249
 30
0.0
 11
109.5473092177353
 21
78.863921112712475
 31
0.0
  0
LINE
  5
645
  8
2
 10
109.5473092177353
 20
83.163921112712444
 30
0.0
 11
109.5473092177353
 21
85.063921112712478
 31
0.0
  0
LINE
  5
646
  8
2
 10
110.0473092177353
 20
82.663921112712487
 30
0.0
 11
109.5473092177353
 21
83.163921112712501
 31
0.0
  0
LINE
  5
647
  8
2
 10
110.0473092177353
 20
85.563921112712478
 30
0.0
 11
109.5473092177353
 21
85.063921112712478
 31
0.0
  0
LINE
  5
648
  8
2
 10
110.92630921773559
 20
77.36392111271249
 30
0.0
 11
110.1263092177355
 21
76.563921112712478
 31
0.0
  0
LINE
  5
649
  8
2
 10
114.168309217735
 20
77.36392111271249
 30
0.0
 11
110.92630921773559
 21
77.36392111271249
 31
0.0
  0
LINE
  5
64A
  8
2
 10
114.9683092177351
 20
76.563921112712478
 30
0.0
 11
114.168309217735
 21
77.36392111271249
 31
0.0
  0
LINE
  5
64B
  8
2
 10
110.5473092177353
 20
76.984921112712243
 30
0.0
 11
110.5473092177353
 21
82.563921112712478
 31
0.0
  0
LINE
  5
64C
  8
2
 10
110.92630921773559
 20
77.36392111271249
 30
0.0
 11
110.92630921773549
 21
83.563921112712464
 31
0.0
  0
LINE
  5
64D
  8
2
 10
114.5473092177353
 20
76.984921112712243
 30
0.0
 11
114.5473092177353
 21
82.563921112712478
 31
0.0
  0
LINE
  5
64E
  8
2
 10
114.168309217735
 20
77.36392111271249
 30
0.0
 11
114.168309217735
 21
83.563921112712464
 31
0.0
  0
LINE
  5
64F
  8
2
 10
110.5473092177353
 20
82.563921112712478
 30
0.0
 11
114.5473092177353
 21
82.563921112712478
 31
0.0
  0
LINE
  5
650
  8
2
 10
110.92630921773549
 20
83.563921112712464
 30
0.0
 11
114.168309217735
 21
83.563921112712464
 31
0.0
  0
LINE
  5
651
  8
2
 10
110.92630921773559
 20
83.563921112712464
 30
0.0
 11
112.5473092177353
 21
84.537916176155932
 31
0.0
  0
LINE
  5
652
  8
2
 10
114.168309217735
 20
83.563921112712364
 30
0.0
 11
112.5473092177353
 21
84.537916176155932
 31
0.0
  0
LINE
  5
653
  8
2
 10
114.5473092177353
 20
82.563921112712478
 30
0.0
 11
114.168309217735
 21
83.220368368781536
 31
0.0
  0
LINE
  5
654
  8
2
 10
110.5473092177353
 20
82.563921112712478
 30
0.0
 11
110.92630921773559
 21
83.220368368781536
 31
0.0
  0
LINE
  5
655
  8
0
  6
CONTINUOUS
 62
     7
 10
42.547309217735283
 20
76.563921112712478
 30
0.0
 11
42.547309217735283
 21
96.554234312045466
 31
0.0
  0
LINE
  5
656
  8
0
  6
CONTINUOUS
 62
     7
 10
54.54730921773529
 20
76.563921112712478
 30
0.0
 11
54.54730921773529
 21
95.707514652161507
 31
0.0
  0
LINE
  5
657
  8
1
 10
59.54730921773529
 20
97.563921112712535
 30
0.0
 11
59.54730921773529
 21
121.56392111271251
 31
0.0
  0
ARC
  5
658
  8
0
 10
59.54730921773529
 20
109.56392111271251
 30
0.0
 40
7.0
 50
278.21321070173798
 51
140.38052594882981
  0
LINE
  5
659
  8
1
 10
48.54730921773529
 20
71.563921112712478
 30
0.0
 11
48.54730921773529
 21
109.50323315455999
 31
0.0
  0
ARC
  5
65A
  8
0
 10
61.54730921773529
 20
95.707514652161507
 30
0.0
 40
7.0
 50
98.213210701738348
 51
180.0
  0
LINE
  5
65B
  8
0
 10
54.15523339163849
 20
114.02772199151779
 30
0.0
 11
44.886864786545509
 21
102.9821104089108
 31
0.0
  0
ARC
  5
65C
  8
0
 10
52.547309217735283
 20
96.554234312045466
 30
0.0
 40
10.0
 50
140.00000000000011
 51
180.0
  0
LINE
  5
65D
  8
1
 10
112.5473092177353
 20
71.563921112712478
 30
0.0
 11
112.5473092177353
 21
90.563921112712507
 31
0.0
  0
LINE
  5
65E
  8
0
  6
CONTINUOUS
 62
     7
 10
118.5473092177353
 20
76.563921112712478
 30
0.0
 11
118.5473092177353
 21
116.56392111271251
 31
0.0
  0
LINE
  5
65F
  8
0
  6
CONTINUOUS
 62
     7
 10
106.5473092177353
 20
76.563921112712478
 30
0.0
 11
106.5473092177353
 21
116.56392111271251
 31
0.0
  0
LINE
  5
660
  8
0
  6
CONTINUOUS
 62
     7
 10
106.5473092177353
 20
76.563921112712478
 30
0.0
 11
118.5473092177353
 21
76.563921112712478
 31
0.0
  0
LINE
  5
681
  8
0
 10
107.5473092177353
 20
102.41571858466089
 30
0.0
 11
117.5473092177353
 21
102.41571858466089
 31
0.0
  0
LINE
  5
683
  8
0
 10
317.54730921773529
 20
102.41571858466089
 30
0.0
 11
307.54730921773518
 21
102.41571858466089
 31
0.0
  0
TEXT
  5
72A
  8
0
 62
     3
 10
0.0
 20
0.0
 30
0.0
 40
10.0
  1
UN8-200-SUS
  7
STANDARD1
  0
ENDSEC
  0
EOF
