  0
SECTION
  2
HEADER
  9
$ACADVER
  1
AC1009
  9
$INSBASE
 10
0.0
 20
0.0
 30
0.0
  9
$EXTMIN
 10
0.0
 20
-2.960436562073669
 30
-0.0000000000000098
  9
$EXTMAX
 10
378.1263748704009231
 20
394.316966478138113
 30
48.0
  9
$LIMMIN
 10
0.0
 20
0.0
  9
$LIMMAX
 10
375.0
 20
270.0
  9
$ORTHOMODE
 70
     1
  9
$REGENMODE
 70
     1
  9
$FILLMODE
 70
     1
  9
$QTEXTMODE
 70
     0
  9
$MIRRTEXT
 70
     0
  9
$DRAGMODE
 70
     2
  9
$LTSCALE
 40
10.0
  9
$OSMODE
 70
    37
  9
$ATTMODE
 70
     1
  9
$TEXTSIZE
 40
0.2
  9
$TRACEWID
 40
0.05
  9
$TEXTSTYLE
  7
STANDARD
  9
$CLAYER
  8
0
  9
$CELTYPE
  6
BYLAYER
  9
$CECOLOR
 62
   256
  9
$DIMSCALE
 40
1.0
  9
$DIMASZ
 40
3.0
  9
$DIMEXO
 40
2.0
  9
$DIMDLI
 40
0.38
  9
$DIMRND
 40
0.0
  9
$DIMDLE
 40
0.0
  9
$DIMEXE
 40
2.0
  9
$DIMTP
 40
0.0
  9
$DIMTM
 40
0.0
  9
$DIMTXT
 40
3.2000000000000002
  9
$DIMCEN
 40
0.0
  9
$DIMTSZ
 40
0.0
  9
$DIMTOL
 70
     0
  9
$DIMLIM
 70
     0
  9
$DIMTIH
 70
     0
  9
$DIMTOH
 70
     0
  9
$DIMSE1
 70
     0
  9
$DIMSE2
 70
     0
  9
$DIMTAD
 70
     1
  9
$DIMZIN
 70
     8
  9
$DIMBLK
  1

  9
$DIMASO
 70
     1
  9
$DIMSHO
 70
     0
  9
$DIMPOST
  1

  9
$DIMAPOST
  1

  9
$DIMALT
 70
     0
  9
$DIMALTD
 70
     2
  9
$DIMALTF
 40
25.3999999999999986
  9
$DIMLFAC
 40
1.0
  9
$DIMTOFL
 70
     1
  9
$DIMTVP
 40
1.6000000000000001
  9
$DIMTIX
 70
     1
  9
$DIMSOXD
 70
     0
  9
$DIMSAH
 70
     0
  9
$DIMBLK1
  1

  9
$DIMBLK2
  1

  9
$DIMSTYLE
  2
STANDARD
  9
$DIMCLRD
 70
     0
  9
$DIMCLRE
 70
     0
  9
$DIMCLRT
 70
     0
  9
$DIMTFAC
 40
1.0
  9
$DIMGAP
 40
1.5
  9
$LUNITS
 70
     2
  9
$LUPREC
 70
     1
  9
$SKETCHINC
 40
0.1
  9
$FILLETRAD
 40
0.0
  9
$AUNITS
 70
     0
  9
$AUPREC
 70
     0
  9
$MENU
  1
E:\r13\win\SUPPORT\ACAD
  9
$ELEVATION
 40
0.0
  9
$PELEVATION
 40
0.0
  9
$THICKNESS
 40
0.0
  9
$LIMCHECK
 70
     0
  9
$BLIPMODE
 70
     0
  9
$CHAMFERA
 40
0.0
  9
$CHAMFERB
 40
0.0
  9
$SKPOLY
 70
     0
  9
$TDCREATE
 40
2449839.7800462958402932
  9
$TDUPDATE
 40
2460263.6915277778171003
  9
$TDINDWG
 40
0.7785117014
  9
$TDUSRTIMER
 40
0.7785117014
  9
$USRTIMER
 70
     1
  9
$ANGBASE
 50
0.0
  9
$ANGDIR
 70
     0
  9
$PDMODE
 70
     0
  9
$PDSIZE
 40
0.0
  9
$PLINEWID
 40
0.0
  9
$COORDS
 70
     1
  9
$SPLFRAME
 70
     0
  9
$SPLINETYPE
 70
     6
  9
$SPLINESEGS
 70
     8
  9
$ATTDIA
 70
     1
  9
$ATTREQ
 70
     1
  9
$HANDLING
 70
     1
  9
$HANDSEED
  5
8DA3
  9
$SURFTAB1
 70
     6
  9
$SURFTAB2
 70
     6
  9
$SURFTYPE
 70
     6
  9
$SURFU
 70
     6
  9
$SURFV
 70
     6
  9
$UCSNAME
  2

  9
$UCSORG
 10
0.0
 20
0.0
 30
0.0
  9
$UCSXDIR
 10
1.0
 20
0.0
 30
0.0
  9
$UCSYDIR
 10
0.0
 20
1.0
 30
0.0
  9
$PUCSNAME
  2

  9
$PUCSORG
 10
0.0
 20
0.0
 30
0.0
  9
$PUCSXDIR
 10
1.0
 20
0.0
 30
0.0
  9
$PUCSYDIR
 10
0.0
 20
1.0
 30
0.0
  9
$USERI1
 70
     0
  9
$USERI2
 70
     1
  9
$USERI3
 70
     1
  9
$USERI4
 70
     0
  9
$USERI5
 70
     0
  9
$USERR1
 40
0.0
  9
$USERR2
 40
0.0
  9
$USERR3
 40
0.0
  9
$USERR4
 40
0.0
  9
$USERR5
 40
0.0
  9
$WORLDVIEW
 70
     1
  9
$SHADEDGE
 70
     3
  9
$SHADEDIF
 70
    70
  9
$TILEMODE
 70
     1
  9
$MAXACTVP
 70
    16
  9
$PLIMCHECK
 70
     0
  9
$PEXTMIN
 10
1.0000000000000000E+20
 20
1.0000000000000000E+20
 30
1.0000000000000000E+20
  9
$PEXTMAX
 10
-1.0000000000000000E+20
 20
-1.0000000000000000E+20
 30
-1.0000000000000000E+20
  9
$PLIMMIN
 10
0.0
 20
0.0
  9
$PLIMMAX
 10
12.0
 20
9.0
  9
$UNITMODE
 70
     0
  9
$VISRETAIN
 70
     0
  9
$PLINEGEN
 70
     0
  9
$PSLTSCALE
 70
     0
  0
ENDSEC
  0
SECTION
  2
TABLES
  0
TABLE
  2
VPORT
 70
     1
  0
VPORT
  2
*ACTIVE
 70
     0
 10
0.0
 20
0.0
 11
1.0
 21
1.0
 12
704.5566502463052529
 22
300.0
 13
0.0
 23
0.0
 14
10.0
 24
10.0
 15
10.0
 25
10.0
 16
0.0
 26
0.0
 36
1.0
 17
0.0
 27
0.0
 37
0.0
 40
600.0
 41
2.3485221674876842
 42
50.0
 43
0.0
 44
0.0
 50
0.0
 51
0.0
 71
     0
 72
   500
 73
     1
 74
     0
 75
     0
 76
     0
 77
     0
 78
     2
  0
ENDTAB
  0
TABLE
  2
LTYPE
 70
     4
  0
LTYPE
  2
CONTINUOUS
 70
     0
  3
Solid Line
 72
    65
 73
     0
 40
0.0
  0
LTYPE
  2
CENTER
 70
     0
  3
____ _ ____ _ ____ _ ____ _ ____ _ ____ _ ____
 72
    65
 73
     4
 40
2.0
 49
1.25
 49
-0.25
 49
0.25
 49
-0.25
  0
LTYPE
  2
HIDDEN
 70
     0
  3
_ _ _ _ _ _ _ _ _ _ _ _ _ _ _ _ _ _ _ _ _ _ _
 72
    65
 73
     2
 40
0.375
 49
0.25
 49
-0.125
  0
LTYPE
  2
PHANTOM2
 70
     0
  3
___ _ _ ___ _ _ ___ _ _ ___ _ _
 72
    65
 73
     6
 40
1.25
 49
0.625
 49
-0.125
 49
0.125
 49
-0.125
 49
0.125
 49
-0.125
  0
ENDTAB
  0
TABLE
  2
LAYER
 70
     4
  0
LAYER
  2
0
 70
     0
 62
     7
  6
CONTINUOUS
  0
LAYER
  2
1
 70
     0
 62
     1
  6
CENTER
  0
LAYER
  2
2
 70
     0
 62
     2
  6
HIDDEN
  0
LAYER
  2
DEFPOINTS
 70
     0
 62
     7
  6
CONTINUOUS
  0
ENDTAB
  0
TABLE
  2
STYLE
 70
     2
  0
STYLE
  2
STANDARD
 70
     0
 40
0.0
 41
1.0
 50
0.0
 71
     0
 42
0.2
  3
TXT
  4
BIGFONT
  0
STYLE
  2
STANDARD1
 70
     0
 40
0.0
 41
1.0
 50
0.0
 71
     0
 42
3.0
  3
txt
  4

  0
ENDTAB
  0
TABLE
  2
VIEW
 70
     1
  0
VIEW
  2
ALL
 70
     0
 40
270.0
 10
220.9915966386554942
 20
135.0
 41
0.0
 11
0.0
 21
0.0
 31
1.0
 12
0.0
 22
0.0
 32
0.0
 42
0.0
 43
0.0
 44
0.0
 50
0.0
 71
     0
  0
ENDTAB
  0
TABLE
  2
UCS
 70
     0
  0
ENDTAB
  0
TABLE
  2
APPID
 70
     8
  0
APPID
  2
ACAD
 70
     0
  0
APPID
  2
ACAD_MLEADERVER
 70
     0
  0
APPID
  2
ACAD_EXEMPT_FROM_CAD_STANDARDS
 70
     0
  0
APPID
  2
ACAD_DSTYLE_DIMJAG
 70
     0
  0
APPID
  2
ACAD_DSTYLE_DIMTALN
 70
     0
  0
APPID
  2
ACAD_DSTYLE_DIMRADIAL_EXTENSION
 70
     0
  0
APPID
  2
ACAD_PSEXT
 70
     0
  0
APPID
  2
ACAD_NAV_VCDISPLAY
 70
     0
  0
ENDTAB
  0
TABLE
  2
DIMSTYLE
 70
     1
  0
DIMSTYLE
  2
STANDARD
 70
     0
  3

  4

  5

  6

  7

 40
1.0
 41
0.18
 42
0.0625
 43
0.38
 44
0.18
 45
0.0
 46
0.0
 47
0.0
 48
0.0
140
0.18
141
0.09
142
0.0
143
25.3999999999999986
144
1.0
145
0.0
146
1.0
147
0.09
 71
     0
 72
     0
 73
     1
 74
     1
 75
     0
 76
     0
 77
     0
 78
     0
170
     0
171
     2
172
     0
173
     0
174
     0
175
     0
176
     0
177
     0
178
     0
  0
ENDTAB
  0
ENDSEC
  0
SECTION
  2
BLOCKS
  0
BLOCK
  8
0
  2
$MODEL_SPACE
 70
     0
 10
0.0
 20
0.0
 30
0.0
  3
$MODEL_SPACE
  1

  0
ENDBLK
  5
11B
  8
0
  0
BLOCK
 67
     1
  8
0
  2
$PAPER_SPACE
 70
     0
 10
0.0
 20
0.0
 30
0.0
  3
$PAPER_SPACE
  1

  0
ENDBLK
  5
119
 67
     1
  8
0
  0
ENDSEC
  0
SECTION
  2
ENTITIES
  0
CIRCLE
  5
3C37
  8
0
 10
118.4357235927050027
 20
372.5021655609900222
 30
0.0
 40
11.0
  0
LINE
  5
3C40
  8
1
 10
137.2505245098531077
 20
372.5021655609900222
 30
0.0
 11
99.6209226755569262
 21
372.5021655609900222
 31
0.0
  0
CIRCLE
  5
3C48
  8
0
 10
118.4357235927050027
 20
324.5021655609900222
 30
0.0
 40
62.0
  0
ARC
  5
3C4B
  8
0
 10
118.4357235927050027
 20
324.5021655609896811
 30
0.0
 40
58.3469198819514574
 50
94.0432817560930658
 51
85.9567182439069768
  0
ARC
  5
3C57
  8
0
 10
118.4357235927050027
 20
324.5021655609900222
 30
0.0
 40
46.1885228932155911
 50
103.2319229280051047
 51
76.7680770719948526
  0
POLYLINE
  5
3C5D
  8
0
 66
     1
 10
0.0
 20
0.0
 30
0.0
  0
VERTEX
  5
8A73
  8
0
 10
97.2658899603727747
 20
361.6523713109070854
 30
0.0
  0
VERTEX
  5
8A74
  8
0
 10
97.2883154594121748
 20
361.6650119539696107
 30
0.0
  0
VERTEX
  5
8A75
  8
0
 10
97.3337149367230268
 20
361.6897681775595856
 30
0.0
  0
VERTEX
  5
8A76
  8
0
 10
97.3798251764215053
 20
361.7137975704022779
 30
0.0
  0
VERTEX
  5
8A77
  8
0
 10
97.4031388459559366
 20
361.7255299660426999
 30
0.0
  0
VERTEX
  5
8A78
  8
0
 10
97.4266204835641929
 20
361.7370691304191723
 30
0.0
  0
VERTEX
  5
8A79
  8
0
 10
97.4740740914587747
 20
361.759553189119913
 30
0.0
  0
VERTEX
  5
8A7A
  8
0
 10
97.5221582998888152
 20
361.781221490617213
 30
0.0
  0
VERTEX
  5
8A7B
  8
0
 10
97.5708446186963556
 20
361.8020472572235917
 30
0.0
  0
VERTEX
  5
8A7C
  8
0
 10
97.6201039170746157
 20
361.8220052418060959
 30
0.0
  0
VERTEX
  5
8A7D
  8
0
 10
97.6699065788693446
 20
361.841071766914979
 30
0.0
  0
VERTEX
  5
8A7E
  8
0
 10
97.6950023229087492
 20
361.850263768794207
 30
0.0
  0
VERTEX
  5
8A7F
  8
0
 10
97.7202226641081779
 20
361.859224750556109
 30
0.0
  0
VERTEX
  5
8A80
  8
0
 10
97.7710220768904037
 20
361.8764437183435234
 30
0.0
  0
VERTEX
  5
8A81
  8
0
 10
97.8222746911401373
 20
361.892709786760804
 30
0.0
  0
VERTEX
  5
8A82
  8
0
 10
97.8739499603136665
 20
361.9080054890354177
 30
0.0
  0
VERTEX
  5
8A83
  8
0
 10
97.9260164654701839
 20
361.9223146400693736
 30
0.0
  0
VERTEX
  5
8A84
  8
0
 10
97.9784419916664007
 20
361.935622391207005
 30
0.0
  0
VERTEX
  5
8A85
  8
0
 10
98.0047791373517754
 20
361.9418964827779064
 30
0.0
  0
VERTEX
  5
8A86
  8
0
 10
98.0311936684140761
 20
361.9479152930546775
 30
0.0
  0
VERTEX
  5
8A87
  8
0
 10
98.0842381121913149
 20
361.9591813449245024
 30
0.0
  0
VERTEX
  5
8A88
  8
0
 10
98.1375415711393089
 20
361.9694100311118063
 30
0.0
  0
VERTEX
  5
8A89
  8
0
 10
98.1642798192676764
 20
361.9741324879519766
 30
0.0
  0
VERTEX
  5
8A8A
  8
0
 10
98.1910700721171139
 20
361.9785923441320961
 30
0.0
  0
VERTEX
  5
8A8B
  8
0
 10
98.2447895702671303
 20
361.98672079494321
 30
0.0
  0
VERTEX
  5
8A8C
  8
0
 10
98.2986661012309924
 20
361.9937894100781932
 30
0.0
  0
VERTEX
  5
8A8D
  8
0
 10
98.3256527002470051
 20
361.9969248232840755
 30
0.0
  0
VERTEX
  5
8A8E
  8
0
 10
98.3526669735520045
 20
361.9997938205411856
 30
0.0
  0
VERTEX
  5
8A8F
  8
0
 10
98.406771630066487
 20
362.0047319997261752
 30
0.0
  0
VERTEX
  5
8A90
  8
0
 10
98.4609501690713529
 20
362.0086017263362237
 30
0.0
  0
VERTEX
  5
8A91
  8
0
 10
98.5151682622251883
 20
362.011401710273617
 30
0.0
  0
VERTEX
  5
8A92
  8
0
 10
98.5693911492357984
 20
362.0131321112966134
 30
0.0
  0
VERTEX
  5
8A93
  8
0
 10
98.6235837862716238
 20
362.0137945778948279
 30
0.0
  0
VERTEX
  5
8A94
  8
0
 10
98.6506577687766963
 20
362.0137262645408782
 30
0.0
  0
VERTEX
  5
8A95
  8
0
 10
98.6777109940794617
 20
362.0133922727101208
 30
0.0
  0
VERTEX
  5
8A96
  8
0
 10
98.7317376059124854
 20
362.0119298847051823
 30
0.0
  0
VERTEX
  5
8A97
  8
0
 10
98.7856286154167407
 20
362.0094136281743999
 30
0.0
  0
VERTEX
  5
8A98
  8
0
 10
98.8393493246696835
 20
362.0058512286183259
 30
0.0
  0
VERTEX
  5
8A99
  8
0
 10
98.8928654925844057
 20
362.0012518953842005
 30
0.0
  0
VERTEX
  5
8A9A
  8
0
 10
98.9461434696768265
 20
361.9956262825409112
 30
0.0
  0
VERTEX
  5
8A9B
  8
0
 10
98.972682735489812
 20
361.9924323434939879
 30
0.0
  0
VERTEX
  5
8A9C
  8
0
 10
98.9991499457937607
 20
361.9889864901412011
 30
0.0
  0
VERTEX
  5
8A9D
  8
0
 10
99.0518513638412657
 20
361.9813461508966839
 30
0.0
  0
VERTEX
  5
8A9E
  8
0
 10
99.1042139438504819
 20
361.972720483731905
 30
0.0
  0
VERTEX
  5
8A9F
  8
0
 10
99.1562038489119146
 20
361.9631263212310159
 30
0.0
  0
VERTEX
  5
8AA0
  8
0
 10
99.2077873476087149
 20
361.9525821224767128
 30
0.0
  0
VERTEX
  5
8AA1
  8
0
 10
99.2589309727002274
 20
361.9411079716975905
 30
0.0
  0
VERTEX
  5
8AA2
  8
0
 10
99.2843274846084256
 20
361.9350288815199974
 30
0.0
  0
VERTEX
  5
8AA3
  8
0
 10
99.3096016762372074
 20
361.9287255629943729
 30
0.0
  0
VERTEX
  5
8AA4
  8
0
 10
99.3597669814093933
 20
361.9154581712892877
 30
0.0
  0
VERTEX
  5
8AA5
  8
0
 10
99.4093951315126247
 20
361.9013306095069993
 30
0.0
  0
VERTEX
  5
8AA6
  8
0
 10
99.4584652647338316
 20
361.8863660112971843
 30
0.0
  0
VERTEX
  5
8AA7
  8
0
 10
99.5073350723571366
 20
361.870461353886526
 30
0.0
  0
VERTEX
  5
8AA8
  8
0
 10
99.5561667524332279
 20
361.8535528049798131
 30
0.0
  0
VERTEX
  5
8AA9
  8
0
 10
99.5805559829782538
 20
361.8447211631142864
 30
0.0
  0
VERTEX
  5
8AAA
  8
0
 10
99.6049209276056899
 20
361.8356376666635015
 30
0.0
  0
VERTEX
  5
8AAB
  8
0
 10
99.6535584250427746
 20
361.8167148939231765
 30
0.0
  0
VERTEX
  5
8AAC
  8
0
 10
99.7020404230650001
 20
361.7967850523082802
 30
0.0
  0
VERTEX
  5
8AAD
  8
0
 10
99.7503285914467455
 20
361.7758502634156912
 30
0.0
  0
VERTEX
  5
8AAE
  8
0
 10
99.7983852258305433
 20
361.7539141381250261
 30
0.0
  0
VERTEX
  5
8AAF
  8
0
 10
99.8461733765372941
 20
361.7309816974417913
 30
0.0
  0
VERTEX
  5
8AB0
  8
0
 10
99.8699554605623234
 20
361.7191437911583876
 30
0.0
  0
VERTEX
  5
8AB1
  8
0
 10
99.8936569719198815
 20
361.7070592807577896
 30
0.0
  0
VERTEX
  5
8AB2
  8
0
 10
99.9408009362589382
 20
361.6821544413007246
 30
0.0
  0
VERTEX
  5
8AB3
  8
0
 10
99.987571296342125
 20
361.6562758317518842
 30
0.0
  0
VERTEX
  5
8AB4
  8
0
 10
100.0108060339337044
 20
361.6429743661316252
 30
0.0
  0
VERTEX
  5
8AB5
  8
0
 10
100.0339350200285935
 20
361.6294332326132235
 30
0.0
  0
VERTEX
  5
8AB6
  8
0
 10
100.079859485031605
 20
361.6016378346837996
 30
0.0
  0
VERTEX
  5
8AB7
  8
0
 10
100.1253124497252003
 20
361.5729022853681158
 30
0.0
  0
VERTEX
  5
8AB8
  8
0
 10
100.1478521815295011
 20
361.5581862917447893
 30
0.0
  0
VERTEX
  5
8AB9
  8
0
 10
100.1702621886852
 20
361.5432406357779769
 30
0.0
  0
VERTEX
  5
8ABA
  8
0
 10
100.2146776211682067
 20
361.5126682774234155
 30
0.0
  0
VERTEX
  5
8ABB
  8
0
 10
100.2585284317555931
 20
361.4812018691387721
 30
0.0
  0
VERTEX
  5
8ABC
  8
0
 10
100.301785183416996
 20
361.4488592542463152
 30
0.0
  0
VERTEX
  5
8ABD
  8
0
 10
100.3444194231700948
 20
361.4156593678761737
 30
0.0
  0
VERTEX
  5
8ABE
  8
0
 10
100.3864037804517011
 20
361.3816221343234929
 30
0.0
  0
VERTEX
  5
8ABF
  8
0
 10
100.4071440184069957
 20
361.3642959816253892
 30
0.0
  0
VERTEX
  5
8AC0
  8
0
 10
100.4277120582164002
 20
361.3467683542600071
 30
0.0
  0
VERTEX
  5
8AC1
  8
0
 10
100.468324659442203
 20
361.3111147976749749
 30
0.0
  0
VERTEX
  5
8AC2
  8
0
 10
100.508224504046197
 20
361.2746769834279235
 30
0.0
  0
VERTEX
  5
8AC3
  8
0
 10
100.5473875607808054
 20
361.2374779813172836
 30
0.0
  0
VERTEX
  5
8AC4
  8
0
 10
100.5857904426234057
 20
361.1995421848836259
 30
0.0
  0
VERTEX
  5
8AC5
  8
0
 10
100.6234105771281975
 20
361.1608952000269142
 30
0.0
  0
VERTEX
  5
8AC6
  8
0
 10
100.6419203118605026
 20
361.1413133253852834
 30
0.0
  0
VERTEX
  5
8AC7
  8
0
 10
100.6602263230317931
 20
361.1215637634414861
 30
0.0
  0
VERTEX
  5
8AC8
  8
0
 10
100.6962170776782983
 20
361.0815756527753138
 30
0.0
  0
VERTEX
  5
8AC9
  8
0
 10
100.7313633754711049
 20
361.0409595884892724
 30
0.0
  0
VERTEX
  5
8ACA
  8
0
 10
100.7656469775135974
 20
360.9997451272967055
 30
0.0
  0
VERTEX
  5
8ACB
  8
0
 10
100.799050952555703
 20
360.9579625469888242
 30
0.0
  0
VERTEX
  5
8ACC
  8
0
 10
100.8315597492255051
 20
360.9156427224630761
 30
0.0
  0
VERTEX
  5
8ACD
  8
0
 10
100.8474739802072975
 20
360.8942911346338178
 30
0.0
  0
VERTEX
  5
8ACE
  8
0
 10
100.863159188790604
 20
360.872817090476417
 30
0.0
  0
VERTEX
  5
8ACF
  8
0
 10
100.8938361320490031
 20
360.8295180861404106
 30
0.0
  0
VERTEX
  5
8AD0
  8
0
 10
100.923578360790998
 20
360.7857793784315845
 30
0.0
  0
VERTEX
  5
8AD1
  8
0
 10
100.952374699710802
 20
360.7416357912222225
 30
0.0
  0
VERTEX
  5
8AD2
  8
0
 10
100.9802151365590959
 20
360.6971232038594053
 30
0.0
  0
VERTEX
  5
8AD3
  8
0
 10
101.0070909302521045
 20
360.6522784450190784
 30
0.0
  0
VERTEX
  5
8AD4
  8
0
 10
101.0201647258616049
 20
360.6297432422185238
 30
0.0
  0
VERTEX
  5
8AD5
  8
0
 10
101.0329947072333994
 20
360.6071391799160892
 30
0.0
  0
VERTEX
  5
8AD6
  8
0
 10
101.0579205463683934
 20
360.5617437907869203
 30
0.0
  0
VERTEX
  5
8AD7
  8
0
 10
101.0818640526269974
 20
360.5161312504200168
 30
0.0
  0
VERTEX
  5
8AD8
  8
0
 10
101.1048224197616037
 20
360.4703409883413201
 30
0.0
  0
VERTEX
  5
8AD9
  8
0
 10
101.1268566551207044
 20
360.4242796346637761
 30
0.0
  0
VERTEX
  5
8ADA
  8
0
 10
101.1481631666244994
 20
360.3775265444190836
 30
0.0
  0
VERTEX
  5
8ADB
  8
0
 10
101.1585395204621989
 20
360.3538855436116819
 30
0.0
  0
VERTEX
  5
8ADC
  8
0
 10
101.1687256383386
 20
360.330073239006083
 30
0.0
  0
VERTEX
  5
8ADD
  8
0
 10
101.1885108743063029
 20
360.2819501402984201
 30
0.0
  0
VERTEX
  5
8ADE
  8
0
 10
101.2074873523260976
 20
360.2331887163916804
 30
0.0
  0
VERTEX
  5
8ADF
  8
0
 10
101.2166629325278961
 20
360.2085787128253855
 30
0.0
  0
VERTEX
  5
8AE0
  8
0
 10
101.2256252976182935
 20
360.1838213205224974
 30
0.0
  0
VERTEX
  5
8AE1
  8
0
 10
101.2428967412124052
 20
360.1338810239005284
 30
0.0
  0
VERTEX
  5
8AE2
  8
0
 10
101.2592755631609975
 20
360.0834014417577009
 30
0.0
  0
VERTEX
  5
8AE3
  8
0
 10
101.2671225913206996
 20
360.057970027666272
 30
0.0
  0
VERTEX
  5
8AE4
  8
0
 10
101.2747375204805991
 20
360.0324165520145243
 30
0.0
  0
VERTEX
  5
8AE5
  8
0
 10
101.2892602595080973
 20
359.9809605060847275
 30
0.0
  0
VERTEX
  5
8AE6
  8
0
 10
101.3028233000961933
 20
359.9290674796214944
 30
0.0
  0
VERTEX
  5
8AE7
  8
0
 10
101.3154078803295022
 20
359.8767720736024103
 30
0.0
  0
VERTEX
  5
8AE8
  8
0
 10
101.3269968405149939
 20
359.8241097917933757
 30
0.0
  0
VERTEX
  5
8AE9
  8
0
 10
101.3375746796823051
 20
359.7711169421523891
 30
0.0
  0
VERTEX
  5
8AEA
  8
0
 10
101.3424800534499042
 20
359.744508079821685
 30
0.0
  0
VERTEX
  5
8AEB
  8
0
 10
101.3471276154987066
 20
359.7178304712767272
 30
0.0
  0
VERTEX
  5
8AEC
  8
0
 10
101.355643628771503
 20
359.6642877970203926
 30
0.0
  0
VERTEX
  5
8AED
  8
0
 10
101.3631124927608056
 20
359.6105266387564257
 30
0.0
  0
VERTEX
  5
8AEE
  8
0
 10
101.3695257873760056
 20
359.5565848447681105
 30
0.0
  0
VERTEX
  5
8AEF
  8
0
 10
101.374876898161304
 20
359.5025002162905139
 30
0.0
  0
VERTEX
  5
8AF0
  8
0
 10
101.3791610241749055
 20
359.4483099757018181
 30
0.0
  0
VERTEX
  5
8AF1
  8
0
 10
101.380902141784901
 20
359.4211833958132729
 30
0.0
  0
VERTEX
  5
8AF2
  8
0
 10
101.3823756142260066
 20
359.394040380580293
 30
0.0
  0
VERTEX
  5
8AF3
  8
0
 10
101.3845187522567954
 20
359.339724234886603
 30
0.0
  0
VERTEX
  5
8AF4
  8
0
 10
101.3855898066816934
 20
359.2854000053019945
 30
0.0
  0
VERTEX
  5
8AF5
  8
0
 10
101.3857235927050056
 20
359.2582468887059122
 30
0.0
  0
SEQEND
  5
8AF6
  8
0
  0
ARC
  5
3C5E
  8
0
 10
118.4357235927050027
 20
324.5021655609900222
 30
0.0
 40
42.7586206896551602
 50
119.6764071726322953
 51
240.3235926779431963
  0
POLYLINE
  5
3C5F
  8
0
 66
     1
 10
0.0
 20
0.0
 30
0.0
  0
VERTEX
  5
8AF7
  8
0
 10
101.3857235927050056
 20
289.7460842332737911
 30
0.0
  0
VERTEX
  5
8AF8
  8
0
 10
101.3855898066816934
 20
289.7189311166777088
 30
0.0
  0
VERTEX
  5
8AF9
  8
0
 10
101.3845187522567954
 20
289.6646068870931003
 30
0.0
  0
VERTEX
  5
8AFA
  8
0
 10
101.3823756142260066
 20
289.6102907413995808
 30
0.0
  0
VERTEX
  5
8AFB
  8
0
 10
101.380902141784901
 20
289.5831477261663736
 30
0.0
  0
VERTEX
  5
8AFC
  8
0
 10
101.3791610241749055
 20
289.5560211462778852
 30
0.0
  0
VERTEX
  5
8AFD
  8
0
 10
101.374876898161304
 20
289.5018309056891894
 30
0.0
  0
VERTEX
  5
8AFE
  8
0
 10
101.3695257873760056
 20
289.4477462772115928
 30
0.0
  0
VERTEX
  5
8AFF
  8
0
 10
101.3631124927608056
 20
289.3938044832232777
 30
0.0
  0
VERTEX
  5
8B00
  8
0
 10
101.355643628771503
 20
289.3400433249593107
 30
0.0
  0
VERTEX
  5
8B01
  8
0
 10
101.3471276154987066
 20
289.2865006507029761
 30
0.0
  0
VERTEX
  5
8B02
  8
0
 10
101.3424800534499042
 20
289.2598230421580183
 30
0.0
  0
VERTEX
  5
8B03
  8
0
 10
101.3375746796823051
 20
289.2332141798273142
 30
0.0
  0
VERTEX
  5
8B04
  8
0
 10
101.3269968405149939
 20
289.1802213301863276
 30
0.0
  0
VERTEX
  5
8B05
  8
0
 10
101.3154078803295022
 20
289.1275590483775204
 30
0.0
  0
VERTEX
  5
8B06
  8
0
 10
101.3028233000961933
 20
289.0752636423582089
 30
0.0
  0
VERTEX
  5
8B07
  8
0
 10
101.2892602595080973
 20
289.0233706158952032
 30
0.0
  0
VERTEX
  5
8B08
  8
0
 10
101.2747375204803006
 20
288.971914569965179
 30
0.0
  0
VERTEX
  5
8B09
  8
0
 10
101.2671225913206996
 20
288.9463610943133745
 30
0.0
  0
VERTEX
  5
8B0A
  8
0
 10
101.2592755631609975
 20
288.9209296802221729
 30
0.0
  0
VERTEX
  5
8B0B
  8
0
 10
101.2428967412124052
 20
288.8704500980792886
 30
0.0
  0
VERTEX
  5
8B0C
  8
0
 10
101.2256252976182935
 20
288.8205098014573764
 30
0.0
  0
VERTEX
  5
8B0D
  8
0
 10
101.2166629325278961
 20
288.7957524091543178
 30
0.0
  0
VERTEX
  5
8B0E
  8
0
 10
101.2074873523260976
 20
288.7711424055881935
 30
0.0
  0
VERTEX
  5
8B0F
  8
0
 10
101.1885108743063029
 20
288.7223809816812832
 30
0.0
  0
VERTEX
  5
8B10
  8
0
 10
101.1687256383386
 20
288.6742578829736203
 30
0.0
  0
VERTEX
  5
8B11
  8
0
 10
101.1585395204621989
 20
288.6504455783680214
 30
0.0
  0
VERTEX
  5
8B12
  8
0
 10
101.1481631666244994
 20
288.6268045775606197
 30
0.0
  0
VERTEX
  5
8B13
  8
0
 10
101.1268566551207044
 20
288.5800514873159273
 30
0.0
  0
VERTEX
  5
8B14
  8
0
 10
101.1048224197618026
 20
288.5339901336383832
 30
0.0
  0
VERTEX
  5
8B15
  8
0
 10
101.0818640526269974
 20
288.4881998715596865
 30
0.0
  0
VERTEX
  5
8B16
  8
0
 10
101.0579205463683934
 20
288.442587331192783
 30
0.0
  0
VERTEX
  5
8B17
  8
0
 10
101.0329947072333994
 20
288.3971919420636141
 30
0.0
  0
VERTEX
  5
8B18
  8
0
 10
101.0201647258616049
 20
288.3745878797611795
 30
0.0
  0
VERTEX
  5
8B19
  8
0
 10
101.0070909302521045
 20
288.3520526769606249
 30
0.0
  0
VERTEX
  5
8B1A
  8
0
 10
100.9802151365590959
 20
288.307207918120298
 30
0.0
  0
VERTEX
  5
8B1B
  8
0
 10
100.952374699710802
 20
288.2626953307574809
 30
0.0
  0
VERTEX
  5
8B1C
  8
0
 10
100.923578360790998
 20
288.218551743548403
 30
0.0
  0
VERTEX
  5
8B1D
  8
0
 10
100.8938361320490031
 20
288.1748130358392928
 30
0.0
  0
VERTEX
  5
8B1E
  8
0
 10
100.863159188790604
 20
288.1315140315034
 30
0.0
  0
VERTEX
  5
8B1F
  8
0
 10
100.8474739802072975
 20
288.1100399873458855
 30
0.0
  0
VERTEX
  5
8B20
  8
0
 10
100.8315597492255051
 20
288.0886883995166272
 30
0.0
  0
VERTEX
  5
8B21
  8
0
 10
100.799050952555703
 20
288.0463685749911065
 30
0.0
  0
VERTEX
  5
8B22
  8
0
 10
100.7656469775135974
 20
288.0045859946832252
 30
0.0
  0
VERTEX
  5
8B23
  8
0
 10
100.7313633754711049
 20
287.9633715334903741
 30
0.0
  0
VERTEX
  5
8B24
  8
0
 10
100.6962170776782983
 20
287.9227554692043896
 30
0.0
  0
VERTEX
  5
8B25
  8
0
 10
100.6602263230317931
 20
287.8827673585385014
 30
0.0
  0
VERTEX
  5
8B26
  8
0
 10
100.6419203118605026
 20
287.8630177965943062
 30
0.0
  0
VERTEX
  5
8B27
  8
0
 10
100.6234105771281975
 20
287.8434359219529028
 30
0.0
  0
VERTEX
  5
8B28
  8
0
 10
100.5857904426234057
 20
287.8047889370960775
 30
0.0
  0
VERTEX
  5
8B29
  8
0
 10
100.5473875607808054
 20
287.7668531406624197
 30
0.0
  0
VERTEX
  5
8B2A
  8
0
 10
100.508224504046197
 20
287.7296541385517799
 30
0.0
  0
VERTEX
  5
8B2B
  8
0
 10
100.468324659442203
 20
287.6932163243046716
 30
0.0
  0
VERTEX
  5
8B2C
  8
0
 10
100.4277120582164002
 20
287.6575627677199236
 30
0.0
  0
VERTEX
  5
8B2D
  8
0
 10
100.4071440184069957
 20
287.6400351403544278
 30
0.0
  0
VERTEX
  5
8B2E
  8
0
 10
100.3864037804517011
 20
287.6227089876562104
 30
0.0
  0
VERTEX
  5
8B2F
  8
0
 10
100.3444194231700948
 20
287.5886717541034727
 30
0.0
  0
VERTEX
  5
8B30
  8
0
 10
100.301785183416996
 20
287.5554718677335018
 30
0.0
  0
VERTEX
  5
8B31
  8
0
 10
100.2585284317555931
 20
287.5231292528408744
 30
0.0
  0
VERTEX
  5
8B32
  8
0
 10
100.2146776211682067
 20
287.4916628445565721
 30
0.0
  0
VERTEX
  5
8B33
  8
0
 10
100.1702621886852
 20
287.4610904862016127
 30
0.0
  0
VERTEX
  5
8B34
  8
0
 10
100.1478521815295011
 20
287.446144830234914
 30
0.0
  0
VERTEX
  5
8B35
  8
0
 10
100.1253124497252003
 20
287.4314288366115875
 30
0.0
  0
VERTEX
  5
8B36
  8
0
 10
100.079859485031605
 20
287.4026932872959037
 30
0.0
  0
VERTEX
  5
8B37
  8
0
 10
100.0339350200285935
 20
287.3748978893667072
 30
0.0
  0
VERTEX
  5
8B38
  8
0
 10
100.0108060339337044
 20
287.3613567558480781
 30
0.0
  0
VERTEX
  5
8B39
  8
0
 10
99.9875712963423666
 20
287.3480552902277054
 30
0.0
  0
VERTEX
  5
8B3A
  8
0
 10
99.9408009362589382
 20
287.3221766806793198
 30
0.0
  0
VERTEX
  5
8B3B
  8
0
 10
99.8936569719198815
 20
287.2972718412219137
 30
0.0
  0
VERTEX
  5
8B3C
  8
0
 10
99.8699554605623234
 20
287.2851873308213158
 30
0.0
  0
VERTEX
  5
8B3D
  8
0
 10
99.8461733765372941
 20
287.2733494245380257
 30
0.0
  0
VERTEX
  5
8B3E
  8
0
 10
99.7983852258305433
 20
287.2504169838546773
 30
0.0
  0
VERTEX
  5
8B3F
  8
0
 10
99.7503285914467455
 20
287.2284808585640121
 30
0.0
  0
VERTEX
  5
8B40
  8
0
 10
99.7020404230650001
 20
287.2075460696715936
 30
0.0
  0
VERTEX
  5
8B41
  8
0
 10
99.6535584250427746
 20
287.1876162280565268
 30
0.0
  0
VERTEX
  5
8B42
  8
0
 10
99.6049209276056899
 20
287.1686934553162018
 30
0.0
  0
VERTEX
  5
8B43
  8
0
 10
99.5805559829782538
 20
287.159609958865417
 30
0.0
  0
VERTEX
  5
8B44
  8
0
 10
99.5561667524332279
 20
287.1507783169998902
 30
0.0
  0
VERTEX
  5
8B45
  8
0
 10
99.5073350723571366
 20
287.1338697680931773
 30
0.0
  0
VERTEX
  5
8B46
  8
0
 10
99.4584652647338316
 20
287.1179651106825759
 30
0.0
  0
VERTEX
  5
8B47
  8
0
 10
99.4093951315126247
 20
287.103000512472704
 30
0.0
  0
VERTEX
  5
8B48
  8
0
 10
99.3597669814093933
 20
287.0888729506904156
 30
0.0
  0
VERTEX
  5
8B49
  8
0
 10
99.3096016762372074
 20
287.0756055589852735
 30
0.0
  0
VERTEX
  5
8B4A
  8
0
 10
99.2843274846084256
 20
287.0693022404597059
 30
0.0
  0
VERTEX
  5
8B4B
  8
0
 10
99.2589309727002274
 20
287.0632231502822265
 30
0.0
  0
VERTEX
  5
8B4C
  8
0
 10
99.2077873476087149
 20
287.0517489995029905
 30
0.0
  0
VERTEX
  5
8B4D
  8
0
 10
99.1562038489119146
 20
287.0412048007486874
 30
0.0
  0
VERTEX
  5
8B4E
  8
0
 10
99.1042139438504819
 20
287.0316106382477983
 30
0.0
  0
VERTEX
  5
8B4F
  8
0
 10
99.0518513638412657
 20
287.0229849710830194
 30
0.0
  0
VERTEX
  5
8B50
  8
0
 10
98.9991499457937607
 20
287.0153446318385022
 30
0.0
  0
VERTEX
  5
8B51
  8
0
 10
98.972682735489812
 20
287.0118987784857154
 30
0.0
  0
VERTEX
  5
8B52
  8
0
 10
98.9461434696768265
 20
287.0087048394387921
 30
0.0
  0
VERTEX
  5
8B53
  8
0
 10
98.8928654925844057
 20
287.0030792265956165
 30
0.0
  0
VERTEX
  5
8B54
  8
0
 10
98.8393493246699251
 20
286.9984798933616048
 30
0.0
  0
VERTEX
  5
8B55
  8
0
 10
98.7856286154167407
 20
286.9949174938053034
 30
0.0
  0
VERTEX
  5
8B56
  8
0
 10
98.7317376059124854
 20
286.9924012372746915
 30
0.0
  0
VERTEX
  5
8B57
  8
0
 10
98.6777109940794617
 20
286.9909388492695825
 30
0.0
  0
VERTEX
  5
8B58
  8
0
 10
98.6506577687766963
 20
286.9906048574388251
 30
0.0
  0
VERTEX
  5
8B59
  8
0
 10
98.6235837862716238
 20
286.9905365440848755
 30
0.0
  0
VERTEX
  5
8B5A
  8
0
 10
98.5693911492357984
 20
286.9911990106830899
 30
0.0
  0
VERTEX
  5
8B5B
  8
0
 10
98.5151682622251883
 20
286.9929294117060863
 30
0.0
  0
VERTEX
  5
8B5C
  8
0
 10
98.4609501690713529
 20
286.9957293956434796
 30
0.0
  0
VERTEX
  5
8B5D
  8
0
 10
98.406771630066487
 20
286.9995991222534144
 30
0.0
  0
VERTEX
  5
8B5E
  8
0
 10
98.3526669735520045
 20
287.0045373014385177
 30
0.0
  0
VERTEX
  5
8B5F
  8
0
 10
98.3256527002470051
 20
287.0074062986956278
 30
0.0
  0
VERTEX
  5
8B60
  8
0
 10
98.2986661012309924
 20
287.0105417119015101
 30
0.0
  0
VERTEX
  5
8B61
  8
0
 10
98.2447895702671303
 20
287.0176103270364933
 30
0.0
  0
VERTEX
  5
8B62
  8
0
 10
98.1910700721171139
 20
287.0257387778476073
 30
0.0
  0
VERTEX
  5
8B63
  8
0
 10
98.1642798192676764
 20
287.030198634027613
 30
0.0
  0
VERTEX
  5
8B64
  8
0
 10
98.1375415711393089
 20
287.034921090867897
 30
0.0
  0
VERTEX
  5
8B65
  8
0
 10
98.0842381121913149
 20
287.0451497770550873
 30
0.0
  0
VERTEX
  5
8B66
  8
0
 10
98.0311936684142751
 20
287.0564158289251964
 30
0.0
  0
VERTEX
  5
8B67
  8
0
 10
98.0047791373517754
 20
287.0624346392017969
 30
0.0
  0
VERTEX
  5
8B68
  8
0
 10
97.9784419916664007
 20
287.0687087307726983
 30
0.0
  0
VERTEX
  5
8B69
  8
0
 10
97.9260164654704113
 20
287.0820164819102729
 30
0.0
  0
VERTEX
  5
8B6A
  8
0
 10
97.8739499603136665
 20
287.0963256329442856
 30
0.0
  0
VERTEX
  5
8B6B
  8
0
 10
97.8222746911401373
 20
287.1116213352188993
 30
0.0
  0
VERTEX
  5
8B6C
  8
0
 10
97.7710220768728959
 20
287.1278874036419211
 30
0.0
  0
VERTEX
  5
8B6D
  8
0
 10
97.7202226610613707
 20
287.1451063724896926
 30
0.0
  0
VERTEX
  5
8B6E
  8
0
 10
97.6950023166209576
 20
287.1540673554540035
 30
0.0
  0
VERTEX
  5
8B6F
  8
0
 10
97.6699065683801564
 20
287.1632593589645808
 30
0.0
  0
VERTEX
  5
8B70
  8
0
 10
97.6201038958658955
 20
287.1823258885294194
 30
0.0
  0
VERTEX
  5
8B71
  8
0
 10
97.5708445846171344
 20
287.2022838789479238
 30
0.0
  0
VERTEX
  5
8B72
  8
0
 10
97.5221582518952346
 20
287.2231096524398026
 30
0.0
  0
VERTEX
  5
8B73
  8
0
 10
97.474074029586987
 20
287.2447779614565775
 30
0.0
  0
VERTEX
  5
8B74
  8
0
 10
97.4266204088964969
 20
287.2672620278141267
 30
0.0
  0
VERTEX
  5
8B75
  8
0
 10
97.4031387656118568
 20
287.2788011958937773
 30
0.0
  0
VERTEX
  5
8B76
  8
0
 10
97.3798250910442533
 20
287.2905335950504764
 30
0.0
  0
VERTEX
  5
8B77
  8
0
 10
97.3337148436790045
 20
287.3145629940299273
 30
0.0
  0
VERTEX
  5
8B78
  8
0
 10
97.288315362645335
 20
287.339319221961091
 30
0.0
  0
VERTEX
  5
8B79
  8
0
 10
97.2658898634888374
 20
287.3519598662813905
 30
0.0
  0
SEQEND
  5
8B7A
  8
0
  0
POLYLINE
  5
3C63
  8
0
 66
     1
 10
0.0
 20
0.0
 30
0.0
  0
VERTEX
  5
8B7B
  8
0
 10
139.6055572250371881
 20
287.3519598110726179
 30
0.0
  0
VERTEX
  5
8B7C
  8
0
 10
139.583131725997788
 20
287.3393191680100927
 30
0.0
  0
VERTEX
  5
8B7D
  8
0
 10
139.5377322486870071
 20
287.3145629444201177
 30
0.0
  0
VERTEX
  5
8B7E
  8
0
 10
139.491622008988486
 20
287.2905335515774254
 30
0.0
  0
VERTEX
  5
8B7F
  8
0
 10
139.4683083394540972
 20
287.2788011559370034
 30
0.0
  0
VERTEX
  5
8B80
  8
0
 10
139.4448267018458125
 20
287.2672619915604741
 30
0.0
  0
VERTEX
  5
8B81
  8
0
 10
139.3973730939513018
 20
287.244777932859904
 30
0.0
  0
VERTEX
  5
8B82
  8
0
 10
139.3492888855211902
 20
287.2231096313624903
 30
0.0
  0
VERTEX
  5
8B83
  8
0
 10
139.3006025667137067
 20
287.2022838647562253
 30
0.0
  0
VERTEX
  5
8B84
  8
0
 10
139.251343268335404
 20
287.1823258801736074
 30
0.0
  0
VERTEX
  5
8B85
  8
0
 10
139.2015406065407035
 20
287.1632593550650085
 30
0.0
  0
VERTEX
  5
8B86
  8
0
 10
139.1764448625013131
 20
287.1540673531857237
 30
0.0
  0
VERTEX
  5
8B87
  8
0
 10
139.1512245213017991
 20
287.1451063714235943
 30
0.0
  0
VERTEX
  5
8B88
  8
0
 10
139.1004251085196017
 20
287.1278874036362936
 30
0.0
  0
VERTEX
  5
8B89
  8
0
 10
139.0491724942698966
 20
287.1116213352188993
 30
0.0
  0
VERTEX
  5
8B8A
  8
0
 10
138.9974972250963106
 20
287.0963256329442856
 30
0.0
  0
VERTEX
  5
8B8B
  8
0
 10
138.9454307199395942
 20
287.0820164819102729
 30
0.0
  0
VERTEX
  5
8B8C
  8
0
 10
138.8930051937435906
 20
287.0687087307726983
 30
0.0
  0
VERTEX
  5
8B8D
  8
0
 10
138.8666680480581874
 20
287.0624346392017969
 30
0.0
  0
VERTEX
  5
8B8E
  8
0
 10
138.8402535169960004
 20
287.0564158289251964
 30
0.0
  0
VERTEX
  5
8B8F
  8
0
 10
138.7872090732186905
 20
287.0451497770550873
 30
0.0
  0
VERTEX
  5
8B90
  8
0
 10
138.7339056142706966
 20
287.034921090867897
 30
0.0
  0
VERTEX
  5
8B91
  8
0
 10
138.7071673661423006
 20
287.030198634027613
 30
0.0
  0
VERTEX
  5
8B92
  8
0
 10
138.6803771132929057
 20
287.0257387778476073
 30
0.0
  0
VERTEX
  5
8B93
  8
0
 10
138.6266576151429035
 20
287.0176103270364933
 30
0.0
  0
VERTEX
  5
8B94
  8
0
 10
138.5727810841790131
 20
287.0105417119015101
 30
0.0
  0
VERTEX
  5
8B95
  8
0
 10
138.5457944851629861
 20
287.0074062986956278
 30
0.0
  0
VERTEX
  5
8B96
  8
0
 10
138.5187802118580009
 20
287.0045373014385177
 30
0.0
  0
VERTEX
  5
8B97
  8
0
 10
138.46467555534349
 20
286.9995991222534144
 30
0.0
  0
VERTEX
  5
8B98
  8
0
 10
138.4104970163386952
 20
286.9957293956434796
 30
0.0
  0
VERTEX
  5
8B99
  8
0
 10
138.3562789231847887
 20
286.9929294117060863
 30
0.0
  0
VERTEX
  5
8B9A
  8
0
 10
138.3020560361740081
 20
286.9911990106830899
 30
0.0
  0
VERTEX
  5
8B9B
  8
0
 10
138.2478633991383958
 20
286.9905365440848755
 30
0.0
  0
VERTEX
  5
8B9C
  8
0
 10
138.2207894166332949
 20
286.9906048574388251
 30
0.0
  0
VERTEX
  5
8B9D
  8
0
 10
138.1937361913304869
 20
286.9909388492695825
 30
0.0
  0
VERTEX
  5
8B9E
  8
0
 10
138.1397095794974916
 20
286.9924012372746915
 30
0.0
  0
VERTEX
  5
8B9F
  8
0
 10
138.0858185699933074
 20
286.9949174938053034
 30
0.0
  0
VERTEX
  5
8BA0
  8
0
 10
138.0320978607402935
 20
286.9984798933616048
 30
0.0
  0
VERTEX
  5
8BA1
  8
0
 10
137.9785816928255997
 20
287.0030792265956165
 30
0.0
  0
VERTEX
  5
8BA2
  8
0
 10
137.9253037157332074
 20
287.0087048394387921
 30
0.0
  0
VERTEX
  5
8BA3
  8
0
 10
137.8987644499202077
 20
287.0118987784857154
 30
0.0
  0
VERTEX
  5
8BA4
  8
0
 10
137.8722972396161879
 20
287.0153446318385022
 30
0.0
  0
VERTEX
  5
8BA5
  8
0
 10
137.8195958215686971
 20
287.0229849710830194
 30
0.0
  0
VERTEX
  5
8BA6
  8
0
 10
137.7672332415594951
 20
287.0316106382477983
 30
0.0
  0
VERTEX
  5
8BA7
  8
0
 10
137.715243336498105
 20
287.0412048007486874
 30
0.0
  0
VERTEX
  5
8BA8
  8
0
 10
137.6636598378011058
 20
287.0517489995029905
 30
0.0
  0
VERTEX
  5
8BA9
  8
0
 10
137.6125162127098065
 20
287.0632231502822265
 30
0.0
  0
VERTEX
  5
8BAA
  8
0
 10
137.587119700801594
 20
287.0693022404597059
 30
0.0
  0
VERTEX
  5
8BAB
  8
0
 10
137.5618455091727981
 20
287.0756055589852735
 30
0.0
  0
VERTEX
  5
8BAC
  8
0
 10
137.5116802040006121
 20
287.0888729506904156
 30
0.0
  0
VERTEX
  5
8BAD
  8
0
 10
137.4620520538973949
 20
287.103000512472704
 30
0.0
  0
VERTEX
  5
8BAE
  8
0
 10
137.4129819206762022
 20
287.1179651106825759
 30
0.0
  0
VERTEX
  5
8BAF
  8
0
 10
137.3641121130528973
 20
287.1338697680931773
 30
0.0
  0
VERTEX
  5
8BB0
  8
0
 10
137.315280432976806
 20
287.1507783169998902
 30
0.0
  0
VERTEX
  5
8BB1
  8
0
 10
137.2908912024317942
 20
287.159609958865417
 30
0.0
  0
VERTEX
  5
8BB2
  8
0
 10
137.2665262578042871
 20
287.1686934553162018
 30
0.0
  0
VERTEX
  5
8BB3
  8
0
 10
137.2178887603670034
 20
287.1876162280565268
 30
0.0
  0
VERTEX
  5
8BB4
  8
0
 10
137.1694067623450053
 20
287.2075460696715936
 30
0.0
  0
VERTEX
  5
8BB5
  8
0
 10
137.1211185939631889
 20
287.2284808585640121
 30
0.0
  0
VERTEX
  5
8BB6
  8
0
 10
137.0730619595794906
 20
287.2504169838546773
 30
0.0
  0
VERTEX
  5
8BB7
  8
0
 10
137.0252738088726971
 20
287.2733494245380257
 30
0.0
  0
VERTEX
  5
8BB8
  8
0
 10
137.0014917248477104
 20
287.2851873308213158
 30
0.0
  0
VERTEX
  5
8BB9
  8
0
 10
136.9777902134900955
 20
287.2972718412219137
 30
0.0
  0
VERTEX
  5
8BBA
  8
0
 10
136.9306462491510956
 20
287.3221766806793198
 30
0.0
  0
VERTEX
  5
8BBB
  8
0
 10
136.8838758890676104
 20
287.3480552902277054
 30
0.0
  0
VERTEX
  5
8BBC
  8
0
 10
136.860641151476301
 20
287.3613567558480781
 30
0.0
  0
VERTEX
  5
8BBD
  8
0
 10
136.8375121653814119
 20
287.3748978893667072
 30
0.0
  0
VERTEX
  5
8BBE
  8
0
 10
136.7915877003783862
 20
287.4026932872959037
 30
0.0
  0
VERTEX
  5
8BBF
  8
0
 10
136.7461347356847909
 20
287.4314288366115875
 30
0.0
  0
VERTEX
  5
8BC0
  8
0
 10
136.7235950038804901
 20
287.446144830234914
 30
0.0
  0
VERTEX
  5
8BC1
  8
0
 10
136.7011849967248054
 20
287.4610904862016127
 30
0.0
  0
VERTEX
  5
8BC2
  8
0
 10
136.656769564241813
 20
287.4916628445565721
 30
0.0
  0
VERTEX
  5
8BC3
  8
0
 10
136.6129187536544123
 20
287.5231292528408744
 30
0.0
  0
VERTEX
  5
8BC4
  8
0
 10
136.5696620019930094
 20
287.5554718677335018
 30
0.0
  0
VERTEX
  5
8BC5
  8
0
 10
136.5270277622398112
 20
287.5886717541034727
 30
0.0
  0
VERTEX
  5
8BC6
  8
0
 10
136.4850434049583043
 20
287.6227089876563809
 30
0.0
  0
VERTEX
  5
8BC7
  8
0
 10
136.4643031670026971
 20
287.6400351403544278
 30
0.0
  0
VERTEX
  5
8BC8
  8
0
 10
136.4437351271936052
 20
287.6575627677199236
 30
0.0
  0
VERTEX
  5
8BC9
  8
0
 10
136.4031225259678024
 20
287.6932163243046716
 30
0.0
  0
VERTEX
  5
8BCA
  8
0
 10
136.3632226813635953
 20
287.7296541385517799
 30
0.0
  0
VERTEX
  5
8BCB
  8
0
 10
136.3240596246288874
 20
287.7668531406624197
 30
0.0
  0
VERTEX
  5
8BCC
  8
0
 10
136.2856567427866139
 20
287.8047889370960775
 30
0.0
  0
VERTEX
  5
8BCD
  8
0
 10
136.248036608281808
 20
287.8434359219529028
 30
0.0
  0
VERTEX
  5
8BCE
  8
0
 10
136.2295268735495029
 20
287.8630177965943062
 30
0.0
  0
VERTEX
  5
8BCF
  8
0
 10
136.2112208623782124
 20
287.8827673585382172
 30
0.0
  0
VERTEX
  5
8BD0
  8
0
 10
136.1752301077316929
 20
287.9227554692043896
 30
0.0
  0
VERTEX
  5
8BD1
  8
0
 10
136.1400838099388864
 20
287.9633715334903741
 30
0.0
  0
VERTEX
  5
8BD2
  8
0
 10
136.105800207896408
 20
288.0045859946832252
 30
0.0
  0
VERTEX
  5
8BD3
  8
0
 10
136.0723962328542882
 20
288.0463685749911065
 30
0.0
  0
VERTEX
  5
8BD4
  8
0
 10
136.0398874361841877
 20
288.0886883995166272
 30
0.0
  0
VERTEX
  5
8BD5
  8
0
 10
136.023973205202708
 20
288.1100399873458855
 30
0.0
  0
VERTEX
  5
8BD6
  8
0
 10
136.0082879966194014
 20
288.1315140315034
 30
0.0
  0
VERTEX
  5
8BD7
  8
0
 10
135.9776110533609881
 20
288.1748130358392928
 30
0.0
  0
VERTEX
  5
8BD8
  8
0
 10
135.9478688246188085
 20
288.218551743548403
 30
0.0
  0
VERTEX
  5
8BD9
  8
0
 10
135.9190724856991892
 20
288.2626953307574809
 30
0.0
  0
VERTEX
  5
8BDA
  8
0
 10
135.8912320488508954
 20
288.307207918120298
 30
0.0
  0
VERTEX
  5
8BDB
  8
0
 10
135.8643562551577872
 20
288.3520526769606249
 30
0.0
  0
VERTEX
  5
8BDC
  8
0
 10
135.8512824595484005
 20
288.3745878797611795
 30
0.0
  0
VERTEX
  5
8BDD
  8
0
 10
135.8384524781766061
 20
288.3971919420636141
 30
0.0
  0
VERTEX
  5
8BDE
  8
0
 10
135.813526639041612
 20
288.442587331192783
 30
0.0
  0
VERTEX
  5
8BDF
  8
0
 10
135.7895831327830081
 20
288.4881998715596865
 30
0.0
  0
VERTEX
  5
8BE0
  8
0
 10
135.7666247656482028
 20
288.5339901336383832
 30
0.0
  0
VERTEX
  5
8BE1
  8
0
 10
135.7445905302892868
 20
288.5800514873159273
 30
0.0
  0
VERTEX
  5
8BE2
  8
0
 10
135.7232840187855061
 20
288.6268045775606197
 30
0.0
  0
VERTEX
  5
8BE3
  8
0
 10
135.7129076649478066
 20
288.6504455783680214
 30
0.0
  0
VERTEX
  5
8BE4
  8
0
 10
135.7027215470714054
 20
288.6742578829736203
 30
0.0
  0
VERTEX
  5
8BE5
  8
0
 10
135.6829363111037026
 20
288.7223809816812832
 30
0.0
  0
VERTEX
  5
8BE6
  8
0
 10
135.6639598330839078
 20
288.7711424055880229
 30
0.0
  0
VERTEX
  5
8BE7
  8
0
 10
135.6547842528821093
 20
288.7957524091543178
 30
0.0
  0
VERTEX
  5
8BE8
  8
0
 10
135.6458218877916977
 20
288.8205098014573764
 30
0.0
  0
VERTEX
  5
8BE9
  8
0
 10
135.6285504441974865
 20
288.8704500980792886
 30
0.0
  0
VERTEX
  5
8BEA
  8
0
 10
135.6121716222490079
 20
288.9209296802221729
 30
0.0
  0
VERTEX
  5
8BEB
  8
0
 10
135.6043245940892916
 20
288.9463610943133745
 30
0.0
  0
VERTEX
  5
8BEC
  8
0
 10
135.5967096649293921
 20
288.971914569965179
 30
0.0
  0
VERTEX
  5
8BED
  8
0
 10
135.5821869259017944
 20
289.0233706158952032
 30
0.0
  0
VERTEX
  5
8BEE
  8
0
 10
135.5686238853137979
 20
289.0752636423582089
 30
0.0
  0
VERTEX
  5
8BEF
  8
0
 10
135.5560393050805033
 20
289.1275590483775204
 30
0.0
  0
VERTEX
  5
8BF0
  8
0
 10
135.5444503448950115
 20
289.1802213301863276
 30
0.0
  0
VERTEX
  5
8BF1
  8
0
 10
135.5338725057276861
 20
289.2332141798273142
 30
0.0
  0
VERTEX
  5
8BF2
  8
0
 10
135.528967131960087
 20
289.2598230421580183
 30
0.0
  0
VERTEX
  5
8BF3
  8
0
 10
135.5243195699111141
 20
289.2865006507029761
 30
0.0
  0
VERTEX
  5
8BF4
  8
0
 10
135.5158035566385024
 20
289.3400433249593107
 30
0.0
  0
VERTEX
  5
8BF5
  8
0
 10
135.508334692649214
 20
289.3938044832232777
 30
0.0
  0
VERTEX
  5
8BF6
  8
0
 10
135.5019213980339998
 20
289.4477462772115928
 30
0.0
  0
VERTEX
  5
8BF7
  8
0
 10
135.4965702872486872
 20
289.5018309056891894
 30
0.0
  0
VERTEX
  5
8BF8
  8
0
 10
135.4922861612351142
 20
289.5560211462778852
 30
0.0
  0
VERTEX
  5
8BF9
  8
0
 10
135.4905450436251044
 20
289.5831477261663736
 30
0.0
  0
VERTEX
  5
8BFA
  8
0
 10
135.489071571184013
 20
289.6102907413995808
 30
0.0
  0
VERTEX
  5
8BFB
  8
0
 10
135.4869284331531958
 20
289.6646068870931003
 30
0.0
  0
VERTEX
  5
8BFC
  8
0
 10
135.4858573787282126
 20
289.7189311166777088
 30
0.0
  0
VERTEX
  5
8BFD
  8
0
 10
135.4857235927048862
 20
289.7460842332737911
 30
0.0
  0
SEQEND
  5
8BFE
  8
0
  0
POLYLINE
  5
3C65
  8
0
 66
     1
 10
0.0
 20
0.0
 30
0.0
  0
VERTEX
  5
8BFF
  8
0
 10
135.4857235927048862
 20
359.2582468887059122
 30
0.0
  0
VERTEX
  5
8C00
  8
0
 10
135.4858573787282126
 20
359.2854000053019945
 30
0.0
  0
VERTEX
  5
8C01
  8
0
 10
135.4869284331531958
 20
359.339724234886603
 30
0.0
  0
VERTEX
  5
8C02
  8
0
 10
135.489071571184013
 20
359.394040380580293
 30
0.0
  0
VERTEX
  5
8C03
  8
0
 10
135.4905450436251044
 20
359.4211833958132729
 30
0.0
  0
VERTEX
  5
8C04
  8
0
 10
135.4922861612351142
 20
359.4483099757018181
 30
0.0
  0
VERTEX
  5
8C05
  8
0
 10
135.4965702872486872
 20
359.5025002162905139
 30
0.0
  0
VERTEX
  5
8C06
  8
0
 10
135.5019213980339998
 20
359.5565848447681105
 30
0.0
  0
VERTEX
  5
8C07
  8
0
 10
135.508334692649214
 20
359.6105266387564257
 30
0.0
  0
VERTEX
  5
8C08
  8
0
 10
135.5158035566385024
 20
359.6642877970203926
 30
0.0
  0
VERTEX
  5
8C09
  8
0
 10
135.5243195699111141
 20
359.7178304712767272
 30
0.0
  0
VERTEX
  5
8C0A
  8
0
 10
135.528967131960087
 20
359.744508079821685
 30
0.0
  0
VERTEX
  5
8C0B
  8
0
 10
135.5338725057276861
 20
359.7711169421523891
 30
0.0
  0
VERTEX
  5
8C0C
  8
0
 10
135.5444503448950115
 20
359.8241097917933757
 30
0.0
  0
VERTEX
  5
8C0D
  8
0
 10
135.5560393050805033
 20
359.8767720736024103
 30
0.0
  0
VERTEX
  5
8C0E
  8
0
 10
135.5686238853137979
 20
359.9290674796214944
 30
0.0
  0
VERTEX
  5
8C0F
  8
0
 10
135.5821869259017944
 20
359.9809605060847275
 30
0.0
  0
VERTEX
  5
8C10
  8
0
 10
135.5967096649293921
 20
360.0324165520145243
 30
0.0
  0
VERTEX
  5
8C11
  8
0
 10
135.6043245940892916
 20
360.057970027666272
 30
0.0
  0
VERTEX
  5
8C12
  8
0
 10
135.6121716222490079
 20
360.0834014417574735
 30
0.0
  0
VERTEX
  5
8C13
  8
0
 10
135.6285504441974865
 20
360.1338810239005284
 30
0.0
  0
VERTEX
  5
8C14
  8
0
 10
135.6458218877916977
 20
360.1838213205224974
 30
0.0
  0
VERTEX
  5
8C15
  8
0
 10
135.6547842528821093
 20
360.2085787128253855
 30
0.0
  0
VERTEX
  5
8C16
  8
0
 10
135.6639598330839078
 20
360.2331887163916804
 30
0.0
  0
VERTEX
  5
8C17
  8
0
 10
135.6829363111037026
 20
360.2819501402984201
 30
0.0
  0
VERTEX
  5
8C18
  8
0
 10
135.7027215470714054
 20
360.330073239006083
 30
0.0
  0
VERTEX
  5
8C19
  8
0
 10
135.7129076649478066
 20
360.3538855436116819
 30
0.0
  0
VERTEX
  5
8C1A
  8
0
 10
135.7232840187855061
 20
360.3775265444190836
 30
0.0
  0
VERTEX
  5
8C1B
  8
0
 10
135.7445905302892868
 20
360.4242796346637761
 30
0.0
  0
VERTEX
  5
8C1C
  8
0
 10
135.7666247656482028
 20
360.4703409883413201
 30
0.0
  0
VERTEX
  5
8C1D
  8
0
 10
135.7895831327830081
 20
360.5161312504200168
 30
0.0
  0
VERTEX
  5
8C1E
  8
0
 10
135.813526639041612
 20
360.5617437907869203
 30
0.0
  0
VERTEX
  5
8C1F
  8
0
 10
135.8384524781766061
 20
360.6071391799160892
 30
0.0
  0
VERTEX
  5
8C20
  8
0
 10
135.8512824595484005
 20
360.6297432422185238
 30
0.0
  0
VERTEX
  5
8C21
  8
0
 10
135.8643562551577872
 20
360.6522784450190784
 30
0.0
  0
VERTEX
  5
8C22
  8
0
 10
135.8912320488508954
 20
360.6971232038594053
 30
0.0
  0
VERTEX
  5
8C23
  8
0
 10
135.9190724856991892
 20
360.7416357912222225
 30
0.0
  0
VERTEX
  5
8C24
  8
0
 10
135.9478688246190075
 20
360.7857793784315845
 30
0.0
  0
VERTEX
  5
8C25
  8
0
 10
135.9776110533609881
 20
360.8295180861404106
 30
0.0
  0
VERTEX
  5
8C26
  8
0
 10
136.0082879966194014
 20
360.872817090476417
 30
0.0
  0
VERTEX
  5
8C27
  8
0
 10
136.023973205202708
 20
360.8942911346338178
 30
0.0
  0
VERTEX
  5
8C28
  8
0
 10
136.0398874361841877
 20
360.9156427224630761
 30
0.0
  0
VERTEX
  5
8C29
  8
0
 10
136.0723962328542882
 20
360.9579625469888242
 30
0.0
  0
VERTEX
  5
8C2A
  8
0
 10
136.105800207896408
 20
360.9997451272967055
 30
0.0
  0
VERTEX
  5
8C2B
  8
0
 10
136.1400838099388864
 20
361.0409595884892724
 30
0.0
  0
VERTEX
  5
8C2C
  8
0
 10
136.1752301077316929
 20
361.0815756527753138
 30
0.0
  0
VERTEX
  5
8C2D
  8
0
 10
136.2112208623782124
 20
361.1215637634414861
 30
0.0
  0
VERTEX
  5
8C2E
  8
0
 10
136.2295268735495029
 20
361.1413133253852834
 30
0.0
  0
VERTEX
  5
8C2F
  8
0
 10
136.248036608281808
 20
361.1608952000270847
 30
0.0
  0
VERTEX
  5
8C30
  8
0
 10
136.2856567427866139
 20
361.1995421848836259
 30
0.0
  0
VERTEX
  5
8C31
  8
0
 10
136.3240596246288874
 20
361.2374779813172836
 30
0.0
  0
VERTEX
  5
8C32
  8
0
 10
136.3632226813635953
 20
361.2746769834279235
 30
0.0
  0
VERTEX
  5
8C33
  8
0
 10
136.4031225259678024
 20
361.3111147976749749
 30
0.0
  0
VERTEX
  5
8C34
  8
0
 10
136.4437351271936052
 20
361.3467683542600071
 30
0.0
  0
VERTEX
  5
8C35
  8
0
 10
136.4643031670026971
 20
361.3642959816253892
 30
0.0
  0
VERTEX
  5
8C36
  8
0
 10
136.4850434049583043
 20
361.3816221343234929
 30
0.0
  0
VERTEX
  5
8C37
  8
0
 10
136.5270277622398112
 20
361.4156593678761737
 30
0.0
  0
VERTEX
  5
8C38
  8
0
 10
136.5696620019930094
 20
361.4488592542463152
 30
0.0
  0
VERTEX
  5
8C39
  8
0
 10
136.6129187536544123
 20
361.4812018691387721
 30
0.0
  0
VERTEX
  5
8C3A
  8
0
 10
136.656769564241813
 20
361.5126682774234155
 30
0.0
  0
VERTEX
  5
8C3B
  8
0
 10
136.7011849967248054
 20
361.5432406357779769
 30
0.0
  0
VERTEX
  5
8C3C
  8
0
 10
136.7235950038804901
 20
361.5581862917447893
 30
0.0
  0
VERTEX
  5
8C3D
  8
0
 10
136.7461347356847909
 20
361.5729022853681158
 30
0.0
  0
VERTEX
  5
8C3E
  8
0
 10
136.7915877003783862
 20
361.6016378346837996
 30
0.0
  0
VERTEX
  5
8C3F
  8
0
 10
136.8375121653814119
 20
361.6294332326129961
 30
0.0
  0
VERTEX
  5
8C40
  8
0
 10
136.860641151476301
 20
361.6429743661316252
 30
0.0
  0
VERTEX
  5
8C41
  8
0
 10
136.8838758890676104
 20
361.6562758317518842
 30
0.0
  0
VERTEX
  5
8C42
  8
0
 10
136.9306462491510956
 20
361.6821544413007246
 30
0.0
  0
VERTEX
  5
8C43
  8
0
 10
136.9777902134900955
 20
361.7070592807577896
 30
0.0
  0
VERTEX
  5
8C44
  8
0
 10
137.0014917248477104
 20
361.7191437911583876
 30
0.0
  0
VERTEX
  5
8C45
  8
0
 10
137.0252738088726971
 20
361.7309816974417913
 30
0.0
  0
VERTEX
  5
8C46
  8
0
 10
137.0730619595794906
 20
361.7539141381250261
 30
0.0
  0
VERTEX
  5
8C47
  8
0
 10
137.1211185939631889
 20
361.7758502634156912
 30
0.0
  0
VERTEX
  5
8C48
  8
0
 10
137.1694067623450053
 20
361.7967850523081097
 30
0.0
  0
VERTEX
  5
8C49
  8
0
 10
137.2178887603670034
 20
361.8167148939231765
 30
0.0
  0
VERTEX
  5
8C4A
  8
0
 10
137.2665262578042871
 20
361.8356376666635015
 30
0.0
  0
VERTEX
  5
8C4B
  8
0
 10
137.2908912024317942
 20
361.8447211631142864
 30
0.0
  0
VERTEX
  5
8C4C
  8
0
 10
137.315280432976806
 20
361.8535528049798131
 30
0.0
  0
VERTEX
  5
8C4D
  8
0
 10
137.3641121130528973
 20
361.870461353886526
 30
0.0
  0
VERTEX
  5
8C4E
  8
0
 10
137.4129819206762022
 20
361.8863660112971843
 30
0.0
  0
VERTEX
  5
8C4F
  8
0
 10
137.4620520538973949
 20
361.9013306095069993
 30
0.0
  0
VERTEX
  5
8C50
  8
0
 10
137.5116802040006121
 20
361.9154581712892877
 30
0.0
  0
VERTEX
  5
8C51
  8
0
 10
137.5618455091727981
 20
361.9287255629943729
 30
0.0
  0
VERTEX
  5
8C52
  8
0
 10
137.587119700801594
 20
361.9350288815199974
 30
0.0
  0
VERTEX
  5
8C53
  8
0
 10
137.6125162127098065
 20
361.9411079716975905
 30
0.0
  0
VERTEX
  5
8C54
  8
0
 10
137.6636598378011058
 20
361.9525821224767128
 30
0.0
  0
VERTEX
  5
8C55
  8
0
 10
137.715243336498105
 20
361.9631263212310159
 30
0.0
  0
VERTEX
  5
8C56
  8
0
 10
137.7672332415594951
 20
361.972720483731905
 30
0.0
  0
VERTEX
  5
8C57
  8
0
 10
137.8195958215686971
 20
361.9813461508966839
 30
0.0
  0
VERTEX
  5
8C58
  8
0
 10
137.8722972396165005
 20
361.9889864901412011
 30
0.0
  0
VERTEX
  5
8C59
  8
0
 10
137.8987644499202077
 20
361.9924323434939879
 30
0.0
  0
VERTEX
  5
8C5A
  8
0
 10
137.9253037157332074
 20
361.9956262825409112
 30
0.0
  0
VERTEX
  5
8C5B
  8
0
 10
137.9785816928255997
 20
362.0012518953842005
 30
0.0
  0
VERTEX
  5
8C5C
  8
0
 10
138.0320978607402935
 20
362.0058512286183259
 30
0.0
  0
VERTEX
  5
8C5D
  8
0
 10
138.0858185699933074
 20
362.0094136281743999
 30
0.0
  0
VERTEX
  5
8C5E
  8
0
 10
138.1397095794974916
 20
362.0119298847051823
 30
0.0
  0
VERTEX
  5
8C5F
  8
0
 10
138.1937361913304869
 20
362.0133922727101208
 30
0.0
  0
VERTEX
  5
8C60
  8
0
 10
138.2207894166332949
 20
362.0137262645408782
 30
0.0
  0
VERTEX
  5
8C61
  8
0
 10
138.2478633991383958
 20
362.0137945778948279
 30
0.0
  0
VERTEX
  5
8C62
  8
0
 10
138.3020560361740081
 20
362.0131321112966134
 30
0.0
  0
VERTEX
  5
8C63
  8
0
 10
138.3562789231847887
 20
362.011401710273617
 30
0.0
  0
VERTEX
  5
8C64
  8
0
 10
138.4104970163386952
 20
362.0086017263362237
 30
0.0
  0
VERTEX
  5
8C65
  8
0
 10
138.46467555534349
 20
362.0047319997261752
 30
0.0
  0
VERTEX
  5
8C66
  8
0
 10
138.5187802118580009
 20
361.9997938205411856
 30
0.0
  0
VERTEX
  5
8C67
  8
0
 10
138.5457944851629861
 20
361.9969248232840755
 30
0.0
  0
VERTEX
  5
8C68
  8
0
 10
138.5727810841790131
 20
361.9937894100781932
 30
0.0
  0
VERTEX
  5
8C69
  8
0
 10
138.6266576151429035
 20
361.98672079494321
 30
0.0
  0
VERTEX
  5
8C6A
  8
0
 10
138.6803771132929057
 20
361.9785923441320961
 30
0.0
  0
VERTEX
  5
8C6B
  8
0
 10
138.7071673661423006
 20
361.9741324879519766
 30
0.0
  0
VERTEX
  5
8C6C
  8
0
 10
138.7339056142706966
 20
361.9694100311118063
 30
0.0
  0
VERTEX
  5
8C6D
  8
0
 10
138.7872090732186905
 20
361.9591813449245024
 30
0.0
  0
VERTEX
  5
8C6E
  8
0
 10
138.8402535169960004
 20
361.9479152930545069
 30
0.0
  0
VERTEX
  5
8C6F
  8
0
 10
138.8666680480581874
 20
361.9418964827779064
 30
0.0
  0
VERTEX
  5
8C70
  8
0
 10
138.8930051937439032
 20
361.935622391207005
 30
0.0
  0
VERTEX
  5
8C71
  8
0
 10
138.9454307199395942
 20
361.9223146400693736
 30
0.0
  0
VERTEX
  5
8C72
  8
0
 10
138.9974972250963106
 20
361.9080054890354177
 30
0.0
  0
VERTEX
  5
8C73
  8
0
 10
139.0491724942698966
 20
361.892709786760804
 30
0.0
  0
VERTEX
  5
8C74
  8
0
 10
139.1004251085371095
 20
361.8764437183377822
 30
0.0
  0
VERTEX
  5
8C75
  8
0
 10
139.1512245243486063
 20
361.8592247494901812
 30
0.0
  0
VERTEX
  5
8C76
  8
0
 10
139.1764448687891047
 20
361.8502637665256998
 30
0.0
  0
VERTEX
  5
8C77
  8
0
 10
139.2015406170301048
 20
361.8410717630151225
 30
0.0
  0
VERTEX
  5
8C78
  8
0
 10
139.2513432895441099
 20
361.8220052334502839
 30
0.0
  0
VERTEX
  5
8C79
  8
0
 10
139.3006026007928995
 20
361.8020472430317795
 30
0.0
  0
VERTEX
  5
8C7A
  8
0
 10
139.3492889335147993
 20
361.7812214695399007
 30
0.0
  0
VERTEX
  5
8C7B
  8
0
 10
139.3973731558230043
 20
361.7595531605231258
 30
0.0
  0
VERTEX
  5
8C7C
  8
0
 10
139.4448267765135085
 20
361.7370690941655766
 30
0.0
  0
VERTEX
  5
8C7D
  8
0
 10
139.4683084197982055
 20
361.7255299260860966
 30
0.0
  0
VERTEX
  5
8C7E
  8
0
 10
139.4916220943657095
 20
361.7137975269292269
 30
0.0
  0
VERTEX
  5
8C7F
  8
0
 10
139.5377323417309867
 20
361.689768127949776
 30
0.0
  0
VERTEX
  5
8C80
  8
0
 10
139.5831318227646989
 20
361.6650119000187829
 30
0.0
  0
VERTEX
  5
8C81
  8
0
 10
139.6055573219211965
 20
361.6523712556983128
 30
0.0
  0
SEQEND
  5
8C82
  8
0
  0
ARC
  5
3C66
  8
0
 10
118.4357235927050027
 20
324.5021655609900222
 30
0.0
 40
42.7586206896551602
 50
299.6764071726323095
 51
60.3235926779431892
  0
LINE
  5
3C6F
  8
1
 10
118.4357235927050027
 20
254.687364643841903
 30
0.0
 11
118.4357235927050027
 21
394.316966478138113
 31
0.0
  0
LINE
  5
3C70
  8
1
 10
188.2505245098531077
 20
324.5021655609900222
 30
0.0
 11
48.620922675556919
 21
324.5021655609900222
 31
0.0
  0
LINE
  5
3C7D
  8
0
 10
111.6857235927052017
 20
110.3314383141062933
 30
0.0
 11
111.6857235927052017
 21
110.0314383141060972
 31
0.0
  0
LINE
  5
3C7E
  8
0
 10
125.1857235927052017
 20
110.0314383141060972
 30
0.0
 11
125.1857235927052017
 21
110.3314383141062933
 31
0.0
  0
LINE
  5
3C7F
  8
0
 10
109.4357235927052017
 20
131.0314383141061114
 30
0.0
 11
109.4357235927052017
 21
110.3314383141062933
 31
0.0
  0
LINE
  5
3C80
  8
0
 10
127.4357235927052017
 20
110.3314383141062933
 30
0.0
 11
127.4357235927052017
 21
131.0314383141061114
 31
0.0
  0
ARC
  5
3C81
  8
0
 10
127.4357235927052017
 20
133.0314383141061114
 30
0.0
 40
2.0
 50
270.0
 51
0.0
  0
ARC
  5
3C82
  8
0
 10
109.4357235927052017
 20
133.0314383141061114
 30
0.0
 40
2.000000000000008
 50
180.0
 51
270.0
  0
LINE
  5
3C83
  8
0
 10
107.4357235927052017
 20
164.0314383141061114
 30
0.0
 11
107.4357235927052017
 21
133.0314383141061114
 31
0.0
  0
LINE
  5
3C84
  8
0
 10
129.4357235927051875
 20
133.0314383141061114
 30
0.0
 11
129.4357235927051875
 21
164.0314383141061114
 31
0.0
  0
ARC
  5
3C85
  8
0
 10
118.4357235927052017
 20
164.0314383141061114
 30
0.0
 40
10.9999999999999893
 50
0.0
 51
180.0
  0
LINE
  5
3C88
  8
0
 10
127.4357235927052017
 20
110.3314383141062933
 30
0.0
 11
109.4357235927052017
 21
110.3314383141062933
 31
0.0
  0
LINE
  5
3C89
  8
0
 10
127.4357235927052017
 20
131.0314383141061114
 30
0.0
 11
109.4357235927052017
 21
131.0314383141061114
 31
0.0
  0
LINE
  5
3C8A
  8
0
 10
129.4357235927051875
 20
133.0314383141061114
 30
0.0
 11
107.4357235927052017
 21
133.0314383141061114
 31
0.0
  0
LINE
  5
3C8B
  8
0
 10
129.4357235927051875
 20
164.0314383141061114
 30
0.0
 11
107.4357235927052017
 21
164.0314383141061114
 31
0.0
  0
LINE
  5
3C99
  8
2
 10
112.4357235927053011
 20
88.0314383141061256
 30
0.0
 11
112.4357235927053011
 21
66.0314383141061398
 31
0.0
  0
LINE
  5
3C9A
  8
2
 10
124.4357235927052017
 20
66.0314383141061398
 30
0.0
 11
124.4357235927051022
 21
88.0314383141061256
 31
0.0
  0
LINE
  5
3C9D
  8
0
 10
107.4357235927052017
 20
66.2314383141061853
 30
0.0
 11
107.4357235927052017
 21
66.0314383141061398
 31
0.0
  0
LINE
  5
3C9E
  8
0
 10
129.4357235927051875
 20
66.0314383141061398
 30
0.0
 11
129.4357235927051875
 21
66.2314383141061853
 31
0.0
  0
ARC
  5
3C9F
  8
0
 10
133.4357235927051875
 20
66.7314383141061853
 30
0.0
 40
0.5000000000000006
 50
270.0
 51
0.0
  0
ARC
  5
3CA0
  8
0
 10
103.4357235927052017
 20
66.7314383141061853
 30
0.0
 40
0.5
 50
180.0
 51
270.0
  0
LINE
  5
3CA1
  8
0
 10
102.9357235927052017
 20
69.0314383141061398
 30
0.0
 11
102.9357235927052017
 21
66.7314383141061853
 31
0.0
  0
LINE
  5
3CA2
  8
0
 10
133.9357235927051875
 20
66.7314383141061853
 30
0.0
 11
133.9357235927051875
 21
69.0314383141061398
 31
0.0
  0
ARC
  5
3CA3
  8
0
 10
173.1023902593717025
 20
95.3647716474396248
 30
0.0
 40
7.3333333333333526
 50
270.0
 51
0.0000008537736463
  0
ARC
  5
3CA4
  8
0
 10
63.7690569260385018
 20
95.3647716474396248
 30
0.0
 40
7.333333333333357
 50
179.9999991462262869
 51
270.0
  0
LINE
  5
3CA5
  8
0
 10
56.4357235927052514
 20
99.8017500338502259
 30
0.0
 11
56.4357235927052514
 21
95.3647716474396248
 31
0.0
  0
LINE
  5
3CA6
  8
0
 10
180.4357235927051875
 20
95.3647716474396248
 30
0.0
 11
180.4357235927051875
 21
99.8017500338502259
 31
0.0
  0
ARC
  5
3CA7
  8
0
 10
158.4357235927045053
 20
99.8017500338499843
 30
0.0
 40
22.0000000000006501
 50
0.0
 51
14.9999999999944595
  0
ARC
  5
3CA8
  8
0
 10
78.435723592705699
 20
99.8017500338499843
 30
0.0
 40
22.0000000000005684
 50
165.0000000000055138
 51
180.0
  0
LINE
  5
3CA9
  8
0
 10
57.9637668929178673
 20
108.4008402133319038
 30
0.0
 11
57.1853554143456222
 21
105.4957690261056058
 31
0.0
  0
LINE
  5
3CAA
  8
0
 10
179.6860917710646106
 20
105.4957690261056058
 30
0.0
 11
178.9076802924923868
 21
108.4008402133319038
 31
0.0
  0
ARC
  5
3CAB
  8
0
 10
176.7826434746563962
 20
107.8314383141060944
 30
0.0
 40
2.2000000000000242
 50
14.9999999999944595
 51
90.0
  0
ARC
  5
3CAC
  8
0
 10
60.0888037107538366
 20
107.8314383141060944
 30
0.0
 40
2.2000000000000171
 50
90.0
 51
165.0000000000055138
  0
ARC
  5
3CBC
  8
0
 10
162.8353802890325994
 20
83.6314383141062763
 30
0.0
 40
4.3999999999999773
 50
90.0
 51
111.8984528860139989
  0
ARC
  5
3CBD
  8
0
 10
74.0360668963776334
 20
83.6314383141062763
 30
0.0
 40
4.4000000000000687
 50
68.1015471139858732
 51
90.0
  0
LINE
  5
3CCA
  8
0
 10
129.4357235927051875
 20
66.0314383141061398
 30
0.0
 11
107.4357235927052017
 21
66.0314383141061398
 31
0.0
  0
LINE
  5
3CCB
  8
0
 10
133.4357235927051875
 20
66.2314383141061853
 30
0.0
 11
103.4357235927052017
 21
66.2314383141061853
 31
0.0
  0
LINE
  5
3CCD
  8
0
 10
173.1023902593717025
 20
88.0314383141061256
 30
0.0
 11
63.7690569260385018
 21
88.0314383141061256
 31
0.0
  0
LINE
  5
3CD2
  8
0
 10
176.7826434746565951
 20
110.0314383141060972
 30
0.0
 11
60.0888037107538366
 21
110.0314383141060972
 31
0.0
  0
LINE
  5
3CD8
  8
0
 10
134.6857235927051875
 20
69.0314383141061398
 30
0.0
 11
102.1857235927052017
 21
69.0314383141061398
 31
0.0
  0
LINE
  5
3CE6
  8
0
 10
138.8055572250191005
 20
87.6693330836604048
 30
0.0
 11
161.194344282360305
 21
87.7139621443862865
 31
0.0
  0
LINE
  5
3D0C
  8
1
 10
118.4357235927052017
 20
182.8462392312542022
 30
0.0
 11
118.4357235927052017
 21
58.2166373969580491
 31
0.0
  0
POINT
  5
3D0E
  8
0
 10
118.4357235927052017
 20
175.0314383141061114
 30
48.0
210
0.0
220
1.0
230
0.0
  0
LINE
  5
3D17
  8
0
 10
326.0115739532527073
 20
365.7521655609896811
 30
0.0
 11
326.3115739532527186
 21
365.7521655609896811
 31
0.0
  0
LINE
  5
3D18
  8
0
 10
326.3115739532527186
 20
379.2521655609896811
 30
0.0
 11
326.0115739532527073
 21
379.2521655609896811
 31
0.0
  0
LINE
  5
3D19
  8
0
 10
305.3115739532527186
 20
363.5021655609896811
 30
0.0
 11
326.0115739532527073
 21
363.5021655609896811
 31
0.0
  0
LINE
  5
3D1A
  8
0
 10
326.0115739532527073
 20
381.5021655609896811
 30
0.0
 11
305.3115739532527186
 21
381.5021655609896811
 31
0.0
  0
ARC
  5
3D1B
  8
0
 10
303.3115739532527186
 20
381.5021655609896811
 30
0.0
 40
2.0
 50
0.0
 51
90.0
  0
ARC
  5
3D1C
  8
0
 10
303.3115739532527186
 20
363.5021655609896811
 30
0.0
 40
2.0000000000000071
 50
270.0
 51
0.0
  0
LINE
  5
3D1D
  8
0
 10
272.3115739532527186
 20
361.5021655609896811
 30
0.0
 11
303.3115739532527186
 21
361.5021655609896811
 31
0.0
  0
LINE
  5
3D1E
  8
0
 10
303.3115739532527186
 20
383.5021655609896811
 30
0.0
 11
272.3115739532527186
 21
383.5021655609896811
 31
0.0
  0
ARC
  5
3D1F
  8
0
 10
272.3115739532527186
 20
372.5021655609896811
 30
0.0
 40
11.0
 50
90.0
 51
270.0
  0
LINE
  5
3D22
  8
0
 10
326.0115739532527073
 20
381.5021655609896811
 30
0.0
 11
326.0115739532527073
 21
363.5021655609896811
 31
0.0
  0
LINE
  5
3D23
  8
0
 10
305.3115739532527186
 20
381.5021655609896811
 30
0.0
 11
305.3115739532527186
 21
363.5021655609896811
 31
0.0
  0
LINE
  5
3D24
  8
0
 10
303.3115739532527186
 20
383.5021655609896811
 30
0.0
 11
303.3115739532527186
 21
361.5021655609896811
 31
0.0
  0
LINE
  5
3D25
  8
0
 10
272.3115739532527186
 20
383.5021655609896811
 30
0.0
 11
272.3115739532527186
 21
361.5021655609896811
 31
0.0
  0
LINE
  5
3D2E
  8
1
 10
340.2301118015548127
 20
372.5021655609896811
 30
0.0
 11
253.4967730361045142
 21
372.5021655609896811
 31
0.0
  0
LINE
  5
3D36
  8
0
 10
370.1115739532526732
 20
313.5021655609896811
 30
0.0
 11
370.3115739532527186
 21
313.5021655609896811
 31
0.0
  0
LINE
  5
3D37
  8
0
 10
370.3115739532527186
 20
335.5021655609896811
 30
0.0
 11
370.1115739532526732
 21
335.5021655609896811
 31
0.0
  0
ARC
  5
3D38
  8
0
 10
369.6115739532526732
 20
339.5021655609896811
 30
0.0
 40
0.4999999999999999
 50
0.0
 51
90.0
  0
ARC
  5
3D39
  8
0
 10
369.6115739532526732
 20
309.5021655609896811
 30
0.0
 40
0.5000000000000018
 50
270.0
 51
0.0
  0
LINE
  5
3D3A
  8
0
 10
367.3115739532527186
 20
309.0021655609897948
 30
0.0
 11
369.6115739532526732
 21
309.0021655609897948
 31
0.0
  0
LINE
  5
3D3B
  8
0
 10
369.6115739532526732
 20
340.0021655609897948
 30
0.0
 11
367.3115739532527186
 21
340.0021655609897948
 31
0.0
  0
ARC
  5
3D3C
  8
0
 10
340.9782406199191769
 20
379.1688322276561962
 30
0.0
 40
7.3333333333333526
 50
0.0
 51
90.0000008537736136
  0
ARC
  5
3D3D
  8
0
 10
340.9782406199191769
 20
269.8354988943229955
 30
0.0
 40
7.333333333333357
 50
269.9999991462262869
 51
0.0
  0
LINE
  5
3D3E
  8
0
 10
336.5412622335085757
 20
262.5021655609896811
 30
0.0
 11
340.9782406199191769
 21
262.5021655609896811
 31
0.0
  0
LINE
  5
3D3F
  8
0
 10
340.9782406199191769
 20
386.5021655609896811
 30
0.0
 11
336.5412622335085757
 21
386.5021655609896811
 31
0.0
  0
ARC
  5
3D40
  8
0
 10
336.5412622335089168
 20
364.5021655609891127
 30
0.0
 40
22.0000000000006501
 50
90.0
 51
104.9999999999944009
  0
ARC
  5
3D41
  8
0
 10
336.5412622335085757
 20
284.5021655609886011
 30
0.0
 40
21.9999999999989591
 50
255.0000000000055138
 51
270.0
  0
LINE
  5
3D42
  8
0
 10
327.9421720540271963
 20
264.0302088612024249
 30
0.0
 11
330.8472432412531816
 21
263.2517973826301159
 31
0.0
  0
LINE
  5
3D43
  8
0
 10
330.8472432412531816
 20
385.7525337393490759
 30
0.0
 11
327.9421720540271963
 21
384.9741222607771078
 31
0.0
  0
ARC
  5
3D44
  8
0
 10
328.511573953252821
 20
382.8490854429412025
 30
0.0
 40
2.200000000000025
 50
104.9999999999944009
 51
180.0
  0
ARC
  5
3D45
  8
0
 10
328.511573953252821
 20
266.1552456790382735
 30
0.0
 40
2.2000000000000242
 50
180.0
 51
255.0000000000055138
  0
LINE
  5
3D4C
  8
0
 10
348.3115739532527186
 20
281.3141313729553872
 30
0.0
 11
367.3115739532527186
 21
309.0021655609897948
 31
0.0
  0
LINE
  5
3D4D
  8
0
 10
367.3115739532527186
 20
340.0021655609897948
 30
0.0
 11
348.3115739532527186
 21
367.6901997490235203
 31
0.0
  0
LINE
  5
3D5C
  8
0
 10
370.3115739532527186
 20
335.5021655609896811
 30
0.0
 11
370.3115739532527186
 21
313.5021655609896811
 31
0.0
  0
LINE
  5
3D5D
  8
0
 10
370.1115739532526732
 20
339.5021655609896811
 30
0.0
 11
370.1115739532526732
 21
309.5021655609896811
 31
0.0
  0
LINE
  5
3D5F
  8
0
 10
348.3115739532527186
 20
379.1688322276561962
 30
0.0
 11
348.3115739532527186
 21
269.8354988943229955
 31
0.0
  0
LINE
  5
3D64
  8
0
 10
326.3115739532527186
 20
382.8490854429412025
 30
0.0
 11
326.3115739532527186
 21
266.1552456790382735
 31
0.0
  0
LINE
  5
3D6A
  8
0
 10
367.3115739532527186
 20
340.0021655609897948
 30
0.0
 11
367.3115739532527186
 21
309.0021655609897948
 31
0.0
  0
POLYLINE
  5
3D81
  8
0
 66
     1
 10
0.0
 20
0.0
 30
0.0
  0
VERTEX
  5
8C83
  8
0
 10
348.3115739532527186
 20
364.3055901324320871
 30
0.0
  0
VERTEX
  5
8C84
  8
0
 10
353.1124375047755279
 20
355.2193723063190873
 30
0.0
  0
VERTEX
  5
8C85
  8
0
 10
356.380297861745305
 20
348.757347288704409
 30
0.0
  0
VERTEX
  5
8C86
  8
0
 10
358.7237094411884755
 20
343.7531605241863986
 30
0.0
  0
VERTEX
  5
8C87
  8
0
 10
359.6470672352791098
 20
341.6284828647828249
 30
0.0
  0
VERTEX
  5
8C88
  8
0
 10
360.4393690054358217
 20
339.6948771219476271
 30
0.0
  0
VERTEX
  5
8C89
  8
0
 10
361.702003620675498
 20
336.2722657401271817
 30
0.0
  0
VERTEX
  5
8C8A
  8
0
 10
362.6194662751253759
 20
333.2835171205051097
 30
0.0
  0
VERTEX
  5
8C8B
  8
0
 10
363.0235257191383766
 20
331.6830018292856721
 30
0.0
  0
VERTEX
  5
8C8C
  8
0
 10
363.1230993333213064
 20
331.2408462762430759
 30
0.0
  0
VERTEX
  5
8C8D
  8
0
 10
363.2159643994878024
 20
330.804561945012324
 30
0.0
  0
VERTEX
  5
8C8E
  8
0
 10
363.2599332138806858
 20
330.5884845691172131
 30
0.0
  0
VERTEX
  5
8C8F
  8
0
 10
363.3022855598786123
 20
330.3737127893999741
 30
0.0
  0
VERTEX
  5
8C90
  8
0
 10
363.3822139471703849
 20
329.9478790512658861
 30
0.0
  0
VERTEX
  5
8C91
  8
0
 10
363.4558878714365164
 20
329.5266557858897727
 30
0.0
  0
VERTEX
  5
8C92
  8
0
 10
363.5234334387316721
 20
329.109651482405809
 30
0.0
  0
VERTEX
  5
8C93
  8
0
 10
363.5849651066225761
 20
328.6964867689433731
 30
0.0
  0
VERTEX
  5
8C94
  8
0
 10
363.6405861813595948
 20
328.2867931930679219
 30
0.0
  0
VERTEX
  5
8C95
  8
0
 10
363.6662095903678278
 20
328.0831356411737261
 30
0.0
  0
VERTEX
  5
8C96
  8
0
 10
363.6903892608171986
 20
327.8802120689272783
 30
0.0
  0
VERTEX
  5
8C97
  8
0
 10
363.7344566268222934
 20
327.4763933832238081
 30
0.0
  0
VERTEX
  5
8C98
  8
0
 10
363.7728605900244929
 20
327.0749947527564245
 30
0.0
  0
VERTEX
  5
8C99
  8
0
 10
363.8056637900497208
 20
326.6756804268018755
 30
0.0
  0
VERTEX
  5
8C9A
  8
0
 10
363.8329194532865927
 20
326.2781203280733848
 30
0.0
  0
VERTEX
  5
8C9B
  8
0
 10
363.8546716103072072
 20
325.8819891263705131
 30
0.0
  0
VERTEX
  5
8C9C
  8
0
 10
363.8634951638121038
 20
325.6843587724875988
 30
0.0
  0
VERTEX
  5
8C9D
  8
0
 10
363.8709552745892779
 20
325.4869653393719773
 30
0.0
  0
VERTEX
  5
8C9E
  8
0
 10
363.8817965839045883
 20
325.0927304552809005
 30
0.0
  0
VERTEX
  5
8C9F
  8
0
 10
363.8872129054389006
 20
324.6989680722548997
 30
0.0
  0
VERTEX
  5
8CA0
  8
0
 10
363.8878897426844219
 20
324.5021655609804156
 30
0.0
  0
VERTEX
  5
8CA1
  8
0
 10
363.8872129054382185
 20
324.305363049705818
 30
0.0
  0
VERTEX
  5
8CA2
  8
0
 10
363.8817965839028261
 20
323.9116006666795897
 30
0.0
  0
VERTEX
  5
8CA3
  8
0
 10
363.870955274586322
 20
323.5173657825886266
 30
0.0
  0
VERTEX
  5
8CA4
  8
0
 10
363.8634951638085226
 20
323.3199723494730051
 30
0.0
  0
VERTEX
  5
8CA5
  8
0
 10
363.8546716103027734
 20
323.1223419955899203
 30
0.0
  0
VERTEX
  5
8CA6
  8
0
 10
363.8329194532811925
 20
322.726210793886878
 30
0.0
  0
VERTEX
  5
8CA7
  8
0
 10
363.8056637900431269
 20
322.3286506951582169
 30
0.0
  0
VERTEX
  5
8CA8
  8
0
 10
363.772860590016478
 20
321.9293363692034973
 30
0.0
  0
VERTEX
  5
8CA9
  8
0
 10
363.7344566268131985
 20
321.5279377387357158
 30
0.0
  0
VERTEX
  5
8CAA
  8
0
 10
363.6903892608070237
 20
321.1241190530319045
 30
0.0
  0
VERTEX
  5
8CAB
  8
0
 10
363.6662095903570844
 20
320.9211954807855136
 30
0.0
  0
VERTEX
  5
8CAC
  8
0
 10
363.6405861813482261
 20
320.7175379288909198
 30
0.0
  0
VERTEX
  5
8CAD
  8
0
 10
363.5849651066101273
 20
320.3078443530151844
 30
0.0
  0
VERTEX
  5
8CAE
  8
0
 10
363.5234334387178023
 20
319.8946796395521801
 30
0.0
  0
VERTEX
  5
8CAF
  8
0
 10
363.4558878714215098
 20
319.4776753360678185
 30
0.0
  0
VERTEX
  5
8CB0
  8
0
 10
363.3822139471542982
 20
319.0564520706913072
 30
0.0
  0
VERTEX
  5
8CB1
  8
0
 10
363.3022855598615024
 20
318.6306183325564803
 30
0.0
  0
VERTEX
  5
8CB2
  8
0
 10
363.2599332138628938
 20
318.4158465528392981
 30
0.0
  0
VERTEX
  5
8CB3
  8
0
 10
363.2159643994693852
 20
318.1997691769439029
 30
0.0
  0
VERTEX
  5
8CB4
  8
0
 10
363.1230993333018091
 20
317.7634848457122985
 30
0.0
  0
VERTEX
  5
8CB5
  8
0
 10
363.0235257191177993
 20
317.3213292926693043
 30
0.0
  0
VERTEX
  5
8CB6
  8
0
 10
362.6194662751011037
 20
315.720814001447593
 30
0.0
  0
VERTEX
  5
8CB7
  8
0
 10
361.7020036206454279
 20
312.7320653818209166
 30
0.0
  0
VERTEX
  5
8CB8
  8
0
 10
360.4393690054013746
 20
309.309453999996208
 30
0.0
  0
VERTEX
  5
8CB9
  8
0
 10
359.6470672352439237
 20
307.3758482571594186
 30
0.0
  0
VERTEX
  5
8CBA
  8
0
 10
358.7237094411530052
 20
305.2511705977548218
 30
0.0
  0
VERTEX
  5
8CBB
  8
0
 10
356.380297861714098
 20
300.2469838332399945
 30
0.0
  0
VERTEX
  5
8CBC
  8
0
 10
353.1124375047600097
 20
293.7849588156416871
 30
0.0
  0
VERTEX
  5
8CBD
  8
0
 10
348.3115739532527186
 20
284.6987409895340875
 30
0.0
  0
SEQEND
  5
8CBE
  8
0
  0
LINE
  5
3D9F
  8
1
 10
318.4967730361045142
 20
324.5021655609896811
 30
0.0
 11
378.1263748704009231
 21
324.5021655609896811
 31
0.0
  0
POINT
  5
3DA2
  8
0
 10
261.3115739532527186
 20
372.5021655609896811
 30
-0.0000000000000098
210
-1.0
220
0.0000000000000001
230
0.0
  0
LINE
  5
4675
  8
0
 10
134.6857235926867986
 20
85.3199563697613144
 30
0.0
 11
134.6857235927051875
 21
69.0314383141061398
 31
0.0
  0
POLYLINE
  5
4FB2
  8
0
 66
     1
 10
0.0
 20
0.0
 30
0.0
  0
VERTEX
  5
8CBF
  8
0
 10
134.6857235926860881
 20
85.3199563697550758
 30
0.0
  0
VERTEX
  5
8CC0
  8
0
 10
134.6857830293060942
 20
85.3296554833220284
 30
0.0
  0
VERTEX
  5
8CC1
  8
0
 10
134.6862581208559106
 20
85.3491378205960132
 30
0.0
  0
VERTEX
  5
8CC2
  8
0
 10
134.6872071387402059
 20
85.3687274056100591
 30
0.0
  0
VERTEX
  5
8CC3
  8
0
 10
134.6878589205626042
 20
85.378560566512931
 30
0.0
  0
VERTEX
  5
8CC4
  8
0
 10
134.6886286111717084
 20
85.388418314072112
 30
0.0
  0
VERTEX
  5
8CC5
  8
0
 10
134.6905207994643092
 20
85.4082045771714888
 30
0.0
  0
VERTEX
  5
8CC6
  8
0
 10
134.6928817555167939
 20
85.4280806204257601
 30
0.0
  0
VERTEX
  5
8CC7
  8
0
 10
134.7048061611417893
 20
85.4982865304445454
 30
0.0
  0
VERTEX
  5
8CC8
  8
0
 10
134.7382015850326979
 20
85.620350222803765
 30
0.0
  0
VERTEX
  5
8CC9
  8
0
 10
134.7608170329978066
 20
85.681840902744085
 30
0.0
  0
VERTEX
  5
8CCA
  8
0
 10
134.7872009994572977
 20
85.743409961441472
 30
0.0
  0
VERTEX
  5
8CCB
  8
0
 10
134.8506182022796906
 20
85.8660994134796738
 30
0.0
  0
VERTEX
  5
8CCC
  8
0
 10
134.9269140136950114
 20
85.987028350877921
 30
0.0
  0
VERTEX
  5
8CCD
  8
0
 10
135.0152761336130993
 20
86.1061649944672922
 30
0.0
  0
VERTEX
  5
8CCE
  8
0
 10
135.1186666783777071
 20
86.2274007764210779
 30
0.0
  0
VERTEX
  5
8CCF
  8
0
 10
135.2372373406986128
 20
86.3499542323072262
 30
0.0
  0
VERTEX
  5
8CD0
  8
0
 10
135.3020723087583974
 20
86.4113304299145852
 30
0.0
  0
VERTEX
  5
8CD1
  8
0
 10
135.3704977648677925
 20
86.472568709335647
 30
0.0
  0
VERTEX
  5
8CD2
  8
0
 10
135.5176834340607002
 20
86.5940257668836182
 30
0.0
  0
VERTEX
  5
8CD3
  8
0
 10
135.609570338548906
 20
86.6638682367793649
 30
0.0
  0
VERTEX
  5
8CD4
  8
0
 10
135.6365972113233909
 20
86.6836453671310778
 30
0.0
  0
VERTEX
  5
8CD5
  8
0
 10
135.6639603306290098
 20
86.7033363843529941
 30
0.0
  0
VERTEX
  5
8CD6
  8
0
 10
135.6777664259550988
 20
86.7131482425807292
 30
0.0
  0
VERTEX
  5
8CD7
  8
0
 10
135.6916545230712074
 20
86.722936823522133
 30
0.0
  0
VERTEX
  5
8CD8
  8
0
 10
135.7196735732152888
 20
86.7424416277783905
 30
0.0
  0
VERTEX
  5
8CD9
  8
0
 10
135.7480110463932874
 20
86.761845758207528
 30
0.0
  0
VERTEX
  5
8CDA
  8
0
 10
135.7766602957879911
 20
86.7811442012730367
 30
0.0
  0
VERTEX
  5
8CDB
  8
0
 10
135.8056144700815935
 20
86.8003319761551353
 30
0.0
  0
VERTEX
  5
8CDC
  8
0
 10
135.8348665216861946
 20
86.8194041420085512
 30
0.0
  0
VERTEX
  5
8CDD
  8
0
 10
135.849601997604708
 20
86.8288953402347659
 30
0.0
  0
VERTEX
  5
8CDE
  8
0
 10
135.8644092155873864
 20
86.8383558051445732
 30
0.0
  0
VERTEX
  5
8CDF
  8
0
 10
135.8942351388259908
 20
86.8571821261486434
 30
0.0
  0
VERTEX
  5
8CE0
  8
0
 10
135.9243367106494986
 20
86.8758783269378796
 30
0.0
  0
VERTEX
  5
8CE1
  8
0
 10
135.9547061933643022
 20
86.8944396977673676
 30
0.0
  0
VERTEX
  5
8CE2
  8
0
 10
135.985335703926097
 20
86.9128616041868156
 30
0.0
  0
VERTEX
  5
8CE3
  8
0
 10
136.0162172263023024
 20
86.931139493953566
 30
0.0
  0
VERTEX
  5
8CE4
  8
0
 10
136.0317499537707988
 20
86.9402230341869569
 30
0.0
  0
VERTEX
  5
8CE5
  8
0
 10
136.0473426246439033
 20
86.949268903904013
 30
0.0
  0
VERTEX
  5
8CE6
  8
0
 10
136.0787036573096884
 20
86.9672454667810371
 30
0.0
  0
VERTEX
  5
8CE7
  8
0
 10
136.1102919918087082
 20
86.9850649180365281
 30
0.0
  0
VERTEX
  5
8CE8
  8
0
 10
136.1420991999470971
 20
87.0027230911701537
 30
0.0
  0
VERTEX
  5
8CE9
  8
0
 10
136.174116669510596
 20
87.0202158683356117
 30
0.0
  0
VERTEX
  5
8CEA
  8
0
 10
136.206335563952706
 20
87.0375391613445686
 30
0.0
  0
VERTEX
  5
8CEB
  8
0
 10
136.2225177246403121
 20
87.0461359838937483
 30
0.0
  0
VERTEX
  5
8CEC
  8
0
 10
136.2387468303172113
 20
87.0546889200816736
 30
0.0
  0
VERTEX
  5
8CED
  8
0
 10
136.2713412092045928
 20
87.0716611415526245
 30
0.0
  0
VERTEX
  5
8CEE
  8
0
 10
136.3041092454465968
 20
87.088451878791858
 30
0.0
  0
VERTEX
  5
8CEF
  8
0
 10
136.3205553795978062
 20
87.09677797488078
 30
0.0
  0
VERTEX
  5
8CF0
  8
0
 10
136.3370412995182051
 20
87.1050572496388043
 30
0.0
  0
VERTEX
  5
8CF1
  8
0
 10
136.3701275597094877
 20
87.1214734453801753
 30
0.0
  0
VERTEX
  5
8CF2
  8
0
 10
136.403358055091303
 20
87.1376967392627648
 30
0.0
  0
VERTEX
  5
8CF3
  8
0
 10
136.42002423490311
 20
87.1457349078730203
 30
0.0
  0
VERTEX
  5
8CF4
  8
0
 10
136.4367226693065902
 20
87.1537234948757344
 30
0.0
  0
VERTEX
  5
8CF5
  8
0
 10
136.4702111552269059
 20
87.169550174404975
 30
0.0
  0
VERTEX
  5
8CF6
  8
0
 10
136.5038131505129968
 20
87.185173346756514
 30
0.0
  0
VERTEX
  5
8CF7
  8
0
 10
136.5375181941228107
 20
87.2005896955465118
 30
0.0
  0
VERTEX
  5
8CF8
  8
0
 10
136.5713157438144094
 20
87.2157960269595947
 30
0.0
  0
VERTEX
  5
8CF9
  8
0
 10
136.605195194691504
 20
87.2307892774621649
 30
0.0
  0
VERTEX
  5
8CFA
  8
0
 10
136.6221623146913942
 20
87.2382050809762006
 30
0.0
  0
VERTEX
  5
8CFB
  8
0
 10
136.639184181230803
 20
87.2455830453997265
 30
0.0
  0
VERTEX
  5
8CFC
  8
0
 10
136.6734950306004066
 20
87.260268371714929
 30
0.0
  0
VERTEX
  5
8CFD
  8
0
 10
136.7081527735803093
 20
87.2748519273401371
 30
0.0
  0
VERTEX
  5
8CFE
  8
0
 10
136.743146072864505
 20
87.2893246757827086
 30
0.0
  0
VERTEX
  5
8CFF
  8
0
 10
136.7784633585818881
 20
87.3036777337243564
 30
0.0
  0
VERTEX
  5
8D00
  8
0
 10
136.8140928551443949
 20
87.3179023829910363
 30
0.0
  0
VERTEX
  5
8D01
  8
0
 10
136.8320209533308969
 20
87.3249638779457911
 30
0.0
  0
VERTEX
  5
8D02
  8
0
 10
136.8500226096672066
 20
87.3319900820859516
 30
0.0
  0
VERTEX
  5
8D03
  8
0
 10
136.8862405220540097
 20
87.3459324772668992
 30
0.0
  0
VERTEX
  5
8D04
  8
0
 10
136.9227343768343985
 20
87.3597214131448538
 30
0.0
  0
VERTEX
  5
8D05
  8
0
 10
136.9410809419850068
 20
87.3665558420157424
 30
0.0
  0
VERTEX
  5
8D06
  8
0
 10
136.9981211506975001
 20
87.3871727230225588
 30
0.0
  0
VERTEX
  5
8D07
  8
0
 10
137.1133630030543031
 20
87.4257491806226454
 30
0.0
  0
VERTEX
  5
8D08
  8
0
 10
137.2299819036641964
 20
87.4609268157161353
 30
0.0
  0
VERTEX
  5
8D09
  8
0
 10
137.2887436418083098
 20
87.4772935094212158
 30
0.0
  0
VERTEX
  5
8D0A
  8
0
 10
137.308387121135695
 20
87.4825718456753521
 30
0.0
  0
VERTEX
  5
8D0B
  8
0
 10
137.3477594605489003
 20
87.4928689779143269
 30
0.0
  0
VERTEX
  5
8D0C
  8
0
 10
137.3872394019350054
 20
87.5028248460754128
 30
0.0
  0
VERTEX
  5
8D0D
  8
0
 10
137.4070173909838957
 20
87.5076765747422485
 30
0.0
  0
VERTEX
  5
8D0E
  8
0
 10
137.4268212105288001
 20
87.5124455060975777
 30
0.0
  0
VERTEX
  5
8D0F
  8
0
 10
137.4664974709070009
 20
87.5217364368698441
 30
0.0
  0
VERTEX
  5
8D10
  8
0
 10
137.5062590671647058
 20
87.5307026070398138
 30
0.0
  0
VERTEX
  5
8D11
  8
0
 10
137.5261695646275939
 20
87.5350655562006494
 30
0.0
  0
VERTEX
  5
8D12
  8
0
 10
137.5460986384399007
 20
87.5393492770963633
 30
0.0
  0
VERTEX
  5
8D13
  8
0
 10
137.5860088584317111
 20
87.5476815675490627
 30
0.0
  0
VERTEX
  5
8D14
  8
0
 10
137.625982435055306
 20
87.555704452991904
 30
0.0
  0
VERTEX
  5
8D15
  8
0
 10
137.6660121095789009
 20
87.5634227560592535
 30
0.0
  0
VERTEX
  5
8D16
  8
0
 10
137.7060906552270012
 20
87.5708411412626617
 30
0.0
  0
VERTEX
  5
8D17
  8
0
 10
137.7462108752476126
 20
87.5779641087085139
 30
0.0
  0
VERTEX
  5
8D18
  8
0
 10
137.7662833408834047
 20
87.5814159951368794
 30
0.0
  0
VERTEX
  5
8D19
  8
0
 10
137.7863493738018121
 20
87.5847932861303775
 30
0.0
  0
VERTEX
  5
8D1A
  8
0
 10
137.8264459540770872
 20
87.5913247232699064
 30
0.0
  0
VERTEX
  5
8D1B
  8
0
 10
137.8664880084990898
 20
87.5975630097936033
 30
0.0
  0
VERTEX
  5
8D1C
  8
0
 10
137.9064669277751989
 20
87.6035132217513137
 30
0.0
  0
VERTEX
  5
8D1D
  8
0
 10
137.9463741531731102
 20
87.6091802325557865
 30
0.0
  0
VERTEX
  5
8D1E
  8
0
 10
137.9862011757018081
 20
87.6145687100368917
 30
0.0
  0
VERTEX
  5
8D1F
  8
0
 10
138.0060819652175894
 20
87.6171599005448059
 30
0.0
  0
VERTEX
  5
8D20
  8
0
 10
138.0259395352377112
 20
87.6196831135196845
 30
0.0
  0
VERTEX
  5
8D21
  8
0
 10
138.0655808196061116
 20
87.6245276909119895
 30
0.0
  0
VERTEX
  5
8D22
  8
0
 10
138.1051166636306959
 20
87.6291064757970588
 30
0.0
  0
VERTEX
  5
8D23
  8
0
 10
138.124842444009289
 20
87.6312973972233493
 30
0.0
  0
VERTEX
  5
8D24
  8
0
 10
138.1640801629957878
 20
87.6354717351769352
 30
0.0
  0
VERTEX
  5
8D25
  8
0
 10
138.2421714771325867
 20
87.643058480189211
 30
0.0
  0
VERTEX
  5
8D26
  8
0
 10
138.3196966289548868
 20
87.6496497278351114
 30
0.0
  0
VERTEX
  5
8D27
  8
0
 10
138.3582267988323906
 20
87.6525788398843844
 30
0.0
  0
VERTEX
  5
8D28
  8
0
 10
138.435152509603995
 20
87.6577382195891346
 30
0.0
  0
VERTEX
  5
8D29
  8
0
 10
138.5863560597111075
 20
87.6651790479780857
 30
0.0
  0
VERTEX
  5
8D2A
  8
0
 10
138.7335864668912109
 20
87.668872414637292
 30
0.0
  0
VERTEX
  5
8D2B
  8
0
 10
138.8055572250191005
 20
87.6693330836604048
 30
0.0
  0
SEQEND
  5
8D2C
  8
0
  0
LINE
  5
6176
  8
2
 10
131.4357235927051022
 20
91.0314383141061398
 30
0.0
 11
105.4357235927054006
 21
91.0314383141082288
 31
0.0
  0
LINE
  5
61BA
  8
0
 10
98.0658899603912459
 20
87.6693330836619964
 30
0.0
 11
75.6771029030500131
 21
87.713962144389626
 31
0.0
  0
LINE
  5
61BB
  8
0
 10
102.1857235927233063
 20
85.3199563697625791
 30
0.0
 11
102.1857235927038943
 21
69.0314383141074046
 31
0.0
  0
POLYLINE
  5
61BC
  8
0
 66
     1
 10
0.0
 20
0.0
 30
0.0
  0
VERTEX
  5
8D2D
  8
0
 10
102.1857235927240026
 20
85.3199563697563548
 30
0.0
  0
VERTEX
  5
8D2E
  8
0
 10
102.1856641561039964
 20
85.3296554833233074
 30
0.0
  0
VERTEX
  5
8D2F
  8
0
 10
102.1851890645541943
 20
85.3491378205973064
 30
0.0
  0
VERTEX
  5
8D30
  8
0
 10
102.184240046669899
 20
85.3687274056113381
 30
0.0
  0
VERTEX
  5
8D31
  8
0
 10
102.1835882648475007
 20
85.3785605665141958
 30
0.0
  0
VERTEX
  5
8D32
  8
0
 10
102.1828185742383965
 20
85.3884183140733768
 30
0.0
  0
VERTEX
  5
8D33
  8
0
 10
102.1809263859457957
 20
85.4082045771727536
 30
0.0
  0
VERTEX
  5
8D34
  8
0
 10
102.1785654298932968
 20
85.4280806204270249
 30
0.0
  0
VERTEX
  5
8D35
  8
0
 10
102.1666410242683014
 20
85.4982865304458102
 30
0.0
  0
VERTEX
  5
8D36
  8
0
 10
102.133245600377407
 20
85.6203502228050155
 30
0.0
  0
VERTEX
  5
8D37
  8
0
 10
102.1106301524122983
 20
85.681840902745364
 30
0.0
  0
VERTEX
  5
8D38
  8
0
 10
102.084246185952793
 20
85.7434099614427367
 30
0.0
  0
VERTEX
  5
8D39
  8
0
 10
102.0208289831304995
 20
85.8660994134809528
 30
0.0
  0
VERTEX
  5
8D3A
  8
0
 10
101.944533171715193
 20
85.9870283508791857
 30
0.0
  0
VERTEX
  5
8D3B
  8
0
 10
101.8561710517971051
 20
86.1061649944685854
 30
0.0
  0
VERTEX
  5
8D3C
  8
0
 10
101.7527805070324973
 20
86.2274007764223711
 30
0.0
  0
VERTEX
  5
8D3D
  8
0
 10
101.6342098447116058
 20
86.3499542323085336
 30
0.0
  0
VERTEX
  5
8D3E
  8
0
 10
101.569374876651807
 20
86.4113304299159068
 30
0.0
  0
VERTEX
  5
8D3F
  8
0
 10
101.5009494205422982
 20
86.472568709336997
 30
0.0
  0
VERTEX
  5
8D40
  8
0
 10
101.3537637513495042
 20
86.594025766884954
 30
0.0
  0
VERTEX
  5
8D41
  8
0
 10
101.2618768468612984
 20
86.6638682367807007
 30
0.0
  0
VERTEX
  5
8D42
  8
0
 10
101.2348499740867993
 20
86.6836453671324136
 30
0.0
  0
VERTEX
  5
8D43
  8
0
 10
101.2074868547811946
 20
86.7033363843543441
 30
0.0
  0
VERTEX
  5
8D44
  8
0
 10
101.1936807594551055
 20
86.7131482425820792
 30
0.0
  0
VERTEX
  5
8D45
  8
0
 10
101.1797926623389969
 20
86.722936823523483
 30
0.0
  0
VERTEX
  5
8D46
  8
0
 10
101.1517736121949014
 20
86.7424416277797263
 30
0.0
  0
VERTEX
  5
8D47
  8
0
 10
101.1234361390169028
 20
86.761845758208878
 30
0.0
  0
VERTEX
  5
8D48
  8
0
 10
101.0947868896221991
 20
86.7811442012743868
 30
0.0
  0
VERTEX
  5
8D49
  8
0
 10
101.0658327153285967
 20
86.8003319761564569
 30
0.0
  0
VERTEX
  5
8D4A
  8
0
 10
101.0365806637239956
 20
86.8194041420099154
 30
0.0
  0
VERTEX
  5
8D4B
  8
0
 10
101.0218451878054964
 20
86.8288953402361443
 30
0.0
  0
VERTEX
  5
8D4C
  8
0
 10
101.0070379698228038
 20
86.8383558051459374
 30
0.0
  0
VERTEX
  5
8D4D
  8
0
 10
100.9772120465841994
 20
86.8571821261499935
 30
0.0
  0
VERTEX
  5
8D4E
  8
0
 10
100.9471104747607058
 20
86.8758783269392438
 30
0.0
  0
VERTEX
  5
8D4F
  8
0
 10
100.9167409920459022
 20
86.8944396977687461
 30
0.0
  0
VERTEX
  5
8D50
  8
0
 10
100.8861114814840931
 20
86.9128616041881941
 30
0.0
  0
VERTEX
  5
8D51
  8
0
 10
100.8552299591080015
 20
86.9311394939549444
 30
0.0
  0
VERTEX
  5
8D52
  8
0
 10
100.8396972316394056
 20
86.9402230341883353
 30
0.0
  0
VERTEX
  5
8D53
  8
0
 10
100.8241045607664006
 20
86.9492689039053772
 30
0.0
  0
VERTEX
  5
8D54
  8
0
 10
100.7927435281005017
 20
86.9672454667824155
 30
0.0
  0
VERTEX
  5
8D55
  8
0
 10
100.7611551936014962
 20
86.9850649180378781
 30
0.0
  0
VERTEX
  5
8D56
  8
0
 10
100.7293479854630931
 20
87.0027230911715606
 30
0.0
  0
VERTEX
  5
8D57
  8
0
 10
100.6973305158996936
 20
87.0202158683370044
 30
0.0
  0
VERTEX
  5
8D58
  8
0
 10
100.6651116214574984
 20
87.0375391613459612
 30
0.0
  0
VERTEX
  5
8D59
  8
0
 10
100.6489294607699065
 20
87.046135983895141
 30
0.0
  0
VERTEX
  5
8D5A
  8
0
 10
100.632700355092993
 20
87.0546889200830663
 30
0.0
  0
VERTEX
  5
8D5B
  8
0
 10
100.6001059762056968
 20
87.0716611415540029
 30
0.0
  0
VERTEX
  5
8D5C
  8
0
 10
100.5673379399635934
 20
87.0884518787932365
 30
0.0
  0
VERTEX
  5
8D5D
  8
0
 10
100.5508918058123982
 20
87.0967779748821584
 30
0.0
  0
VERTEX
  5
8D5E
  8
0
 10
100.5344058858919993
 20
87.1050572496401969
 30
0.0
  0
VERTEX
  5
8D5F
  8
0
 10
100.5013196257007024
 20
87.121473445381568
 30
0.0
  0
VERTEX
  5
8D60
  8
0
 10
100.4680891303189014
 20
87.1376967392641575
 30
0.0
  0
VERTEX
  5
8D61
  8
0
 10
100.4514229505070944
 20
87.145734907874413
 30
0.0
  0
VERTEX
  5
8D62
  8
0
 10
100.4347245161036
 20
87.1537234948771271
 30
0.0
  0
VERTEX
  5
8D63
  8
0
 10
100.4012360301832985
 20
87.1695501744063961
 30
0.0
  0
VERTEX
  5
8D64
  8
0
 10
100.3676340348971934
 20
87.1851733467578924
 30
0.0
  0
VERTEX
  5
8D65
  8
0
 10
100.3339289912873937
 20
87.2005896955479329
 30
0.0
  0
VERTEX
  5
8D66
  8
0
 10
100.300131441595795
 20
87.2157960269610157
 30
0.0
  0
VERTEX
  5
8D67
  8
0
 10
100.2662519907187004
 20
87.2307892774635718
 30
0.0
  0
VERTEX
  5
8D68
  8
0
 10
100.249284870718796
 20
87.2382050809776217
 30
0.0
  0
VERTEX
  5
8D69
  8
0
 10
100.2322630041794014
 20
87.2455830454011476
 30
0.0
  0
VERTEX
  5
8D6A
  8
0
 10
100.1979521548097978
 20
87.2602683717163643
 30
0.0
  0
VERTEX
  5
8D6B
  8
0
 10
100.1632944118298951
 20
87.274851927341544
 30
0.0
  0
VERTEX
  5
8D6C
  8
0
 10
100.1283011125457989
 20
87.2893246757841439
 30
0.0
  0
VERTEX
  5
8D6D
  8
0
 10
100.0929838268284016
 20
87.3036777337257917
 30
0.0
  0
VERTEX
  5
8D6E
  8
0
 10
100.0573543302659942
 20
87.3179023829924432
 30
0.0
  0
VERTEX
  5
8D6F
  8
0
 10
100.039426232079407
 20
87.3249638779472264
 30
0.0
  0
VERTEX
  5
8D70
  8
0
 10
100.0214245757430973
 20
87.3319900820874153
 30
0.0
  0
VERTEX
  5
8D71
  8
0
 10
99.9852066633563936
 20
87.3459324772683345
 30
0.0
  0
VERTEX
  5
8D72
  8
0
 10
99.9487128085759338
 20
87.3597214131463033
 30
0.0
  0
VERTEX
  5
8D73
  8
0
 10
99.9303662434253965
 20
87.3665558420171777
 30
0.0
  0
VERTEX
  5
8D74
  8
0
 10
99.873326034712818
 20
87.3871727230239941
 30
0.0
  0
VERTEX
  5
8D75
  8
0
 10
99.7580841823560149
 20
87.4257491806241092
 30
0.0
  0
VERTEX
  5
8D76
  8
0
 10
99.6414652817461644
 20
87.4609268157176132
 30
0.0
  0
VERTEX
  5
8D77
  8
0
 10
99.5827035436020651
 20
87.4772935094226796
 30
0.0
  0
VERTEX
  5
8D78
  8
0
 10
99.5630600642746231
 20
87.4825718456768158
 30
0.0
  0
VERTEX
  5
8D79
  8
0
 10
99.5236877248614746
 20
87.4928689779157907
 30
0.0
  0
VERTEX
  5
8D7A
  8
0
 10
99.4842077834753269
 20
87.5028248460768907
 30
0.0
  0
VERTEX
  5
8D7B
  8
0
 10
99.4644297944264508
 20
87.5076765747437264
 30
0.0
  0
VERTEX
  5
8D7C
  8
0
 10
99.4446259748815464
 20
87.5124455060990556
 30
0.0
  0
VERTEX
  5
8D7D
  8
0
 10
99.4049497145033456
 20
87.5217364368713362
 30
0.0
  0
VERTEX
  5
8D7E
  8
0
 10
99.3651881182456691
 20
87.5307026070412917
 30
0.0
  0
VERTEX
  5
8D7F
  8
0
 10
99.345277620782781
 20
87.5350655562021416
 30
0.0
  0
VERTEX
  5
8D80
  8
0
 10
99.3253485469704174
 20
87.5393492770978554
 30
0.0
  0
VERTEX
  5
8D81
  8
0
 10
99.2854383269786922
 20
87.5476815675505264
 30
0.0
  0
VERTEX
  5
8D82
  8
0
 10
99.2454647503550547
 20
87.5557044529934103
 30
0.0
  0
VERTEX
  5
8D83
  8
0
 10
99.205435075831474
 20
87.5634227560607457
 30
0.0
  0
VERTEX
  5
8D84
  8
0
 10
99.1653565301833169
 20
87.5708411412641681
 30
0.0
  0
VERTEX
  5
8D85
  8
0
 10
99.1252363101627907
 20
87.5779641087100345
 30
0.0
  0
VERTEX
  5
8D86
  8
0
 10
99.1051638445269418
 20
87.5814159951383857
 30
0.0
  0
VERTEX
  5
8D87
  8
0
 10
99.0850978116085344
 20
87.5847932861318839
 30
0.0
  0
VERTEX
  5
8D88
  8
0
 10
99.0450012313332451
 20
87.5913247232714127
 30
0.0
  0
VERTEX
  5
8D89
  8
0
 10
99.0049591769112567
 20
87.5975630097951381
 30
0.0
  0
VERTEX
  5
8D8A
  8
0
 10
98.9649802576351476
 20
87.6035132217528485
 30
0.0
  0
VERTEX
  5
8D8B
  8
0
 10
98.9250730322372647
 20
87.609180232557307
 30
0.0
  0
VERTEX
  5
8D8C
  8
0
 10
98.8852460097085668
 20
87.6145687100384265
 30
0.0
  0
VERTEX
  5
8D8D
  8
0
 10
98.8653652201927713
 20
87.6171599005463406
 30
0.0
  0
VERTEX
  5
8D8E
  8
0
 10
98.8455076501726353
 20
87.6196831135212335
 30
0.0
  0
VERTEX
  5
8D8F
  8
0
 10
98.8058663658042633
 20
87.6245276909135242
 30
0.0
  0
VERTEX
  5
8D90
  8
0
 10
98.7663305217796506
 20
87.6291064757986078
 30
0.0
  0
VERTEX
  5
8D91
  8
0
 10
98.7466047414010291
 20
87.6312973972248983
 30
0.0
  0
VERTEX
  5
8D92
  8
0
 10
98.7073670224145729
 20
87.6354717351784842
 30
0.0
  0
VERTEX
  5
8D93
  8
0
 10
98.629275708277774
 20
87.6430584801907457
 30
0.0
  0
VERTEX
  5
8D94
  8
0
 10
98.5517505564554455
 20
87.6496497278366746
 30
0.0
  0
VERTEX
  5
8D95
  8
0
 10
98.5132203865779275
 20
87.6525788398859333
 30
0.0
  0
VERTEX
  5
8D96
  8
0
 10
98.4362946758063941
 20
87.6577382195906836
 30
0.0
  0
VERTEX
  5
8D97
  8
0
 10
98.2850911256992958
 20
87.6651790479796347
 30
0.0
  0
VERTEX
  5
8D98
  8
0
 10
98.137860718519164
 20
87.6688724146388694
 30
0.0
  0
VERTEX
  5
8D99
  8
0
 10
98.0658899603912459
 20
87.6693330836619964
 30
0.0
  0
SEQEND
  5
8D9A
  8
0
  0
LINE
  5
620A
  8
2
 10
129.4357235927051875
 20
66.2314383141061853
 30
0.0
 11
129.4357235927053011
 21
87.0314383141061256
 31
0.0
  0
LINE
  5
620B
  8
2
 10
128.4357235927051875
 20
88.0314383141061256
 30
0.0
 11
128.4357235927051022
 21
87.0314383141061256
 31
0.0
  0
LINE
  5
620C
  8
2
 10
131.4357235927051022
 20
91.0314383141061398
 30
0.0
 11
131.4357235927051022
 21
88.0314383141061256
 31
0.0
  0
LINE
  5
620E
  8
2
 10
128.4357235927051875
 20
87.0314383141061256
 30
0.0
 11
129.4357235927053011
 21
87.0314383141061256
 31
0.0
  0
LINE
  5
620F
  8
2
 10
107.4357235927033969
 20
66.2314383141069953
 30
0.0
 11
107.4357235927048038
 21
87.0314383141069641
 31
0.0
  0
LINE
  5
6210
  8
2
 10
108.4357235927050027
 20
88.031438314106893
 30
0.0
 11
108.4357235927050027
 21
87.031438314106893
 31
0.0
  0
LINE
  5
6211
  8
2
 10
105.4357235927053011
 20
91.0314383141071204
 30
0.0
 11
105.4357235927051022
 21
88.0314383141071346
 31
0.0
  0
LINE
  5
6212
  8
2
 10
131.4357235927049885
 20
88.0314383141071346
 30
0.0
 11
105.4357235927052017
 21
88.0314383141071346
 31
0.0
  0
LINE
  5
6213
  8
2
 10
108.4357235927049032
 20
87.031438314106893
 30
0.0
 11
107.4357235927048038
 21
87.0314383141069641
 31
0.0
  0
LINE
  5
640E
  8
2
 10
348.3115739532527186
 20
318.5021655609896811
 30
0.0
 11
370.3115739532527186
 21
318.5021655609896811
 31
0.0
  0
LINE
  5
640F
  8
2
 10
370.3115739532527186
 20
330.5021655609896811
 30
0.0
 11
348.3115739532527186
 21
330.5021655609895106
 31
0.0
  0
LINE
  5
6410
  8
2
 10
345.3115739532527186
 20
337.5021655609895106
 30
0.0
 11
345.3115739532506723
 21
311.5021655609896811
 31
0.0
  0
LINE
  5
6411
  8
2
 10
370.1115739532526732
 20
335.5021655609896811
 30
0.0
 11
349.3115739532527186
 21
335.5021655609896811
 31
0.0
  0
LINE
  5
6412
  8
2
 10
348.3115739532527186
 20
334.5021655609896811
 30
0.0
 11
349.3115739532527186
 21
334.5021655609895106
 31
0.0
  0
LINE
  5
6413
  8
2
 10
345.3115739532527186
 20
337.5021655609895106
 30
0.0
 11
348.3115739532527186
 21
337.5021655609895106
 31
0.0
  0
LINE
  5
6415
  8
2
 10
349.3115739532527186
 20
334.5021655609896811
 30
0.0
 11
349.3115739532527186
 21
335.5021655609896811
 31
0.0
  0
LINE
  5
6416
  8
2
 10
370.111573953251991
 20
313.502165560987919
 30
0.0
 11
349.3115739532519797
 21
313.5021655609892832
 31
0.0
  0
LINE
  5
6417
  8
2
 10
348.3115739532519797
 20
314.5021655609892832
 30
0.0
 11
349.3115739532519797
 21
314.5021655609892832
 31
0.0
  0
LINE
  5
6418
  8
2
 10
345.3115739532518091
 20
311.5021655609896811
 30
0.0
 11
348.3115739532518091
 21
311.5021655609895106
 31
0.0
  0
LINE
  5
6419
  8
2
 10
348.3115739532537987
 20
337.5021655609895106
 30
0.0
 11
348.3115739532518091
 21
311.5021655609896811
 31
0.0
  0
LINE
  5
641A
  8
2
 10
349.3115739532519797
 20
314.5021655609892832
 30
0.0
 11
349.3115739532519797
 21
313.5021655609892832
 31
0.0
  0
LINE
  5
875C
  8
0
 10
135.4857235927048862
 20
359.2582468887059122
 30
0.0
 11
135.4857235927048862
 21
289.7460842332737911
 31
0.0
  0
LINE
  5
875D
  8
0
 10
101.381303707774407
 20
359.4212070054808805
 30
0.0
 11
101.381303707774407
 21
289.7460842332737911
 31
0.0
  0
TEXT
  5
87BB
  8
0
 62
     3
 10
0.0
 20
0.0
 30
0.0
 40
10.0
  1
TWN125-M
  7
STANDARD1
  0
CIRCLE
  5
885C
  8
2
 10
118.4357235927050027
 20
324.5021655609900222
 30
0.0
 40
15.5
  0
CIRCLE
  5
886A
  8
2
 10
118.4357235927050027
 20
324.5021655609900222
 30
0.0
 40
6.0
  0
LINE
  5
886B
  8
2
 10
367.3115739532527186
 20
340.0021655609897948
 30
0.0
 11
348.3115739532527186
 21
340.0021655609897948
 31
0.0
  0
LINE
  5
886D
  8
2
 10
360.3115739532527186
 20
339.0021655609896811
 30
-0.0000000000000098
 11
360.3115739532527186
 21
335.5021655609896811
 31
-0.0000000000000098
  0
LINE
  5
886E
  8
2
 10
366.3115739532527186
 20
339.0021655609896811
 30
-0.0000000000000098
 11
366.3115739532527186
 21
335.5021655609896811
 31
-0.0000000000000098
  0
LINE
  5
886F
  8
1
 10
363.3115739532527186
 20
343.0021655609896811
 30
-0.0000000000000098
 11
363.3115739532527186
 21
327.0021655609896811
 31
-0.0000000000000098
  0
LINE
  5
8870
  8
2
 10
360.8115739532527186
 20
330.5021655609896811
 30
-0.0000000000000098
 11
360.8115739532527186
 21
335.5021655609896811
 31
-0.0000000000000098
  0
LINE
  5
8871
  8
2
 10
361.244573953252484
 20
330.5021655609896811
 30
-0.0000000000000098
 11
361.2445739532524271
 21
335.5021655609896811
 31
-0.0000000000000098
  0
LINE
  5
8872
  8
2
 10
365.3785739532528964
 20
330.5021655609896811
 30
-0.0000000000000098
 11
365.3785739532528964
 21
335.5021655609896811
 31
-0.0000000000000098
  0
LINE
  5
8873
  8
2
 10
365.8115739532527186
 20
330.5021655609896811
 30
-0.0000000000000098
 11
365.8115739532527186
 21
335.5021655609896811
 31
-0.0000000000000098
  0
LINE
  5
8874
  8
2
 10
359.3115739532527186
 20
340.0021655609897948
 30
-0.0000000000000098
 11
360.3115739532527186
 21
339.0021655609896811
 31
-0.0000000000000098
  0
LINE
  5
8875
  8
2
 10
367.3115739532527186
 20
340.0021655609897948
 30
-0.0000000000000098
 11
366.3115739532527186
 21
339.0021655609896811
 31
-0.0000000000000098
  0
LINE
  5
8876
  8
2
 10
360.3115739532527186
 20
339.0021655609896811
 30
-0.0000000000000098
 11
366.3115739532527186
 21
339.0021655609896811
 31
-0.0000000000000098
  0
LINE
  5
8879
  8
2
 10
115.4357235927050027
 20
338.454588503513321
 30
0.0
 11
115.4357235927050027
 21
335.0851708052485947
 31
0.0
  0
LINE
  5
887A
  8
2
 10
121.4357235927050027
 20
338.454588503513321
 30
0.0
 11
121.4357235927050027
 21
335.0851708052485947
 31
0.0
  0
LINE
  5
887B
  8
2
 10
115.9357235927050027
 20
329.954588503513321
 30
0.0
 11
115.9357235927050027
 21
335.2143082038044781
 31
0.0
  0
LINE
  5
887C
  8
2
 10
116.3687235927047965
 20
330.1348834662289278
 30
0.0
 11
116.3687235927047965
 21
335.3062162365470158
 31
0.0
  0
LINE
  5
887D
  8
2
 10
120.5027235927051947
 20
330.1348834662289278
 30
0.0
 11
120.5027235927051947
 21
335.3062162365470158
 31
0.0
  0
LINE
  5
887E
  8
2
 10
120.9357235927050027
 20
329.954588503513321
 30
0.0
 11
120.9357235927050027
 21
335.2143082038044781
 31
0.0
  0
LINE
  5
887F
  8
2
 10
114.4357235927050027
 20
339.454588503513321
 30
0.0
 11
115.4357235927050027
 21
338.454588503513321
 31
0.0
  0
LINE
  5
8880
  8
2
 10
122.4357235927050027
 20
339.454588503513321
 30
0.0
 11
121.4357235927050027
 21
338.454588503513321
 31
0.0
  0
LINE
  5
8881
  8
2
 10
115.4357235927050027
 20
338.454588503513321
 30
0.0
 11
121.4357235927050027
 21
338.454588503513321
 31
0.0
  0
CIRCLE
  5
8884
  8
0
 10
118.4357235927050027
 20
324.5021655609900222
 30
0.0
 40
13.0
  0
CIRCLE
  5
891D
  8
2
 10
118.4357235927050027
 20
324.5021655609900222
 30
0.0
 40
11.0000000000002505
  0
ENDSEC
  0
EOF
