  0
SECTION
  2
HEADER
  9
$ACADVER
  1
AC1009
  9
$INSBASE
 10
0.0
 20
0.0
 30
0.0
  9
$EXTMIN
 10
0.0
 20
-2.960436562073669
 30
0.0
  9
$EXTMAX
 10
136.60620563001439
 20
146.72946225853281
 30
0.0
  9
$LIMMIN
 10
0.0
 20
0.0
  9
$LIMMAX
 10
187.5
 20
135.0
  9
$ORTHOMODE
 70
     1
  9
$REGENMODE
 70
     1
  9
$FILLMODE
 70
     1
  9
$QTEXTMODE
 70
     0
  9
$MIRRTEXT
 70
     0
  9
$DRAGMODE
 70
     2
  9
$LTSCALE
 40
5.0
  9
$OSMODE
 70
    37
  9
$ATTMODE
 70
     1
  9
$TEXTSIZE
 40
4.000000000000048
  9
$TRACEWID
 40
0.05
  9
$TEXTSTYLE
  7
STANDARD
  9
$CLAYER
  8
0
  9
$CELTYPE
  6
BYLAYER
  9
$CECOLOR
 62
   256
  9
$DIMSCALE
 40
1.0
  9
$DIMASZ
 40
3.0
  9
$DIMEXO
 40
2.0
  9
$DIMDLI
 40
0.38
  9
$DIMRND
 40
0.0
  9
$DIMDLE
 40
0.0
  9
$DIMEXE
 40
2.0
  9
$DIMTP
 40
0.0
  9
$DIMTM
 40
0.0
  9
$DIMTXT
 40
3.2000000000000002
  9
$DIMCEN
 40
0.09
  9
$DIMTSZ
 40
0.0
  9
$DIMTOL
 70
     0
  9
$DIMLIM
 70
     0
  9
$DIMTIH
 70
     0
  9
$DIMTOH
 70
     0
  9
$DIMSE1
 70
     0
  9
$DIMSE2
 70
     0
  9
$DIMTAD
 70
     1
  9
$DIMZIN
 70
     8
  9
$DIMBLK
  1

  9
$DIMASO
 70
     1
  9
$DIMSHO
 70
     0
  9
$DIMPOST
  1

  9
$DIMAPOST
  1

  9
$DIMALT
 70
     0
  9
$DIMALTD
 70
     2
  9
$DIMALTF
 40
25.399999999999999
  9
$DIMLFAC
 40
1.0
  9
$DIMTOFL
 70
     0
  9
$DIMTVP
 40
1.6000000000000001
  9
$DIMTIX
 70
     1
  9
$DIMSOXD
 70
     0
  9
$DIMSAH
 70
     0
  9
$DIMBLK1
  1

  9
$DIMBLK2
  1

  9
$DIMSTYLE
  2
STANDARD
  9
$DIMCLRD
 70
     0
  9
$DIMCLRE
 70
     0
  9
$DIMCLRT
 70
     0
  9
$DIMTFAC
 40
1.0
  9
$DIMGAP
 40
0.09
  9
$LUNITS
 70
     2
  9
$LUPREC
 70
     1
  9
$SKETCHINC
 40
0.1
  9
$FILLETRAD
 40
1.8999999999999999
  9
$AUNITS
 70
     0
  9
$AUPREC
 70
     0
  9
$MENU
  1
E:\r13\win\SUPPORT\ACAD
  9
$ELEVATION
 40
0.0
  9
$PELEVATION
 40
0.0
  9
$THICKNESS
 40
0.0
  9
$LIMCHECK
 70
     0
  9
$BLIPMODE
 70
     0
  9
$CHAMFERA
 40
0.0
  9
$CHAMFERB
 40
0.0
  9
$SKPOLY
 70
     0
  9
$TDCREATE
 40
2451582.7089806711
  9
$TDUPDATE
 40
2458183.5885466551
  9
$TDINDWG
 40
0.2661416898
  9
$TDUSRTIMER
 40
0.2661416898
  9
$USRTIMER
 70
     1
  9
$ANGBASE
 50
0.0
  9
$ANGDIR
 70
     0
  9
$PDMODE
 70
     0
  9
$PDSIZE
 40
0.0
  9
$PLINEWID
 40
0.0
  9
$COORDS
 70
     1
  9
$SPLFRAME
 70
     0
  9
$SPLINETYPE
 70
     6
  9
$SPLINESEGS
 70
     8
  9
$ATTDIA
 70
     0
  9
$ATTREQ
 70
     1
  9
$HANDLING
 70
     1
  9
$HANDSEED
  5
29DF
  9
$SURFTAB1
 70
     6
  9
$SURFTAB2
 70
     6
  9
$SURFTYPE
 70
     6
  9
$SURFU
 70
     6
  9
$SURFV
 70
     6
  9
$UCSNAME
  2

  9
$UCSORG
 10
0.0
 20
0.0
 30
0.0
  9
$UCSXDIR
 10
1.0
 20
0.0
 30
0.0
  9
$UCSYDIR
 10
0.0
 20
1.0
 30
0.0
  9
$PUCSNAME
  2

  9
$PUCSORG
 10
0.0
 20
0.0
 30
0.0
  9
$PUCSXDIR
 10
1.0
 20
0.0
 30
0.0
  9
$PUCSYDIR
 10
0.0
 20
1.0
 30
0.0
  9
$USERI1
 70
     0
  9
$USERI2
 70
     1
  9
$USERI3
 70
     1
  9
$USERI4
 70
     0
  9
$USERI5
 70
     0
  9
$USERR1
 40
0.0
  9
$USERR2
 40
0.0
  9
$USERR3
 40
0.0
  9
$USERR4
 40
0.0
  9
$USERR5
 40
0.0
  9
$WORLDVIEW
 70
     1
  9
$SHADEDGE
 70
     3
  9
$SHADEDIF
 70
    70
  9
$TILEMODE
 70
     1
  9
$MAXACTVP
 70
    16
  9
$PLIMCHECK
 70
     0
  9
$PEXTMIN
 10
1.0000000000000000E+020
 20
1.0000000000000000E+020
 30
1.0000000000000000E+020
  9
$PEXTMAX
 10
-1.0000000000000000E+020
 20
-1.0000000000000000E+020
 30
-1.0000000000000000E+020
  9
$PLIMMIN
 10
0.0
 20
0.0
  9
$PLIMMAX
 10
12.0
 20
9.0
  9
$UNITMODE
 70
     0
  9
$VISRETAIN
 70
     0
  9
$PLINEGEN
 70
     0
  9
$PSLTSCALE
 70
     0
  0
ENDSEC
  0
SECTION
  2
TABLES
  0
TABLE
  2
VPORT
 70
     1
  0
VPORT
  2
*ACTIVE
 70
     0
 10
0.0
 20
0.0
 11
1.0
 21
1.0
 12
172.54273504273499
 22
95.0
 13
0.0
 23
0.0
 14
5.0
 24
5.0
 15
5.0
 25
5.0
 16
0.0
 26
0.0
 36
1.0
 17
0.0
 27
0.0
 37
0.0
 40
190.0
 41
1.816239316239316
 42
50.0
 43
0.0
 44
0.0
 50
0.0
 51
0.0
 71
     0
 72
   500
 73
     1
 74
     0
 75
     0
 76
     0
 77
     0
 78
     2
  0
ENDTAB
  0
TABLE
  2
LTYPE
 70
     3
  0
LTYPE
  2
CONTINUOUS
 70
     0
  3
Solid Line
 72
    65
 73
     0
 40
0.0
  0
LTYPE
  2
CENTER
 70
     0
  3
____ _ ____ _ ____ _ ____ _ ____ _ ____ _ ____
 72
    65
 73
     4
 40
2.0
 49
1.25
 49
-0.25
 49
0.25
 49
-0.25
  0
LTYPE
  2
PHANTOM2
 70
     0
  3
___ _ _ ___ _ _ ___ _ _ ___ _ _
 72
    65
 73
     6
 40
1.25
 49
0.625
 49
-0.125
 49
0.125
 49
-0.125
 49
0.125
 49
-0.125
  0
ENDTAB
  0
TABLE
  2
LAYER
 70
     4
  0
LAYER
  2
0
 70
     0
 62
     7
  6
CONTINUOUS
  0
LAYER
  2
1
 70
     0
 62
     1
  6
CENTER
  0
LAYER
  2
DEFPOINTS
 70
     0
 62
     7
  6
CONTINUOUS
  0
LAYER
  2
3
 70
     0
 62
     3
  6
CONTINUOUS
  0
ENDTAB
  0
TABLE
  2
STYLE
 70
     2
  0
STYLE
  2
STANDARD
 70
     0
 40
0.0
 41
1.0
 50
0.0
 71
     0
 42
4.000000000000048
  3
TXT
  4
BIGFONT
  0
STYLE
  2
STANDARD1
 70
     0
 40
0.0
 41
1.0
 50
0.0
 71
     0
 42
3.0
  3
txt
  4

  0
ENDTAB
  0
TABLE
  2
VIEW
 70
     2
  0
VIEW
  2
ALL
 70
     0
 40
135.0
 10
110.4957983193277
 20
67.5
 41
0.0
 11
0.0
 21
0.0
 31
1.0
 12
0.0
 22
0.0
 32
0.0
 42
0.0
 43
0.0
 44
0.0
 50
0.0
 71
     0
  0
VIEW
  2
OLE1
 70
     0
 40
235.2079806749349
 10
722.79185871078926
 20
95.257412002191856
 41
302.2278937573451
 11
0.0
 21
0.0
 31
1.0
 12
0.0
 22
0.0
 32
0.0
 42
50.0
 43
0.0
 44
0.0
 50
0.0
 71
     0
  0
ENDTAB
  0
TABLE
  2
UCS
 70
     0
  0
ENDTAB
  0
TABLE
  2
APPID
 70
    44
  0
APPID
  2
ACAD
 70
     0
  0
APPID
  2
ACAD_MLEADERVER
 70
     0
  0
APPID
  2
ACAD_NAV_VCDISPLAY
 70
     0
  0
APPID
  2
ACAD_DSTYLE_DIMJAG
 70
     0
  0
APPID
  2
ACAD_DSTYLE_DIMTALN
 70
     0
  0
APPID
  2
ACAD_EXEMPT_FROM_CAD_STANDARDS
 70
     0
  0
APPID
  2
GENIUS_GENODEF_13
 70
     0
  0
APPID
  2
GENIUS_GENFIL_13
 70
     0
  0
APPID
  2
GENIUS_GENOBJ-N-CHA_13
 70
     0
  0
APPID
  2
ACAD_DSTYLE_DIMRADIAL_EXTENSION
 70
     0
  0
APPID
  2
GENIUS_GENOREF_13
 70
     0
  0
APPID
  2
DCO15
 70
     0
  0
APPID
  2
GENIUS_GENOENT_13
 70
     0
  0
APPID
  2
GENIUS_GENBH_13
 70
     0
  0
APPID
  2
GENIUS_GENOBJ_13
 70
     0
  0
APPID
  2
GENIUS_GENOLIS_13
 70
     0
  0
APPID
  2
GENIUS_GENOBJ-NBEHI-BHF_13
 70
     0
  0
APPID
  2
GENIUS_GENOBJ-NBEHI-BHB_13
 70
     0
  0
APPID
  2
GENIUS_GENOBJ-F-PART_13
 70
     0
  0
APPID
  2
GENIUS_GEFSTDP_13
 70
     0
  0
APPID
  2
GENIUS_GENOBJ-N-RSSYM_13
 70
     0
  0
APPID
  2
GENIUS_GENSYMENT_13
 70
     0
  0
APPID
  2
GENIUS_GENOBJ-N-TIT_13
 70
     0
  0
APPID
  2
GENIUS_GENTITLE_13
 70
     0
  0
APPID
  2
GENIUS_GENZVEED_13
 70
     0
  0
APPID
  2
GENIUS_GENOBJ-N-LEADER_13
 70
     0
  0
APPID
  2
GENIUS_GENOBJ-N-FIL_13
 70
     0
  0
APPID
  2
GENIUS_GENOBJ-N-SEC_13
 70
     0
  0
APPID
  2
GENIUS_GENOBJ-N-CRS_13
 70
     0
  0
APPID
  2
GENIUS_GENOBJ-N-ZOO_13
 70
     0
  0
APPID
  2
GENIUS_GENZOO_13
 70
     0
  0
APPID
  2
GENIUS_GENOBJ-F-TOL_13
 70
     0
  0
APPID
  2
_CALL_MAC$
 70
     0
  0
APPID
  2
ASM_BASE
 70
     0
  0
APPID
  2
ASM_EXPLO_VER_2_00
 70
     0
  0
APPID
  2
ASM_CADM_VER_12_00
 70
     0
  0
APPID
  2
ASM_BASEFORO
 70
     0
  0
APPID
  2
ASM_BASETRAVI
 70
     0
  0
APPID
  2
ASM_BASETRAVI1
 70
     0
  0
APPID
  2
ASM_GRUPPI
 70
     0
  0
APPID
  2
ASM_CADM_ALBERO
 70
     0
  0
APPID
  2
ASM_GOLE
 70
     0
  0
APPID
  2
GENIUS_GENOBJ-N-CEN_13
 70
     0
  0
APPID
  2
GENIUS_GENCEN_19
 70
     0
  0
ENDTAB
  0
TABLE
  2
DIMSTYLE
 70
     1
  0
DIMSTYLE
  2
STANDARD
 70
     0
  3

  4

  5

  6

  7

 40
1.0
 41
0.18
 42
0.0625
 43
0.38
 44
0.18
 45
0.0
 46
0.0
 47
0.0
 48
0.0
140
0.18
141
0.09
142
0.0
143
25.399999999999999
144
1.0
145
0.0
146
1.0
147
0.09
 71
     0
 72
     0
 73
     1
 74
     1
 75
     0
 76
     0
 77
     0
 78
     0
170
     0
171
     2
172
     0
173
     0
174
     0
175
     0
176
     0
177
     0
178
     0
  0
ENDTAB
  0
ENDSEC
  0
SECTION
  2
BLOCKS
  0
BLOCK
  8
0
  2
$MODEL_SPACE
 70
     0
 10
0.0
 20
0.0
 30
0.0
  3
$MODEL_SPACE
  1

  0
ENDBLK
  5
968
  8
0
  0
BLOCK
 67
     1
  8
0
  2
$PAPER_SPACE
 70
     0
 10
0.0
 20
0.0
 30
0.0
  3
$PAPER_SPACE
  1

  0
ENDBLK
  5
966
 67
     1
  8
0
  0
ENDSEC
  0
SECTION
  2
ENTITIES
  0
POLYLINE
  5
EA8
  8
0
 66
     1
 10
0.0
 20
0.0
 30
0.0
  0
VERTEX
  5
294D
  8
0
 10
39.99999999999995
 20
119.72946225853261
 30
0.0
  0
VERTEX
  5
294E
  8
0
 10
41.173594579234241
 20
119.0644052624192
 30
0.0
  0
VERTEX
  5
294F
  8
0
 10
42.38119961793489
 20
118.45784872342369
 30
0.0
  0
VERTEX
  5
2950
  8
0
 10
43.618184014091241
 20
117.9123700360099
 30
0.0
  0
VERTEX
  5
2951
  8
0
 10
44.913707713076171
 20
117.4183427633663
 30
0.0
  0
VERTEX
  5
2952
  8
0
 10
46.234964431008471
 20
116.9909720759229
 30
0.0
  0
VERTEX
  5
2953
  8
0
 10
47.576503900776309
 20
116.6321968581947
 30
0.0
  0
VERTEX
  5
2954
  8
0
 10
49.011645222637412
 20
116.3291361453953
 30
0.0
  0
VERTEX
  5
2955
  8
0
 10
50.462972991321912
 20
116.10433177264601
 30
0.0
  0
VERTEX
  5
2956
  8
0
 10
51.923731321749983
 20
115.9589284312909
 30
0.0
  0
VERTEX
  5
2957
  8
0
 10
53.433857125091457
 20
115.89292545533181
 30
0.0
  0
VERTEX
  5
2958
  8
0
 10
54.94662491159113
 20
115.9116942299777
 30
0.0
  0
VERTEX
  5
2959
  8
0
 10
56.454547658778999
 20
116.0151333377692
 30
0.0
  0
VERTEX
  5
295A
  8
0
 10
57.900440926854799
 20
116.1950793099233
 30
0.0
  0
VERTEX
  5
295B
  8
0
 10
59.335037255700172
 20
116.45297925422329
 30
0.0
  0
VERTEX
  5
295C
  8
0
 10
60.751763841881818
 20
116.787539835627
 30
0.0
  0
VERTEX
  5
295D
  8
0
 10
62.187308061629317
 20
117.21112329119249
 30
0.0
  0
VERTEX
  5
295E
  8
0
 10
63.597084766800542
 20
117.7136845369768
 30
0.0
  0
VERTEX
  5
295F
  8
0
 10
64.974360688388003
 20
118.2925804464483
 30
0.0
  0
VERTEX
  5
2960
  8
0
 10
65.673658897551718
 20
118.62188668641519
 30
0.0
  0
VERTEX
  5
2961
  8
0
 10
66.362791477951532
 20
118.9709066438036
 30
0.0
  0
VERTEX
  5
2962
  8
0
 10
67.043489471062344
 20
119.3406082449072
 30
0.0
  0
VERTEX
  5
2963
  8
0
 10
67.712812921102
 20
119.72946225853291
 30
0.0
  0
SEQEND
  5
2964
  8
0
  0
POLYLINE
  5
EA9
  8
0
 66
     1
 10
0.0
 20
0.0
 30
0.0
  0
VERTEX
  5
2965
  8
0
 10
53.856406460551
 20
143.72946225853281
 30
0.0
  0
VERTEX
  5
2966
  8
0
 10
52.693652460099997
 20
143.04562775253751
 30
0.0
  0
VERTEX
  5
2967
  8
0
 10
51.56455613970445
 20
142.3030890497532
 30
0.0
  0
VERTEX
  5
2968
  8
0
 10
50.473665144818618
 20
141.50456810835109
 30
0.0
  0
VERTEX
  5
2969
  8
0
 10
49.398062737213202
 20
140.6296248659325
 30
0.0
  0
VERTEX
  5
296A
  8
0
 10
48.367320158388161
 20
139.69906783965729
 30
0.0
  0
VERTEX
  5
296B
  8
0
 10
47.385841670326577
 20
138.7166476622269
 30
0.0
  0
VERTEX
  5
296C
  8
0
 10
46.405812874937958
 20
137.62530905899831
 30
0.0
  0
VERTEX
  5
296D
  8
0
 10
45.485462840940549
 20
136.4808244200085
 30
0.0
  0
VERTEX
  5
296E
  8
0
 10
44.629160841864604
 20
135.28847216819781
 30
0.0
  0
VERTEX
  5
296F
  8
0
 10
43.816937849938078
 20
134.0136662551441
 30
0.0
  0
VERTEX
  5
2970
  8
0
 10
43.076808360806552
 20
132.69418645223999
 30
0.0
  0
VERTEX
  5
2971
  8
0
 10
42.412428054649858
 20
131.33656742023121
 30
0.0
  0
VERTEX
  5
2972
  8
0
 10
41.845319369945003
 20
129.99441406505679
 30
0.0
  0
VERTEX
  5
2973
  8
0
 10
41.351369278579448
 20
128.6230671697148
 30
0.0
  0
VERTEX
  5
2974
  8
0
 10
40.93274412040256
 20
127.2288656167278
 30
0.0
  0
VERTEX
  5
2975
  8
0
 10
40.581806223305762
 20
125.7738560872468
 30
0.0
  0
VERTEX
  5
2976
  8
0
 10
40.312148857904781
 20
124.3016729954296
 30
0.0
  0
VERTEX
  5
2977
  8
0
 10
40.124849643011203
 20
122.81946908660611
 30
0.0
  0
VERTEX
  5
2978
  8
0
 10
40.060388258821519
 20
122.04920676364689
 30
0.0
  0
VERTEX
  5
2979
  8
0
 10
40.01808222217872
 20
121.2778912790907
 30
0.0
  0
VERTEX
  5
297A
  8
0
 10
39.997904261206152
 20
120.5035395502513
 30
0.0
  0
VERTEX
  5
297B
  8
0
 10
39.99999999999995
 20
119.72946225853261
 30
0.0
  0
SEQEND
  5
297C
  8
0
  0
POLYLINE
  5
EAA
  8
0
 66
     1
 10
0.0
 20
0.0
 30
0.0
  0
VERTEX
  5
297D
  8
0
 10
67.712812921102
 20
119.72946225853291
 30
0.0
  0
VERTEX
  5
297E
  8
0
 10
67.701971754327474
 20
121.07835740117871
 30
0.0
  0
VERTEX
  5
297F
  8
0
 10
67.623462081889727
 20
122.4274562306004
 30
0.0
  0
VERTEX
  5
2980
  8
0
 10
67.477367367705483
 20
123.7714593512344
 30
0.0
  0
VERTEX
  5
2981
  8
0
 10
67.257444302681165
 20
125.1404335033278
 30
0.0
  0
VERTEX
  5
2982
  8
0
 10
66.966928006065984
 20
126.4983647020865
 30
0.0
  0
VERTEX
  5
2983
  8
0
 10
66.606864502004896
 20
127.8395633838589
 30
0.0
  0
VERTEX
  5
2984
  8
0
 10
66.151750862546919
 20
129.2339621142267
 30
0.0
  0
VERTEX
  5
2985
  8
0
 10
65.620772051280596
 20
130.60325047819379
 30
0.0
  0
VERTEX
  5
2986
  8
0
 10
65.016314685060593
 20
131.9410053651406
 30
0.0
  0
VERTEX
  5
2987
  8
0
 10
64.318410856998753
 20
133.2818134652999
 30
0.0
  0
VERTEX
  5
2988
  8
0
 10
63.54577159325504
 20
134.58252364780969
 30
0.0
  0
VERTEX
  5
2989
  8
0
 10
62.702228240920078
 20
135.83670267449119
 30
0.0
  0
VERTEX
  5
298A
  8
0
 10
61.823442789952018
 20
136.99890918773349
 30
0.0
  0
VERTEX
  5
298B
  8
0
 10
60.882795735847481
 20
138.11235522151119
 30
0.0
  0
VERTEX
  5
298C
  8
0
 10
59.884693546084122
 20
139.1719952331359
 30
0.0
  0
VERTEX
  5
298D
  8
0
 10
58.800086500994212
 20
140.20342027627231
 30
0.0
  0
VERTEX
  5
298E
  8
0
 10
57.659966500841684
 20
141.17304105258259
 30
0.0
  0
VERTEX
  5
298F
  8
0
 10
56.469989198723283
 20
142.07634794925761
 30
0.0
  0
VERTEX
  5
2990
  8
0
 10
55.835157095456402
 20
142.51730093332139
 30
0.0
  0
VERTEX
  5
2991
  8
0
 10
55.188335425083643
 20
142.9395936463446
 30
0.0
  0
VERTEX
  5
2992
  8
0
 10
54.527820457855249
 20
143.34424122727259
 30
0.0
  0
VERTEX
  5
2993
  8
0
 10
53.856406460551
 20
143.72946225853281
 30
0.0
  0
SEQEND
  5
2994
  8
0
  0
CIRCLE
  5
EAB
  8
0
 10
53.856406460550971
 20
127.72946225853281
 30
0.0
 40
5.449086943711217
  0
LINE
  5
EAD
  8
1
 10
34.856406460550971
 20
127.72946225853281
 30
0.0
 11
72.856406460550943
 21
127.72946225853281
 31
0.0
  0
LINE
  5
EAE
  8
1
 10
53.856406460550971
 20
146.72946225853281
 30
0.0
 11
53.856406460550971
 21
108.72946225853281
 31
0.0
  0
LINE
  5
EB5
  8
0
 10
123.6062056300144
 20
131.62946225853281
 30
0.0
 11
123.4062056300144
 21
131.62946225853281
 31
0.0
  0
LINE
  5
EB6
  8
0
 10
123.4062056300144
 20
123.8294622585328
 30
0.0
 11
123.6062056300144
 21
123.8294622585328
 31
0.0
  0
LINE
  5
EB7
  8
0
 10
123.6062056300144
 20
123.8294622585328
 30
0.0
 11
123.6062056300144
 21
131.62946225853281
 31
0.0
  0
LINE
  5
EBF
  8
0
 10
123.4062056300144
 20
134.72946225853281
 30
0.0
 11
107.6062056300145
 21
134.72946225853281
 31
0.0
  0
LINE
  5
EC0
  8
0
 10
107.6062056300145
 20
120.72946225853281
 30
0.0
 11
123.4062056300144
 21
120.72946225853281
 31
0.0
  0
LINE
  5
EC1
  8
0
 10
123.4062056300144
 20
120.72946225853281
 30
0.0
 11
123.4062056300144
 21
134.72946225853281
 31
0.0
  0
LINE
  5
EC2
  8
0
 10
107.6062056300145
 20
143.72946225853281
 30
0.0
 11
107.6062056300145
 21
115.8894622585328
 31
0.0
  0
LINE
  5
EC3
  8
0
 10
98.472872296681047
 20
115.8894622585328
 30
0.0
 11
107.6062056300145
 21
115.8894622585328
 31
0.0
  0
LINE
  5
EC4
  8
0
 10
99.339538963347763
 20
143.72946225853281
 30
0.0
 11
107.6062056300145
 21
143.72946225853281
 31
0.0
  0
LINE
  5
EC5
  8
0
 10
99.339538963347763
 20
119.72946225853261
 30
0.0
 11
107.6062056300145
 21
119.72946225853281
 31
0.0
  0
LINE
  5
EC6
  8
0
 10
99.339538963347763
 20
119.72946225853271
 30
0.0
 11
98.472872296684329
 21
115.8894622585475
 31
0.0
  0
POLYLINE
  5
EC7
  8
0
 66
     1
 10
0.0
 20
0.0
 30
0.0
  0
VERTEX
  5
2995
  8
0
 10
99.339538963347763
 20
143.72946225853281
 30
0.0
  0
VERTEX
  5
2996
  8
0
 10
99.186508413428655
 20
143.04562775253751
 30
0.0
  0
VERTEX
  5
2997
  8
0
 10
99.047883969341214
 20
142.3030890497532
 30
0.0
  0
VERTEX
  5
2998
  8
0
 10
98.924045449118694
 20
141.50456810835109
 30
0.0
  0
VERTEX
  5
2999
  8
0
 10
98.812620128902594
 20
140.6296248659325
 30
0.0
  0
VERTEX
  5
299A
  8
0
 10
98.716832265129256
 20
139.69906783965729
 30
0.0
  0
VERTEX
  5
299B
  8
0
 10
98.636884844495285
 20
138.7166476622269
 30
0.0
  0
VERTEX
  5
299C
  8
0
 10
98.569699448121071
 20
137.62530905899831
 30
0.0
  0
VERTEX
  5
299D
  8
0
 10
98.520091199744343
 20
136.4808244200085
 30
0.0
  0
VERTEX
  5
299E
  8
0
 10
98.488119900652464
 20
135.28847216819781
 30
0.0
  0
VERTEX
  5
299F
  8
0
 10
98.475497038798949
 20
134.3368111707664
 30
0.0
  0
VERTEX
  5
29A0
  8
0
 10
98.473348794523304
 20
133.3591021736267
 30
0.0
  0
VERTEX
  5
29A1
  8
0
 10
98.481673988699583
 20
132.35810198678089
 30
0.0
  0
VERTEX
  5
29A2
  8
0
 10
98.500471442201913
 20
131.33656742023121
 30
0.0
  0
VERTEX
  5
29A3
  8
0
 10
98.540094625714104
 20
129.99441406505679
 30
0.0
  0
VERTEX
  5
29A4
  8
0
 10
98.597112108201543
 20
128.6230671697148
 30
0.0
  0
VERTEX
  5
29A5
  8
0
 10
98.671446833750807
 20
127.2288656167278
 30
0.0
  0
VERTEX
  5
29A6
  8
0
 10
98.740704151629174
 20
126.13949789520051
 30
0.0
  0
VERTEX
  5
29A7
  8
0
 10
98.820346495291744
 20
125.0394641900471
 30
0.0
  0
VERTEX
  5
29A8
  8
0
 10
98.910246469562594
 20
123.9317820657036
 30
0.0
  0
VERTEX
  5
29A9
  8
0
 10
99.010276679265985
 20
122.81946908660611
 30
0.0
  0
VERTEX
  5
29AA
  8
0
 10
99.085278867123861
 20
122.04920676364689
 30
0.0
  0
VERTEX
  5
29AB
  8
0
 10
99.165077234106676
 20
121.2778912790907
 30
0.0
  0
VERTEX
  5
29AC
  8
0
 10
99.249934233435511
 20
120.5035395502513
 30
0.0
  0
VERTEX
  5
29AD
  8
0
 10
99.339538963347763
 20
119.72946225853261
 30
0.0
  0
SEQEND
  5
29AE
  8
0
  0
ARC
  5
EC8
  8
0
 10
158.57565007445959
 20
129.21832799927361
 30
0.0
 40
60.987620686974097
 50
166.23536311419869
 51
176.27688833172371
  0
ARC
  5
EC9
  8
0
 10
158.57565007445601
 20
126.2405965177916
 30
0.0
 40
60.987620686970487
 50
183.7231116682778
 51
189.7718402213408
  0
LINE
  5
ECA
  8
0
 10
97.716743371481641
 20
122.2803753148216
 30
0.0
 11
97.716743371481641
 21
133.178549202244
 31
0.0
  0
LINE
  5
ECF
  8
1
 10
136.60620563001439
 20
127.72946225853281
 30
0.0
 11
94.716743371481627
 21
127.72946225853281
 31
0.0
  0
LINE
  5
ED8
  8
0
 10
49.956406460550973
 20
60.0
 30
0.0
 11
57.75640646055092
 21
60.0
 31
0.0
  0
LINE
  5
ED9
  8
0
 10
57.75640646055092
 20
60.0
 30
0.0
 11
57.75640646055092
 21
60.199999999999989
 31
0.0
  0
LINE
  5
EDA
  8
0
 10
49.956406460550973
 20
60.199999999999989
 30
0.0
 11
49.956406460550973
 21
60.0
 31
0.0
  0
LINE
  5
EE2
  8
0
 10
46.856406460550971
 20
60.199999999999989
 30
0.0
 11
60.856406460550943
 21
60.199999999999989
 31
0.0
  0
LINE
  5
EE3
  8
0
 10
60.856406460550943
 20
60.199999999999989
 30
0.0
 11
60.856406460550943
 21
75.999999999999986
 31
0.0
  0
LINE
  5
EE4
  8
0
 10
46.856406460550971
 20
76.0
 30
0.0
 11
46.856406460550971
 21
60.199999999999989
 31
0.0
  0
LINE
  5
EE5
  8
0
 10
39.99606954962033
 20
84.320479055208409
 30
0.0
 11
39.99606954962033
 21
76.0
 31
0.0
  0
POLYLINE
  5
EE6
  8
0
 66
     1
 10
0.0
 20
0.0
 30
0.0
  0
VERTEX
  5
29AF
  8
0
 10
39.996069549899516
 20
84.320479058299014
 30
0.0
  0
VERTEX
  5
29B0
  8
0
 10
40.001672150638029
 20
84.382500380191047
 30
0.0
  0
VERTEX
  5
29B1
  8
0
 10
40.04118101615628
 20
84.490249816490703
 30
0.0
  0
VERTEX
  5
29B2
  8
0
 10
40.119163299478998
 20
84.590379944624928
 30
0.0
  0
VERTEX
  5
29B3
  8
0
 10
40.235445553396417
 20
84.682161058159579
 30
0.0
  0
VERTEX
  5
29B4
  8
0
 10
40.393176715183976
 20
84.766981431474591
 30
0.0
  0
VERTEX
  5
29B5
  8
0
 10
40.590377822577153
 20
84.843026419059754
 30
0.0
  0
VERTEX
  5
29B6
  8
0
 10
40.828453274077617
 20
84.910646759099933
 30
0.0
  0
VERTEX
  5
29B7
  8
0
 10
41.075492948781992
 20
84.963681072209241
 30
0.0
  0
SEQEND
  5
29B8
  8
0
  0
LINE
  5
EE8
  8
0
 10
67.716743371481641
 20
75.999999999999986
 30
0.0
 11
67.716743371481641
 21
84.320486439039243
 31
0.0
  0
LINE
  5
EE9
  8
0
 10
67.716743371418033
 20
84.320486440279694
 30
0.0
 11
67.712812921102
 21
84.266666666666623
 31
0.0
  0
LINE
  5
EEA
  8
0
 10
67.716743371481641
 20
75.999999999999986
 30
0.0
 11
39.99606954962033
 21
76.0
 31
0.0
  0
LINE
  5
EEB
  8
0
 10
67.712812921102
 20
84.266666666666637
 30
0.0
 11
67.712812921102
 21
75.999999999999986
 31
0.0
  0
LINE
  5
EEC
  8
0
 10
39.999999999999972
 20
84.266666666666922
 30
0.0
 11
39.999999999999972
 21
76.0
 31
0.0
  0
POLYLINE
  5
EED
  8
0
 66
     1
 10
0.0
 20
0.0
 30
0.0
  0
VERTEX
  5
29B9
  8
0
 10
67.712812921102
 20
84.266666666666637
 30
0.0
  0
VERTEX
  5
29BA
  8
0
 10
66.539218341867695
 20
84.419697158429983
 30
0.0
  0
VERTEX
  5
29BB
  8
0
 10
65.331613303167046
 20
84.558321555900577
 30
0.0
  0
VERTEX
  5
29BC
  8
0
 10
64.094628907010701
 20
84.682160041461188
 30
0.0
  0
VERTEX
  5
29BD
  8
0
 10
62.799105208025772
 20
84.793585336608658
 30
0.0
  0
VERTEX
  5
29BE
  8
0
 10
61.477848490093493
 20
84.889373188543146
 30
0.0
  0
VERTEX
  5
29BF
  8
0
 10
60.136309020325591
 20
84.969320610709303
 30
0.0
  0
VERTEX
  5
29C0
  8
0
 10
58.701167698464531
 20
85.036506048006629
 30
0.0
  0
VERTEX
  5
29C1
  8
0
 10
57.249839929780023
 20
85.086114337088048
 30
0.0
  0
VERTEX
  5
29C2
  8
0
 10
55.789081599351952
 20
85.118085676575149
 30
0.0
  0
VERTEX
  5
29C3
  8
0
 10
54.657027394582137
 20
85.130708569420449
 30
0.0
  0
VERTEX
  5
29C4
  8
0
 10
53.522434211751062
 20
85.132856844560493
 30
0.0
  0
VERTEX
  5
29C5
  8
0
 10
52.388460638463158
 20
85.124531681109346
 30
0.0
  0
VERTEX
  5
29C6
  8
0
 10
51.258265262322908
 20
85.105734258181059
 30
0.0
  0
VERTEX
  5
29C7
  8
0
 10
49.812371994247108
 20
85.066111114119295
 30
0.0
  0
VERTEX
  5
29C8
  8
0
 10
48.377775665401742
 20
85.009093671124106
 30
0.0
  0
VERTEX
  5
29C9
  8
0
 10
46.961049079220139
 20
84.934758985006397
 30
0.0
  0
VERTEX
  5
29CA
  8
0
 10
45.882238228238599
 20
84.865501697476901
 30
0.0
  0
VERTEX
  5
29CB
  8
0
 10
44.816974738252007
 20
84.785859384076247
 30
0.0
  0
VERTEX
  5
29CC
  8
0
 10
43.768099207122901
 20
84.695959439896114
 30
0.0
  0
VERTEX
  5
29CD
  8
0
 10
42.738452232713961
 20
84.595929260028257
 30
0.0
  0
VERTEX
  5
29CE
  8
0
 10
42.039154023550253
 20
84.520927010657246
 30
0.0
  0
VERTEX
  5
29CF
  8
0
 10
41.350021443150382
 20
84.441128571886665
 30
0.0
  0
VERTEX
  5
29D0
  8
0
 10
40.66932345003962
 20
84.356271489656947
 30
0.0
  0
VERTEX
  5
29D1
  8
0
 10
39.999999999999972
 20
84.266666666666922
 30
0.0
  0
SEQEND
  5
29D2
  8
0
  0
LINE
  5
EF2
  8
0
 10
39.999999999999972
 20
84.266666666666666
 30
0.0
 11
39.996069549899516
 21
84.320479058299014
 31
0.0
  0
LINE
  5
EF3
  8
0
 10
48.407319516839749
 20
85.889462258532802
 30
0.0
 11
59.305493404262172
 21
85.889462258532802
 31
0.0
  0
ARC
  5
EF4
  8
0
 10
55.345272201291912
 20
25.030555555556361
 30
0.0
 40
60.987620686972569
 50
79.333272186624257
 51
86.276888331722176
  0
ARC
  5
EF5
  8
0
 10
52.367540719809647
 20
25.030555555559321
 30
0.0
 40
60.98762068696962
 50
93.723111668276189
 51
100.67005929617009
  0
POLYLINE
  5
EF6
  8
0
 66
     1
 10
0.0
 20
0.0
 30
0.0
  0
VERTEX
  5
29D3
  8
0
 10
66.633835121049174
 20
84.96433755089457
 30
0.0
  0
VERTEX
  5
29D4
  8
0
 10
66.780068800699382
 20
84.934758796263623
 30
0.0
  0
VERTEX
  5
29D5
  8
0
 10
67.050148872721081
 20
84.865757008808146
 30
0.0
  0
VERTEX
  5
29D6
  8
0
 10
67.274769017653853
 20
84.786512299877174
 30
0.0
  0
VERTEX
  5
29D7
  8
0
 10
67.454702868467621
 20
84.696366042952874
 30
0.0
  0
VERTEX
  5
29D8
  8
0
 10
67.58796327809074
 20
84.59592895074843
 30
0.0
  0
VERTEX
  5
29D9
  8
0
 10
67.652404315639274
 20
84.520960396141746
 30
0.0
  0
VERTEX
  5
29DA
  8
0
 10
67.694730698923195
 20
84.441128395907754
 30
0.0
  0
VERTEX
  5
29DB
  8
0
 10
67.714907266170485
 20
84.356309244594826
 30
0.0
  0
VERTEX
  5
29DC
  8
0
 10
67.716743371418033
 20
84.320486440279694
 30
0.0
  0
SEQEND
  5
29DD
  8
0
  0
LINE
  5
EFE
  8
1
 10
53.856406460550971
 20
47.00000000000005
 30
0.0
 11
53.856406460550943
 21
88.889462258532788
 31
0.0
  0
TEXT
  5
F61
  8
0
 62
     3
 10
0.0
 20
0.0
 30
0.0
 40
10.0
  1
TS32X10
  7
STANDARD1
  0
LINE
  5
21FC
  8
0
 10
133.60620563001439
 20
125.34296225853279
 30
0.0
 11
133.60620563001439
 21
130.11596225853279
 31
0.0
  0
LINE
  5
21FD
  8
0
 10
133.60620563001439
 20
130.11596225853279
 30
0.0
 11
132.9927056300144
 21
130.72946225853269
 31
0.0
  0
LINE
  5
21FE
  8
0
 10
132.9927056300144
 20
124.72946225853281
 30
0.0
 11
133.60620563001439
 21
125.34296225853279
 31
0.0
  0
LINE
  5
21FF
  8
0
 10
132.9927056300144
 20
124.72946225853281
 30
0.0
 11
132.9927056300144
 21
130.72946225853269
 31
0.0
  0
LINE
  5
2200
  8
0
 10
132.9927056300144
 20
130.72946225853269
 30
0.0
 11
123.6062056300144
 21
130.72946225853269
 31
0.0
  0
LINE
  5
2201
  8
0
 10
123.6062056300144
 20
124.72946225853281
 30
0.0
 11
132.9927056300144
 21
124.72946225853281
 31
0.0
  0
LINE
  5
2217
  8
3
 10
133.60620563001439
 20
125.34296225853279
 30
0.0
 11
124.6062056300144
 21
125.34296225853279
 31
0.0
  0
LINE
  5
2218
  8
3
 10
123.6062056300144
 20
124.72946225853281
 30
0.0
 11
124.6062056300144
 21
125.34296225853279
 31
0.0
  0
LINE
  5
2219
  8
0
 10
124.6062056300144
 20
124.72946225853281
 30
0.0
 11
124.6062056300144
 21
130.72946225853269
 31
0.0
  0
LINE
  5
221A
  8
3
 10
133.60620563001439
 20
130.11596225853279
 30
0.0
 11
124.6062056300144
 21
130.11596225853279
 31
0.0
  0
LINE
  5
221B
  8
3
 10
123.6062056300144
 20
130.72946225853269
 30
0.0
 11
124.6062056300144
 21
130.11596225853279
 31
0.0
  0
LINE
  5
2267
  8
0
 10
51.469906460550931
 20
50.000000000000057
 30
0.0
 11
56.242906460550898
 21
50.000000000000057
 31
0.0
  0
LINE
  5
2268
  8
0
 10
56.242906460550898
 20
50.000000000000057
 30
0.0
 11
56.85640646055095
 21
50.613500000000037
 31
0.0
  0
LINE
  5
2269
  8
0
 10
50.856406460550943
 20
50.613500000000037
 30
0.0
 11
51.469906460550931
 21
50.000000000000057
 31
0.0
  0
LINE
  5
226A
  8
0
 10
50.856406460550943
 20
50.613500000000037
 30
0.0
 11
56.85640646055095
 21
50.613500000000037
 31
0.0
  0
LINE
  5
226B
  8
0
 10
56.85640646055095
 20
50.613500000000037
 30
0.0
 11
56.85640646055095
 21
60.000000000000057
 31
0.0
  0
LINE
  5
226C
  8
0
 10
50.856406460550943
 20
60.000000000000057
 30
0.0
 11
50.856406460550943
 21
50.613500000000037
 31
0.0
  0
LINE
  5
226D
  8
3
 10
51.469906460550931
 20
50.000000000000057
 30
0.0
 11
51.469906460550931
 21
59.00000000000005
 31
0.0
  0
LINE
  5
226E
  8
3
 10
50.856406460550943
 20
60.000000000000057
 30
0.0
 11
51.469906460550931
 21
59.00000000000005
 31
0.0
  0
LINE
  5
226F
  8
0
 10
50.856406460550943
 20
59.00000000000005
 30
0.0
 11
56.85640646055095
 21
59.00000000000005
 31
0.0
  0
LINE
  5
2270
  8
3
 10
56.242906460550898
 20
50.000000000000057
 30
0.0
 11
56.242906460550898
 21
59.00000000000005
 31
0.0
  0
LINE
  5
2271
  8
3
 10
56.85640646055095
 20
60.000000000000057
 30
0.0
 11
56.242906460550898
 21
59.00000000000005
 31
0.0
  0
ENDSEC
  0
EOF
