  0
SECTION
  2
HEADER
  9
$ACADVER
  1
AC1009
  9
$INSBASE
 10
0.0
 20
0.0
 30
0.0
  9
$EXTMIN
 10
0.0
 20
-2.960436562073669
 30
0.0
  9
$EXTMAX
 10
99.645151765843764
 20
139.02560237898669
 30
0.0
  9
$LIMMIN
 10
0.0
 20
0.0
  9
$LIMMAX
 10
375.0
 20
270.0
  9
$ORTHOMODE
 70
     0
  9
$REGENMODE
 70
     1
  9
$FILLMODE
 70
     1
  9
$QTEXTMODE
 70
     0
  9
$MIRRTEXT
 70
     0
  9
$DRAGMODE
 70
     2
  9
$LTSCALE
 40
10.0
  9
$OSMODE
 70
    55
  9
$ATTMODE
 70
     1
  9
$TEXTSIZE
 40
2.0
  9
$TRACEWID
 40
0.05
  9
$TEXTSTYLE
  7
STANDARD
  9
$CLAYER
  8
0
  9
$CELTYPE
  6
BYLAYER
  9
$CECOLOR
 62
   256
  9
$DIMSCALE
 40
1.0
  9
$DIMASZ
 40
2.5
  9
$DIMEXO
 40
2.0
  9
$DIMDLI
 40
0.38
  9
$DIMRND
 40
0.0
  9
$DIMDLE
 40
0.0
  9
$DIMEXE
 40
2.0
  9
$DIMTP
 40
0.0
  9
$DIMTM
 40
0.0
  9
$DIMTXT
 40
3.0
  9
$DIMCEN
 40
0.09
  9
$DIMTSZ
 40
0.0
  9
$DIMTOL
 70
     0
  9
$DIMLIM
 70
     0
  9
$DIMTIH
 70
     0
  9
$DIMTOH
 70
     0
  9
$DIMSE1
 70
     0
  9
$DIMSE2
 70
     0
  9
$DIMTAD
 70
     1
  9
$DIMZIN
 70
     0
  9
$DIMBLK
  1

  9
$DIMASO
 70
     1
  9
$DIMSHO
 70
     0
  9
$DIMPOST
  1

  9
$DIMAPOST
  1

  9
$DIMALT
 70
     0
  9
$DIMALTD
 70
     2
  9
$DIMALTF
 40
25.399999999999999
  9
$DIMLFAC
 40
1.0
  9
$DIMTOFL
 70
     0
  9
$DIMTVP
 40
1.6000000000000001
  9
$DIMTIX
 70
     1
  9
$DIMSOXD
 70
     0
  9
$DIMSAH
 70
     0
  9
$DIMBLK1
  1

  9
$DIMBLK2
  1

  9
$DIMSTYLE
  2
STANDARD
  9
$DIMCLRD
 70
     0
  9
$DIMCLRE
 70
     0
  9
$DIMCLRT
 70
     0
  9
$DIMTFAC
 40
1.0
  9
$DIMGAP
 40
0.09
  9
$LUNITS
 70
     2
  9
$LUPREC
 70
     4
  9
$SKETCHINC
 40
0.1
  9
$FILLETRAD
 40
2.5
  9
$AUNITS
 70
     0
  9
$AUPREC
 70
     0
  9
$MENU
  1
E:\r13\win\SUPPORT\ACAD
  9
$ELEVATION
 40
0.0
  9
$PELEVATION
 40
0.0
  9
$THICKNESS
 40
0.0
  9
$LIMCHECK
 70
     0
  9
$BLIPMODE
 70
     0
  9
$CHAMFERA
 40
0.0
  9
$CHAMFERB
 40
0.0
  9
$SKPOLY
 70
     0
  9
$TDCREATE
 40
2448650.5678784722
  9
$TDUPDATE
 40
2456598.4459632868
  9
$TDINDWG
 40
0.024363669
  9
$TDUSRTIMER
 40
0.024363669
  9
$USRTIMER
 70
     1
  9
$ANGBASE
 50
0.0
  9
$ANGDIR
 70
     0
  9
$PDMODE
 70
     0
  9
$PDSIZE
 40
0.0
  9
$PLINEWID
 40
0.0
  9
$COORDS
 70
     1
  9
$SPLFRAME
 70
     0
  9
$SPLINETYPE
 70
     6
  9
$SPLINESEGS
 70
     8
  9
$ATTDIA
 70
     0
  9
$ATTREQ
 70
     1
  9
$HANDLING
 70
     1
  9
$HANDSEED
  5
8A0
  9
$SURFTAB1
 70
     6
  9
$SURFTAB2
 70
     6
  9
$SURFTYPE
 70
     6
  9
$SURFU
 70
     6
  9
$SURFV
 70
     6
  9
$UCSNAME
  2

  9
$UCSORG
 10
0.0
 20
0.0
 30
0.0
  9
$UCSXDIR
 10
1.0
 20
0.0
 30
0.0
  9
$UCSYDIR
 10
0.0
 20
1.0
 30
0.0
  9
$PUCSNAME
  2

  9
$PUCSORG
 10
0.0
 20
0.0
 30
0.0
  9
$PUCSXDIR
 10
1.0
 20
0.0
 30
0.0
  9
$PUCSYDIR
 10
0.0
 20
1.0
 30
0.0
  9
$USERI1
 70
     0
  9
$USERI2
 70
     1
  9
$USERI3
 70
     1
  9
$USERI4
 70
     0
  9
$USERI5
 70
     0
  9
$USERR1
 40
0.0
  9
$USERR2
 40
0.0
  9
$USERR3
 40
0.0
  9
$USERR4
 40
0.0
  9
$USERR5
 40
0.0
  9
$WORLDVIEW
 70
     1
  9
$SHADEDGE
 70
     3
  9
$SHADEDIF
 70
    70
  9
$TILEMODE
 70
     1
  9
$MAXACTVP
 70
    16
  9
$PLIMCHECK
 70
     0
  9
$PEXTMIN
 10
1.0000000000000000E+020
 20
1.0000000000000000E+020
 30
1.0000000000000000E+020
  9
$PEXTMAX
 10
-1.0000000000000000E+020
 20
-1.0000000000000000E+020
 30
-1.0000000000000000E+020
  9
$PLIMMIN
 10
0.0
 20
0.0
  9
$PLIMMAX
 10
12.0
 20
9.0
  9
$UNITMODE
 70
     0
  9
$VISRETAIN
 70
     0
  9
$PLINEGEN
 70
     1
  9
$PSLTSCALE
 70
     0
  0
ENDSEC
  0
SECTION
  2
TABLES
  0
TABLE
  2
VPORT
 70
     1
  0
VPORT
  2
*ACTIVE
 70
     0
 10
0.0
 20
0.0
 11
1.0
 21
1.0
 12
187.4942783906524
 22
197.0509055860143
 13
0.0
 23
0.0
 14
10.0
 24
10.0
 15
10.0
 25
10.0
 16
0.0
 26
0.0
 36
1.0
 17
0.0
 27
0.0
 37
0.0
 40
403.57315882993248
 41
1.7807262569832401
 42
50.0
 43
0.0
 44
0.0
 50
0.0
 51
0.0
 71
     0
 72
   500
 73
     1
 74
     0
 75
     0
 76
     0
 77
     0
 78
     2
  0
ENDTAB
  0
TABLE
  2
LTYPE
 70
     4
  0
LTYPE
  2
CONTINUOUS
 70
     0
  3
Solid Line
 72
    65
 73
     0
 40
0.0
  0
LTYPE
  2
CENTER
 70
     0
  3
____ _ ____ _ ____ _ ____ _ ____ _ ____ _ ____
 72
    65
 73
     4
 40
2.0
 49
1.25
 49
-0.25
 49
0.25
 49
-0.25
  0
LTYPE
  2
HIDDEN
 70
     0
  3
_ _ _ _ _ _ _ _ _ _ _ _ _ _ _ _ _ _ _ _ _ _ _
 72
    65
 73
     2
 40
0.375
 49
0.25
 49
-0.125
  0
LTYPE
  2
PHANTOM2
 70
     0
  3
___ _ _ ___ _ _ ___ _ _ ___ _ _
 72
    65
 73
     6
 40
1.25
 49
0.625
 49
-0.125
 49
0.125
 49
-0.125
 49
0.125
 49
-0.125
  0
ENDTAB
  0
TABLE
  2
LAYER
 70
     3
  0
LAYER
  2
0
 70
     0
 62
     7
  6
CONTINUOUS
  0
LAYER
  2
1
 70
     0
 62
     1
  6
CENTER
  0
LAYER
  2
2
 70
     0
 62
     2
  6
HIDDEN
  0
ENDTAB
  0
TABLE
  2
STYLE
 70
     2
  0
STYLE
  2
STANDARD
 70
     0
 40
0.0
 41
1.0
 50
0.0
 71
     0
 42
2.0
  3
TXT
  4
BIGFONT
  0
STYLE
  2
STANDARD1
 70
     0
 40
0.0
 41
1.0
 50
0.0
 71
     0
 42
3.0
  3
txt
  4

  0
ENDTAB
  0
TABLE
  2
VIEW
 70
     1
  0
VIEW
  2
ALL
 70
     0
 40
270.0
 10
220.99159663865549
 20
135.0
 41
0.0
 11
0.0
 21
0.0
 31
1.0
 12
0.0
 22
0.0
 32
0.0
 42
0.0
 43
0.0
 44
0.0
 50
0.0
 71
     0
  0
ENDTAB
  0
TABLE
  2
UCS
 70
     0
  0
ENDTAB
  0
TABLE
  2
APPID
 70
     7
  0
APPID
  2
ACAD
 70
     0
  0
APPID
  2
GENIUS_GENODEF_13
 70
     0
  0
APPID
  2
GENIUS_GENOBJ-N-CEN_13
 70
     0
  0
APPID
  2
GENIUS_GENCEN_19
 70
     0
  0
APPID
  2
GENIUS_GENOREF_13
 70
     0
  0
APPID
  2
ACAD_MLEADERVER
 70
     0
  0
APPID
  2
ACAD_NAV_VCDISPLAY
 70
     0
  0
ENDTAB
  0
TABLE
  2
DIMSTYLE
 70
     1
  0
DIMSTYLE
  2
STANDARD
 70
     0
  3

  4

  5

  6

  7

 40
1.0
 41
0.18
 42
0.0625
 43
0.38
 44
0.18
 45
0.0
 46
0.0
 47
0.0
 48
0.0
140
0.18
141
0.09
142
0.0
143
25.399999999999999
144
1.0
145
0.0
146
1.0
147
0.09
 71
     0
 72
     0
 73
     1
 74
     1
 75
     0
 76
     0
 77
     0
 78
     0
170
     0
171
     2
172
     0
173
     0
174
     0
175
     0
176
     0
177
     0
178
     0
  0
ENDTAB
  0
ENDSEC
  0
SECTION
  2
BLOCKS
  0
BLOCK
  8
0
  2
$MODEL_SPACE
 70
     0
 10
0.0
 20
0.0
 30
0.0
  3
$MODEL_SPACE
  1

  0
ENDBLK
  5
217
  8
0
  0
BLOCK
 67
     1
  8
0
  2
$PAPER_SPACE
 70
     0
 10
0.0
 20
0.0
 30
0.0
  3
$PAPER_SPACE
  1

  0
ENDBLK
  5
215
 67
     1
  8
0
  0
ENDSEC
  0
SECTION
  2
ENTITIES
  0
LINE
  5
6A4
  8
2
 10
81.016934169107614
 20
52.818167185513857
 30
0.0
 11
81.699934169107394
 21
52.135167185514028
 31
0.0
  0
LINE
  5
6A5
  8
2
 10
76.882934169107216
 20
52.818167185513801
 30
0.0
 11
81.016934169107614
 21
52.818167185513857
 31
0.0
  0
LINE
  5
6A6
  8
2
 10
76.199934169107507
 20
52.135167185514028
 30
0.0
 11
76.882934169107216
 21
52.818167185513801
 31
0.0
  0
LINE
  5
6A7
  8
2
 10
76.449934169107621
 20
61.635167185514327
 30
0.0
 11
76.882934169107443
 21
62.385145185191263
 31
0.0
  0
LINE
  5
6A8
  8
2
 10
81.449934169107451
 20
61.635167185514327
 30
0.0
 11
81.016934169107685
 21
62.385145185191263
 31
0.0
  0
LINE
  5
6A9
  8
2
 10
76.882934169107216
 20
65.135167185514319
 30
0.0
 11
81.016934169107685
 21
65.135167185514319
 31
0.0
  0
LINE
  5
6AA
  8
2
 10
76.449934169107451
 20
61.635167185514327
 30
0.0
 11
81.449934169107451
 21
61.635167185514327
 31
0.0
  0
LINE
  5
6AB
  8
2
 10
81.016934169107685
 20
65.135167185514319
 30
0.0
 11
78.949934169107451
 21
66.377146085044473
 31
0.0
  0
LINE
  5
6AC
  8
2
 10
76.882934169107216
 20
65.135167185514376
 30
0.0
 11
78.949934169107451
 21
66.377146085044444
 31
0.0
  0
LINE
  5
6AD
  8
2
 10
81.449934169107451
 20
52.385167185513978
 30
0.0
 11
81.449934169107451
 21
61.635167185514327
 31
0.0
  0
LINE
  5
6AE
  8
2
 10
81.016934169107685
 20
52.818167185513801
 30
0.0
 11
81.016934169107685
 21
65.135167185514319
 31
0.0
  0
LINE
  5
6AF
  8
2
 10
76.882934169107216
 20
52.818167185513801
 30
0.0
 11
76.882934169107216
 21
65.135167185514319
 31
0.0
  0
LINE
  5
6B0
  8
2
 10
76.449934169107451
 20
52.385167185513978
 30
0.0
 11
76.449934169107451
 21
61.635167185514327
 31
0.0
  0
LINE
  5
6B1
  8
0
 10
73.720101716087697
 20
51.635167185514028
 30
0.0
 11
72.949934169107451
 21
52.405334732494389
 31
0.0
  0
LINE
  5
6B2
  8
0
 10
72.949934169107451
 20
52.405334732494389
 30
0.0
 11
72.718178655224051
 21
61.255720741289281
 31
0.0
  0
LINE
  5
6B3
  8
0
 10
70.979916389713139
 20
63.186256567421133
 30
0.0
 11
67.570101716087834
 21
63.635167185514028
 31
0.0
  0
ARC
  5
6B4
  8
0
 10
70.718864005273076
 20
61.203366844673504
 30
0.0
 40
2.0000000000000022
 50
1.49999999999946
 51
82.500000000001222
  0
LINE
  5
6B5
  8
0
 10
65.456477805925545
 20
63.635167185514057
 30
0.0
 11
92.443390532289357
 21
63.635167185513978
 31
0.0
  0
ARC
  5
6B6
  8
0
 10
66.656477805925533
 20
69.708411419641919
 30
0.0
 40
2.0
 50
98.622302035870149
 51
180.0
  0
ARC
  5
6B7
  8
0
 10
91.243390532289354
 20
69.708411419641919
 30
0.0
 40
2.0
 50
0.0
 51
81.377697964129865
  0
ARC
  5
6B8
  8
0
 10
78.949934169107451
 20
-11.36483281448653
 30
0.0
 40
84.000000000000597
 50
81.377697964129865
 51
98.622302035870149
  0
ARC
  5
6B9
  8
0
 10
65.456477805925545
 20
64.435167185514075
 30
0.0
 40
0.8
 50
180.0
 51
270.0
  0
ARC
  5
6BA
  8
0
 10
92.443390532289357
 20
64.435167185513976
 30
0.0
 40
0.8
 50
270.0
 51
0.0
  0
LINE
  5
6BB
  8
0
 10
93.243390532289297
 20
69.708411419641919
 30
0.0
 11
93.243390532289368
 21
64.435167185513976
 31
0.0
  0
LINE
  5
6BC
  8
0
 10
64.656477805925533
 20
69.708411419641919
 30
0.0
 11
64.656477805925533
 21
64.435167185514075
 31
0.0
  0
LINE
  5
6BD
  8
2
 10
81.699934169107451
 20
52.135167185514028
 30
0.0
 11
76.199934169107507
 21
52.135167185514028
 31
0.0
  0
LINE
  5
6BE
  8
2
 10
76.199934169107451
 20
51.635167185514028
 30
0.0
 11
76.199934169107451
 21
52.135167185514028
 31
0.0
  0
LINE
  5
6BF
  8
2
 10
81.699934169107451
 20
52.135167185514028
 30
0.0
 11
81.699934169107451
 21
51.635167185514028
 31
0.0
  0
LINE
  5
6C0
  8
1
 10
78.949934169107451
 20
46.635167185514028
 30
0.0
 11
78.949934169107451
 21
77.635167185514064
 31
0.0
1001
GENIUS_GENODEF_13
1002
{
1000
HIER
1070
     0
1002
}
1002
{
1000
MANEDIT
1070
     0
1002
}
1002
{
1000
NOSEL
1070
     0
1002
}
1002
{
1000
BEHIND
1070
     0
1002
}
1002
{
1000
OTHER
1070
     0
1002
}
1002
{
1000
REACTOR
1002
}
1001
GENIUS_GENOBJ-N-CEN_13
1002
{
1000
OWNER
1000
GEN
1002
}
1001
GENIUS_GENCEN_19
1002
{
1040
3.0
1002
}
  0
ARC
  5
6C1
  8
0
 10
91.985309793666033
 20
75.401619842700313
 30
0.0
 40
4.5893430092772949
 50
259.39284183886502
 51
280.90192911686341
  0
LINE
  5
6C2
  8
0
 10
84.179766622127147
 20
51.635167185514028
 30
0.0
 11
73.72010171608764
 21
51.635167185514028
 31
0.0
  0
LINE
  5
6C3
  8
0
 10
72.949934169107394
 20
52.405334732494389
 30
0.0
 11
84.949934169107394
 21
52.405334732494389
 31
0.0
  0
ARC
  5
6C4
  8
0
 10
65.91455854454864
 20
75.401619842700313
 30
0.0
 40
4.5893430092772949
 50
259.09807088313983
 51
280.60715816112821
  0
ARC
  5
6C5
  8
0
 10
78.949934169107223
 20
-68.969723532511409
 30
0.0
 40
140.3906980976258
 50
85.018541392121534
 51
94.981458607878452
  0
LINE
  5
6C6
  8
0
 10
84.179766622127204
 20
51.635167185514028
 30
0.0
 11
84.949934169107451
 21
52.405334732494389
 31
0.0
  0
LINE
  5
6C7
  8
0
 10
84.949934169107451
 20
52.405334732494389
 30
0.0
 11
85.181689682990836
 21
61.255720741289281
 31
0.0
  0
ARC
  5
6C8
  8
0
 10
87.181004332941825
 20
61.203366844673504
 30
0.0
 40
2.0000000000000022
 50
97.499999999998764
 51
178.50000000000051
  0
LINE
  5
6C9
  8
0
 10
86.919951948501776
 20
63.186256567421133
 30
0.0
 11
90.329766622127067
 21
63.635167185514028
 31
0.0
  0
LINE
  5
6CA
  8
1
 10
78.949934169107451
 20
139.02560237898669
 30
0.0
 11
78.949934169107451
 21
97.635167185514064
 31
0.0
1001
GENIUS_GENOREF_13
1005
0
  0
LINE
  5
6CB
  8
1
 10
58.25471657237113
 20
118.33038478225031
 30
0.0
 11
99.645151765843764
 21
118.33038478225031
 31
0.0
1001
GENIUS_GENOREF_13
1005
0
  0
ARC
  5
6CC
  8
0
 10
64.629398819293897
 20
110.062419843096
 30
0.0
 40
28.67938272970343
 50
23.06942057759337
 51
36.930579422405039
  0
ARC
  5
6CD
  8
0
 10
67.918546733993523
 20
111.9614102770522
 30
0.0
 40
3.2620689280680022
 50
175.65687681856531
 51
244.34312318143481
  0
ARC
  5
6CE
  8
0
 10
93.323755464790125
 20
110.03165518790441
 30
0.0
 40
28.740463409460361
 50
156.91577817771039
 51
175.65628515905601
  0
ARC
  5
6CF
  8
0
 10
93.270469518921686
 20
110.0624198430955
 30
0.0
 40
28.679382729704479
 50
143.06942057759181
 51
156.93057942240659
  0
ARC
  5
6D0
  8
0
 10
78.949934169107451
 20
131.0683337926458
 30
0.0
 40
3.2620689280685791
 50
55.656876818573103
 51
124.3431231814269
  0
ARC
  5
6D1
  8
0
 10
64.576112873424563
 20
110.03165518790431
 30
0.0
 40
28.740463409460361
 50
36.91577817771347
 51
55.656285159056807
  0
ARC
  5
6D2
  8
0
 10
64.576112873424563
 20
110.03165518790431
 30
0.0
 40
28.740463409460389
 50
4.3437148409407751
 51
23.084221822289599
  0
ARC
  5
6D3
  8
0
 10
93.323755464790125
 20
110.03165518790441
 30
0.0
 40
28.740463409460361
 50
124.34371484094321
 51
143.08422182228651
  0
ARC
  5
6D4
  8
0
 10
78.949934169107451
 20
134.92784397094229
 30
0.0
 40
28.740463409460361
 50
276.91577817771372
 51
295.65628515905843
  0
ARC
  5
6D5
  8
0
 10
89.981321604222956
 20
111.9614102770512
 30
0.0
 40
3.262068928066419
 50
295.65687681854342
 51
4.3431231814543052
  0
ARC
  5
6D6
  8
0
 10
78.949934169107451
 20
134.92784397094229
 30
0.0
 40
28.740463409460361
 50
244.3437148409416
 51
263.08422182228628
  0
ARC
  5
6D7
  8
0
 10
78.949934169107451
 20
134.86631466055971
 30
0.0
 40
28.679382729704191
 50
263.06942057759591
 51
276.93057942240421
  0
TEXT
  5
80B
  8
0
 62
     3
 10
0.0
 20
0.0
 30
0.0
 40
10.0
  1
TK32-M5-SUS
  7
STANDARD1
  0
ENDSEC
  0
EOF
