  0
SECTION
  2
HEADER
  9
$ACADVER
  1
AC1009
  9
$INSBASE
 10
0.0
 20
0.0
 30
0.0
  9
$EXTMIN
 10
0.0
 20
-2.960436562073669
 30
0.0
  9
$EXTMAX
 10
323.00000000000477
 20
208.00000000000011
 30
0.0
  9
$LIMMIN
 10
0.0
 20
0.0
  9
$LIMMAX
 10
375.0
 20
270.0
  9
$ORTHOMODE
 70
     1
  9
$REGENMODE
 70
     1
  9
$FILLMODE
 70
     1
  9
$QTEXTMODE
 70
     0
  9
$MIRRTEXT
 70
     0
  9
$DRAGMODE
 70
     2
  9
$LTSCALE
 40
10.0
  9
$OSMODE
 70
    55
  9
$ATTMODE
 70
     1
  9
$TEXTSIZE
 40
5.0
  9
$TRACEWID
 40
0.05
  9
$TEXTSTYLE
  7
STANDARD
  9
$CLAYER
  8
0
  9
$CELTYPE
  6
BYLAYER
  9
$CECOLOR
 62
   256
  9
$DIMSCALE
 40
1.0
  9
$DIMASZ
 40
3.0
  9
$DIMEXO
 40
2.0
  9
$DIMDLI
 40
0.38
  9
$DIMRND
 40
0.0
  9
$DIMDLE
 40
0.0
  9
$DIMEXE
 40
2.0
  9
$DIMTP
 40
0.0
  9
$DIMTM
 40
0.0
  9
$DIMTXT
 40
3.2000000000000002
  9
$DIMCEN
 40
0.0
  9
$DIMTSZ
 40
0.0
  9
$DIMTOL
 70
     0
  9
$DIMLIM
 70
     0
  9
$DIMTIH
 70
     0
  9
$DIMTOH
 70
     0
  9
$DIMSE1
 70
     0
  9
$DIMSE2
 70
     0
  9
$DIMTAD
 70
     1
  9
$DIMZIN
 70
     0
  9
$DIMBLK
  1

  9
$DIMASO
 70
     0
  9
$DIMSHO
 70
     0
  9
$DIMPOST
  1

  9
$DIMAPOST
  1

  9
$DIMALT
 70
     0
  9
$DIMALTD
 70
     2
  9
$DIMALTF
 40
25.399999999999999
  9
$DIMLFAC
 40
1.0
  9
$DIMTOFL
 70
     1
  9
$DIMTVP
 40
1.6000000000000001
  9
$DIMTIX
 70
     1
  9
$DIMSOXD
 70
     0
  9
$DIMSAH
 70
     0
  9
$DIMBLK1
  1

  9
$DIMBLK2
  1

  9
$DIMSTYLE
  2
STANDARD
  9
$DIMCLRD
 70
     0
  9
$DIMCLRE
 70
     0
  9
$DIMCLRT
 70
     0
  9
$DIMTFAC
 40
1.0
  9
$DIMGAP
 40
0.09
  9
$LUNITS
 70
     2
  9
$LUPREC
 70
     4
  9
$SKETCHINC
 40
0.1
  9
$FILLETRAD
 40
0.0
  9
$AUNITS
 70
     0
  9
$AUPREC
 70
     4
  9
$MENU
  1
E:\r13\win\SUPPORT\ACAD
  9
$ELEVATION
 40
0.0
  9
$PELEVATION
 40
0.0
  9
$THICKNESS
 40
0.0
  9
$LIMCHECK
 70
     0
  9
$BLIPMODE
 70
     0
  9
$CHAMFERA
 40
0.0
  9
$CHAMFERB
 40
0.0
  9
$SKPOLY
 70
     0
  9
$TDCREATE
 40
2449839.7851504632
  9
$TDUPDATE
 40
2456598.438339306
  9
$TDINDWG
 40
0.0002171875
  9
$TDUSRTIMER
 40
0.0002171875
  9
$USRTIMER
 70
     1
  9
$ANGBASE
 50
0.0
  9
$ANGDIR
 70
     0
  9
$PDMODE
 70
     0
  9
$PDSIZE
 40
0.0
  9
$PLINEWID
 40
0.0
  9
$COORDS
 70
     1
  9
$SPLFRAME
 70
     0
  9
$SPLINETYPE
 70
     6
  9
$SPLINESEGS
 70
     8
  9
$ATTDIA
 70
     0
  9
$ATTREQ
 70
     1
  9
$HANDLING
 70
     1
  9
$HANDSEED
  5
29E
  9
$SURFTAB1
 70
     6
  9
$SURFTAB2
 70
     6
  9
$SURFTYPE
 70
     6
  9
$SURFU
 70
     6
  9
$SURFV
 70
     6
  9
$UCSNAME
  2

  9
$UCSORG
 10
0.0
 20
0.0
 30
0.0
  9
$UCSXDIR
 10
1.0
 20
0.0
 30
0.0
  9
$UCSYDIR
 10
0.0
 20
1.0
 30
0.0
  9
$PUCSNAME
  2

  9
$PUCSORG
 10
0.0
 20
0.0
 30
0.0
  9
$PUCSXDIR
 10
1.0
 20
0.0
 30
0.0
  9
$PUCSYDIR
 10
0.0
 20
1.0
 30
0.0
  9
$USERI1
 70
     0
  9
$USERI2
 70
     1
  9
$USERI3
 70
     0
  9
$USERI4
 70
     0
  9
$USERI5
 70
     0
  9
$USERR1
 40
0.0
  9
$USERR2
 40
0.0
  9
$USERR3
 40
0.0
  9
$USERR4
 40
0.0
  9
$USERR5
 40
0.0
  9
$WORLDVIEW
 70
     1
  9
$SHADEDGE
 70
     3
  9
$SHADEDIF
 70
    70
  9
$TILEMODE
 70
     1
  9
$MAXACTVP
 70
    16
  9
$PLIMCHECK
 70
     0
  9
$PEXTMIN
 10
1.0000000000000000E+020
 20
1.0000000000000000E+020
 30
1.0000000000000000E+020
  9
$PEXTMAX
 10
-1.0000000000000000E+020
 20
-1.0000000000000000E+020
 30
-1.0000000000000000E+020
  9
$PLIMMIN
 10
0.0
 20
0.0
  9
$PLIMMAX
 10
12.0
 20
9.0
  9
$UNITMODE
 70
     0
  9
$VISRETAIN
 70
     0
  9
$PLINEGEN
 70
     0
  9
$PSLTSCALE
 70
     0
  0
ENDSEC
  0
SECTION
  2
TABLES
  0
TABLE
  2
VPORT
 70
     1
  0
VPORT
  2
*ACTIVE
 70
     0
 10
0.0
 20
0.0
 11
1.0
 21
1.0
 12
187.4942783906524
 22
197.0509055860143
 13
0.0
 23
0.0
 14
10.0
 24
10.0
 15
10.0
 25
10.0
 16
0.0
 26
0.0
 36
1.0
 17
0.0
 27
0.0
 37
0.0
 40
403.57315882993248
 41
1.7807262569832401
 42
50.0
 43
0.0
 44
0.0
 50
0.0
 51
0.0
 71
     0
 72
   500
 73
     1
 74
     0
 75
     0
 76
     0
 77
     0
 78
     2
  0
ENDTAB
  0
TABLE
  2
LTYPE
 70
     4
  0
LTYPE
  2
CONTINUOUS
 70
     0
  3
Solid Line
 72
    65
 73
     0
 40
0.0
  0
LTYPE
  2
CENTER
 70
     0
  3
____ _ ____ _ ____ _ ____ _ ____ _ ____ _ ____
 72
    65
 73
     4
 40
2.0
 49
1.25
 49
-0.25
 49
0.25
 49
-0.25
  0
LTYPE
  2
HIDDEN
 70
     0
  3
_ _ _ _ _ _ _ _ _ _ _ _ _ _ _ _ _ _ _ _ _ _ _
 72
    65
 73
     2
 40
0.375
 49
0.25
 49
-0.125
  0
LTYPE
  2
PHANTOM2
 70
     0
  3
___ _ _ ___ _ _ ___ _ _ ___ _ _
 72
    65
 73
     6
 40
1.25
 49
0.625
 49
-0.125
 49
0.125
 49
-0.125
 49
0.125
 49
-0.125
  0
ENDTAB
  0
TABLE
  2
LAYER
 70
     3
  0
LAYER
  2
0
 70
     0
 62
     7
  6
CONTINUOUS
  0
LAYER
  2
1
 70
     0
 62
     1
  6
CENTER
  0
LAYER
  2
2
 70
     0
 62
     2
  6
HIDDEN
  0
ENDTAB
  0
TABLE
  2
STYLE
 70
     2
  0
STYLE
  2
STANDARD
 70
     0
 40
0.0
 41
1.0
 50
0.0
 71
     0
 42
5.0
  3
TXT
  4
BIGFONT
  0
STYLE
  2
STANDARD1
 70
     0
 40
0.0
 41
1.0
 50
0.0
 71
     0
 42
3.0
  3
txt
  4

  0
ENDTAB
  0
TABLE
  2
VIEW
 70
     1
  0
VIEW
  2
ALL
 70
     0
 40
270.0
 10
220.99159663865549
 20
135.0
 41
0.0
 11
0.0
 21
0.0
 31
1.0
 12
0.0
 22
0.0
 32
0.0
 42
0.0
 43
0.0
 44
0.0
 50
0.0
 71
     0
  0
ENDTAB
  0
TABLE
  2
UCS
 70
     0
  0
ENDTAB
  0
TABLE
  2
APPID
 70
     3
  0
APPID
  2
ACAD
 70
     0
  0
APPID
  2
ACAD_MLEADERVER
 70
     0
  0
APPID
  2
ACAD_NAV_VCDISPLAY
 70
     0
  0
ENDTAB
  0
TABLE
  2
DIMSTYLE
 70
     1
  0
DIMSTYLE
  2
STANDARD
 70
     0
  3

  4

  5

  6

  7

 40
1.0
 41
0.18
 42
0.0625
 43
0.38
 44
0.18
 45
0.0
 46
0.0
 47
0.0
 48
0.0
140
0.18
141
0.09
142
0.0
143
25.399999999999999
144
1.0
145
0.0
146
1.0
147
0.09
 71
     0
 72
     0
 73
     1
 74
     1
 75
     0
 76
     0
 77
     0
 78
     0
170
     0
171
     2
172
     0
173
     0
174
     0
175
     0
176
     0
177
     0
178
     0
  0
ENDTAB
  0
ENDSEC
  0
SECTION
  2
BLOCKS
  0
BLOCK
  8
0
  2
$MODEL_SPACE
 70
     0
 10
0.0
 20
0.0
 30
0.0
  3
$MODEL_SPACE
  1

  0
ENDBLK
  5
E6
  8
0
  0
BLOCK
 67
     1
  8
0
  2
$PAPER_SPACE
 70
     0
 10
0.0
 20
0.0
 30
0.0
  3
$PAPER_SPACE
  1

  0
ENDBLK
  5
E4
 67
     1
  8
0
  0
BLOCK
  8
0
  2
ELLIPSE
 70
     0
 10
0.0
 20
0.0
 30
0.0
  3
ELLIPSE
  1

  0
CIRCLE
  5
2C
  8
0
 10
0.5
 20
0.5
 30
0.0
 40
0.5
  0
ENDBLK
  5
2D
  8
0
  0
ENDSEC
  0
SECTION
  2
ENTITIES
  0
LINE
  5
39
  8
2
 10
187.0
 20
100.0
 30
0.0
 11
187.0
 21
70.0
 31
0.0
  0
LINE
  5
3A
  8
2
 10
187.0
 20
100.0
 30
0.0
 11
193.0
 21
100.0
 31
0.0
  0
LINE
  5
3B
  8
2
 10
187.0
 20
100.0
 30
0.0
 11
190.0
 21
101.8025818570827
 31
0.0
  0
ARC
  5
3C
  8
0
 10
190.0
 20
53.000000000000057
 30
0.0
 40
150.0
 50
73.605847530185144
 51
106.3941524698148
  0
ARC
  5
3D
  8
0
 10
190.0
 20
327.0
 30
0.0
 40
150.0
 50
253.60584753018509
 51
286.3941524698148
  0
ARC
  5
3E
  8
0
 10
230.30609999999999
 20
190.0
 30
0.0
 40
7.1939000000000002
 50
286.39415246981548
 51
73.60584753018496
  0
ARC
  5
3F
  8
0
 10
149.69390000000001
 20
190.0
 30
0.0
 40
7.1939000000000002
 50
106.3941524698152
 51
253.60584753018441
  0
LINE
  5
40
  8
1
 10
137.49999999999989
 20
189.99999997068051
 30
0.0
 11
242.5000000000006
 21
189.99999935496999
 31
0.0
  0
LINE
  5
41
  8
1
 10
190.0
 20
208.00000000000011
 30
0.0
 11
190.0
 21
172.0
 31
0.0
  0
ARC
  5
42
  8
0
 10
190.0
 20
29.999999999999972
 30
0.0
 40
90.0
 50
60.793949772842133
 51
119.20604673443169
  0
ARC
  5
43
  8
0
 10
190.0
 20
-59.566402432569532
 30
0.0
 40
160.0
 50
75.964976393925895
 51
84.352226084425055
  0
ARC
  5
44
  8
0
 10
230.49999999999989
 20
102.4482573979532
 30
0.0
 40
7.0
 50
255.9649763939257
 51
60.793929065965457
  0
LINE
  5
45
  8
0
 10
198.0
 20
70.0
 30
0.0
 11
199.0
 21
71.0
 31
0.0
  0
LINE
  5
46
  8
0
 10
199.0
 20
71.0
 30
0.0
 11
199.0
 21
88.999999999999957
 31
0.0
  0
LINE
  5
47
  8
0
 10
178.19999999999999
 20
88.999999999999943
 30
0.0
 11
201.80000000000001
 21
88.999999999999957
 31
0.0
  0
LINE
  5
48
  8
0
 10
203.0
 20
90.19999999999996
 30
0.0
 11
203.0000000000048
 21
97.169043462739992
 31
0.0
  0
ARC
  5
49
  8
0
 10
201.80000000000001
 20
90.19999999999996
 30
0.0
 40
1.1999999999999991
 50
270.0
 51
359.99999999999989
  0
ARC
  5
4A
  8
0
 10
205.50000000000011
 20
97.169043462739992
 30
0.0
 40
2.4999999999952611
 50
84.352226084425268
 51
180.0
  0
ARC
  5
4B
  8
0
 10
190.0
 20
93.514274993104976
 30
0.0
 40
14.48572500689497
 50
26.177038439023381
 51
153.82296156097661
  0
ARC
  5
4C
  8
0
 10
190.0
 20
-59.566402432569532
 30
0.0
 40
160.0
 50
95.64777391557493
 51
104.03502360607411
  0
ARC
  5
4D
  8
0
 10
174.49999999999989
 20
97.169043462739992
 30
0.0
 40
2.4999999999952611
 50
0.0
 51
95.647773915574732
  0
ARC
  5
4E
  8
0
 10
178.19999999999999
 20
90.19999999999996
 30
0.0
 40
1.1999999999999991
 50
180.00000000000011
 51
270.0
  0
LINE
  5
4F
  8
0
 10
177.0
 20
90.19999999999996
 30
0.0
 11
176.9999999999952
 21
97.169043462739992
 31
0.0
  0
LINE
  5
50
  8
0
 10
181.0
 20
71.0
 30
0.0
 11
181.0
 21
88.999999999999957
 31
0.0
  0
LINE
  5
51
  8
0
 10
182.0
 20
70.0
 30
0.0
 11
181.0
 21
71.0
 31
0.0
  0
ARC
  5
52
  8
0
 10
149.50000000000011
 20
102.4482573979532
 30
0.0
 40
7.0
 50
119.2060709340345
 51
284.03502360607439
  0
LINE
  5
53
  8
0
 10
182.0
 20
70.0
 30
0.0
 11
198.0
 21
70.0
 31
0.0
  0
LINE
  5
54
  8
0
 10
181.0
 20
71.0
 30
0.0
 11
199.0
 21
71.0
 31
0.0
  0
LINE
  5
55
  8
1
 10
190.0
 20
124.9999999999999
 30
0.0
 11
190.0
 21
65.0
 31
0.0
  0
ARC
  5
56
  8
1
 10
190.0
 20
-61.999999999999972
 30
0.0
 40
170.0
 50
72.117509340476616
 51
107.8824906595234
  0
LINE
  5
57
  8
1
 10
310.0
 20
124.9999999999999
 30
0.0
 11
310.0
 21
65.0
 31
0.0
  0
LINE
  5
58
  8
0
 10
301.0
 20
71.0
 30
0.0
 11
319.0
 21
71.0
 31
0.0
  0
LINE
  5
59
  8
0
 10
302.0
 20
70.0
 30
0.0
 11
318.0
 21
70.0
 31
0.0
  0
LINE
  5
5A
  8
0
 10
302.0
 20
70.0
 30
0.0
 11
301.0
 21
71.0
 31
0.0
  0
LINE
  5
5B
  8
0
 10
301.0
 20
71.0
 30
0.0
 11
301.0
 21
88.999999999999957
 31
0.0
  0
LINE
  5
5C
  8
0
 10
297.0
 20
90.19999999999996
 30
0.0
 11
296.99999999999523
 21
107.7241286989766
 31
0.0
  0
ARC
  5
5D
  8
0
 10
298.2000000000001
 20
90.19999999999996
 30
0.0
 40
1.1999999999999991
 50
180.00000000000011
 51
270.0
  0
ARC
  5
5E
  8
0
 10
321.80000000000001
 20
90.19999999999996
 30
0.0
 40
1.1999999999999991
 50
270.0
 51
359.99999999999989
  0
LINE
  5
5F
  8
0
 10
323.0
 20
90.19999999999996
 30
0.0
 11
323.00000000000477
 21
107.7241286989766
 31
0.0
  0
LINE
  5
60
  8
0
 10
298.2000000000001
 20
88.999999999999943
 30
0.0
 11
321.80000000000001
 21
88.999999999999957
 31
0.0
  0
LINE
  5
61
  8
0
 10
319.0
 20
71.0
 30
0.0
 11
319.0
 21
88.999999999999957
 31
0.0
  0
LINE
  5
62
  8
0
 10
318.0
 20
70.0
 30
0.0
 11
319.0
 21
71.0
 31
0.0
  0
INSERT
  5
63
  8
0
  2
ELLIPSE
 10
296.99999999999852
 20
95.448257397953228
 30
0.0
 41
26.000000000002899
 42
24.551742602046762
 43
26.000000000002899
  0
LINE
  5
64
  8
2
 10
193.0
 20
100.0
 30
0.0
 11
190.0
 21
101.8025818570827
 31
0.0
  0
LINE
  5
65
  8
2
 10
193.0
 20
100.0
 30
0.0
 11
193.0
 21
70.0
 31
0.0
  0
LINE
  5
6B
  8
2
 10
313.0
 20
100.0
 30
0.0
 11
313.0
 21
70.0
 31
0.0
  0
LINE
  5
6C
  8
2
 10
313.0
 20
100.0
 30
0.0
 11
310.0
 21
101.8025818570827
 31
0.0
  0
LINE
  5
6D
  8
2
 10
307.0
 20
100.0
 30
0.0
 11
310.0
 21
101.8025818570827
 31
0.0
  0
LINE
  5
6E
  8
2
 10
307.0
 20
100.0
 30
0.0
 11
313.0
 21
100.0
 31
0.0
  0
LINE
  5
6F
  8
2
 10
307.0
 20
100.0
 30
0.0
 11
307.0
 21
70.0
 31
0.0
  0
LINE
  5
70
  8
2
 10
73.0
 20
100.0
 30
0.0
 11
73.0
 21
70.0
 31
0.0
  0
LINE
  5
71
  8
2
 10
73.0
 20
100.0
 30
0.0
 11
67.0
 21
100.0
 31
0.0
  0
LINE
  5
72
  8
2
 10
73.0
 20
100.0
 30
0.0
 11
70.0
 21
101.8025818570827
 31
0.0
  0
LINE
  5
73
  8
2
 10
67.0
 20
100.0
 30
0.0
 11
70.0
 21
101.8025818570827
 31
0.0
  0
LINE
  5
74
  8
2
 10
67.0
 20
100.0
 30
0.0
 11
67.0
 21
70.0
 31
0.0
  0
INSERT
  5
75
  8
0
  2
ELLIPSE
 10
83.000000000001478
 20
95.448257397953228
 30
0.0
 41
-26.000000000002899
 42
24.551742602046762
 43
26.000000000002899
  0
LINE
  5
76
  8
0
 10
62.0
 20
70.0
 30
0.0
 11
61.0
 21
71.0
 31
0.0
  0
LINE
  5
77
  8
0
 10
61.0
 20
71.0
 30
0.0
 11
61.0
 21
88.999999999999957
 31
0.0
  0
LINE
  5
78
  8
0
 10
81.799999999999955
 20
88.999999999999943
 30
0.0
 11
58.199999999999989
 21
88.999999999999957
 31
0.0
  0
LINE
  5
79
  8
0
 10
57.0
 20
90.19999999999996
 30
0.0
 11
56.999999999995232
 21
107.7241286989766
 31
0.0
  0
ARC
  5
7A
  8
0
 10
58.199999999999989
 20
90.19999999999996
 30
0.0
 40
1.1999999999999991
 50
180.00000000000011
 51
270.00000000000011
  0
ARC
  5
7B
  8
0
 10
81.799999999999955
 20
90.19999999999996
 30
0.0
 40
1.1999999999999991
 50
270.00000000000011
 51
359.99999999999989
  0
LINE
  5
7C
  8
0
 10
83.0
 20
90.19999999999996
 30
0.0
 11
83.000000000004775
 21
107.7241286989766
 31
0.0
  0
LINE
  5
7D
  8
0
 10
79.0
 20
71.0
 30
0.0
 11
79.0
 21
88.999999999999957
 31
0.0
  0
LINE
  5
7E
  8
0
 10
78.0
 20
70.0
 30
0.0
 11
79.0
 21
71.0
 31
0.0
  0
LINE
  5
7F
  8
0
 10
78.0
 20
70.0
 30
0.0
 11
62.0
 21
70.0
 31
0.0
  0
LINE
  5
80
  8
0
 10
79.0
 20
71.0
 30
0.0
 11
61.0
 21
71.0
 31
0.0
  0
LINE
  5
81
  8
1
 10
69.999999999999943
 20
124.9999999999999
 30
0.0
 11
70.0
 21
65.0
 31
0.0
  0
TEXT
  5
209
  8
0
 62
     3
 10
0.0
 20
0.0
 30
0.0
 40
10.0
  1
TH95
  7
STANDARD1
  0
ENDSEC
  0
EOF
