  0
SECTION
  2
HEADER
  9
$ACADVER
  1
AC1009
  9
$INSBASE
 10
0.0
 20
0.0
 30
0.0
  9
$EXTMIN
 10
0.0
 20
-2.960436562073669
 30
0.0
  9
$EXTMAX
 10
72.960436562073653
 20
51.852148381079211
 30
0.0
  9
$LIMMIN
 10
0.0
 20
0.0
  9
$LIMMAX
 10
192.5
 20
135.0
  9
$ORTHOMODE
 70
     1
  9
$REGENMODE
 70
     1
  9
$FILLMODE
 70
     1
  9
$QTEXTMODE
 70
     0
  9
$MIRRTEXT
 70
     0
  9
$DRAGMODE
 70
     2
  9
$LTSCALE
 40
5.0
  9
$OSMODE
 70
  3071
  9
$ATTMODE
 70
     1
  9
$TEXTSIZE
 40
1.6000000000000489
  9
$TRACEWID
 40
0.05
  9
$TEXTSTYLE
  7
STANDARD
  9
$CLAYER
  8
0
  9
$CELTYPE
  6
BYLAYER
  9
$CECOLOR
 62
   256
  9
$DIMSCALE
 40
0.5
  9
$DIMASZ
 40
3.0
  9
$DIMEXO
 40
2.0
  9
$DIMDLI
 40
0.38
  9
$DIMRND
 40
0.0
  9
$DIMDLE
 40
0.0
  9
$DIMEXE
 40
2.0
  9
$DIMTP
 40
0.0
  9
$DIMTM
 40
0.0
  9
$DIMTXT
 40
3.0
  9
$DIMCEN
 40
0.0
  9
$DIMTSZ
 40
0.0
  9
$DIMTOL
 70
     0
  9
$DIMLIM
 70
     0
  9
$DIMTIH
 70
     0
  9
$DIMTOH
 70
     0
  9
$DIMSE1
 70
     0
  9
$DIMSE2
 70
     0
  9
$DIMTAD
 70
     1
  9
$DIMZIN
 70
     0
  9
$DIMBLK
  1

  9
$DIMASO
 70
     0
  9
$DIMSHO
 70
     0
  9
$DIMPOST
  1

  9
$DIMAPOST
  1

  9
$DIMALT
 70
     0
  9
$DIMALTD
 70
     2
  9
$DIMALTF
 40
25.399999999999999
  9
$DIMLFAC
 40
1.0
  9
$DIMTOFL
 70
     1
  9
$DIMTVP
 40
1.6000000000000001
  9
$DIMTIX
 70
     1
  9
$DIMSOXD
 70
     0
  9
$DIMSAH
 70
     0
  9
$DIMBLK1
  1

  9
$DIMBLK2
  1

  9
$DIMSTYLE
  2
STANDARD
  9
$DIMCLRD
 70
     0
  9
$DIMCLRE
 70
     0
  9
$DIMCLRT
 70
     0
  9
$DIMTFAC
 40
1.0
  9
$DIMGAP
 40
0.09
  9
$LUNITS
 70
     2
  9
$LUPREC
 70
     1
  9
$SKETCHINC
 40
0.1
  9
$FILLETRAD
 40
0.4
  9
$AUNITS
 70
     0
  9
$AUPREC
 70
     1
  9
$MENU
  1
E:\r13\win\SUPPORT\ACAD
  9
$ELEVATION
 40
0.0
  9
$PELEVATION
 40
0.0
  9
$THICKNESS
 40
0.0
  9
$LIMCHECK
 70
     0
  9
$BLIPMODE
 70
     0
  9
$CHAMFERA
 40
0.0
  9
$CHAMFERB
 40
0.0
  9
$SKPOLY
 70
     0
  9
$TDCREATE
 40
2448328.489641204
  9
$TDUPDATE
 40
2456602.6144756372
  9
$TDINDWG
 40
0.5565187731
  9
$TDUSRTIMER
 40
2456598.3380186581
  9
$USRTIMER
 70
     1
  9
$ANGBASE
 50
0.0
  9
$ANGDIR
 70
     0
  9
$PDMODE
 70
    35
  9
$PDSIZE
 40
0.0
  9
$PLINEWID
 40
0.0
  9
$COORDS
 70
     1
  9
$SPLFRAME
 70
     0
  9
$SPLINETYPE
 70
     6
  9
$SPLINESEGS
 70
     8
  9
$ATTDIA
 70
     0
  9
$ATTREQ
 70
     1
  9
$HANDLING
 70
     1
  9
$HANDSEED
  5
DC5
  9
$SURFTAB1
 70
     6
  9
$SURFTAB2
 70
     6
  9
$SURFTYPE
 70
     6
  9
$SURFU
 70
     6
  9
$SURFV
 70
     6
  9
$UCSNAME
  2

  9
$UCSORG
 10
0.0
 20
0.0
 30
0.0
  9
$UCSXDIR
 10
1.0
 20
0.0
 30
0.0
  9
$UCSYDIR
 10
0.0
 20
1.0
 30
0.0
  9
$PUCSNAME
  2

  9
$PUCSORG
 10
0.0
 20
0.0
 30
0.0
  9
$PUCSXDIR
 10
1.0
 20
0.0
 30
0.0
  9
$PUCSYDIR
 10
0.0
 20
1.0
 30
0.0
  9
$USERI1
 70
     3
  9
$USERI2
 70
     1
  9
$USERI3
 70
     1
  9
$USERI4
 70
     0
  9
$USERI5
 70
     0
  9
$USERR1
 40
0.5
  9
$USERR2
 40
3.0
  9
$USERR3
 40
3.0
  9
$USERR4
 40
3.0
  9
$USERR5
 40
10.0
  9
$WORLDVIEW
 70
     1
  9
$SHADEDGE
 70
     3
  9
$SHADEDIF
 70
    70
  9
$TILEMODE
 70
     1
  9
$MAXACTVP
 70
    16
  9
$PLIMCHECK
 70
     0
  9
$PEXTMIN
 10
1.0000000000000000E+020
 20
1.0000000000000000E+020
 30
1.0000000000000000E+020
  9
$PEXTMAX
 10
-1.0000000000000000E+020
 20
-1.0000000000000000E+020
 30
-1.0000000000000000E+020
  9
$PLIMMIN
 10
0.0
 20
0.0
  9
$PLIMMAX
 10
12.0
 20
9.0
  9
$UNITMODE
 70
     0
  9
$VISRETAIN
 70
     0
  9
$PLINEGEN
 70
     1
  9
$PSLTSCALE
 70
     0
  0
ENDSEC
  0
SECTION
  2
TABLES
  0
TABLE
  2
VPORT
 70
     1
  0
VPORT
  2
*ACTIVE
 70
     0
 10
0.0
 20
0.0
 11
1.0
 21
1.0
 12
96.247062907201567
 22
95.281589084287575
 13
0.0
 23
0.0
 14
2.5
 24
2.5
 15
5.0
 25
5.0
 16
0.0
 26
0.0
 36
1.0
 17
0.0
 27
0.0
 37
0.0
 40
198.284298069551
 41
1.831871345029239
 42
50.0
 43
0.0
 44
0.0
 50
0.0
 51
0.0
 71
     0
 72
   500
 73
     1
 74
     0
 75
     0
 76
     0
 77
     0
 78
     2
  0
ENDTAB
  0
TABLE
  2
LTYPE
 70
     4
  0
LTYPE
  2
CONTINUOUS
 70
     0
  3
Solid Line
 72
    65
 73
     0
 40
0.0
  0
LTYPE
  2
CENTER
 70
     0
  3
____ _ ____ _ ____ _ ____ _ ____ _ ____ _ ____
 72
    65
 73
     4
 40
2.0
 49
1.25
 49
-0.25
 49
0.25
 49
-0.25
  0
LTYPE
  2
HIDDEN
 70
     0
  3
_ _ _ _ _ _ _ _ _ _ _ _ _ _ _ _ _ _ _ _ _ _ _
 72
    65
 73
     2
 40
0.375
 49
0.25
 49
-0.125
  0
LTYPE
  2
PHANTOM2
 70
     0
  3
___ _ _ ___ _ _ ___ _ _ ___ _ _
 72
    65
 73
     6
 40
1.25
 49
0.625
 49
-0.125
 49
0.125
 49
-0.125
 49
0.125
 49
-0.125
  0
ENDTAB
  0
TABLE
  2
LAYER
 70
     4
  0
LAYER
  2
0
 70
     0
 62
     7
  6
CONTINUOUS
  0
LAYER
  2
1
 70
     0
 62
     1
  6
CENTER
  0
LAYER
  2
3
 70
     0
 62
     3
  6
CONTINUOUS
  0
LAYER
  2
2
 70
     0
 62
     2
  6
HIDDEN
  0
ENDTAB
  0
TABLE
  2
STYLE
 70
     2
  0
STYLE
  2
STANDARD
 70
     0
 40
0.0
 41
1.0
 50
0.0
 71
     0
 42
1.6000000000000489
  3
SIMPLEX
  4
BIGFONT
  0
STYLE
  2
STANDARD1
 70
     0
 40
0.0
 41
1.0
 50
0.0
 71
     0
 42
3.0
  3
txt
  4

  0
ENDTAB
  0
TABLE
  2
VIEW
 70
     1
  0
VIEW
  2
ALL
 70
     0
 40
87.5
 10
71.617647058823522
 20
43.75
 41
0.0
 11
0.0
 21
0.0
 31
1.0
 12
0.0
 22
0.0
 32
0.0
 42
0.0
 43
0.0
 44
0.0
 50
0.0
 71
     0
  0
ENDTAB
  0
TABLE
  2
UCS
 70
     0
  0
ENDTAB
  0
TABLE
  2
APPID
 70
     6
  0
APPID
  2
ACAD
 70
     0
  0
APPID
  2
ACAD_EXEMPT_FROM_CAD_STANDARDS
 70
     0
  0
APPID
  2
ACAD_DSTYLE_DIMJAG
 70
     0
  0
APPID
  2
ACAD_DSTYLE_DIMTALN
 70
     0
  0
APPID
  2
ACAD_MLEADERVER
 70
     0
  0
APPID
  2
ACAD_NAV_VCDISPLAY
 70
     0
  0
ENDTAB
  0
TABLE
  2
DIMSTYLE
 70
     1
  0
DIMSTYLE
  2
STANDARD
 70
     0
  3

  4

  5

  6

  7

 40
1.0
 41
0.18
 42
0.0625
 43
0.38
 44
0.18
 45
0.0
 46
0.0
 47
0.0
 48
0.0
140
0.18
141
0.09
142
0.0
143
25.399999999999999
144
1.0
145
0.0
146
1.0
147
0.09
 71
     0
 72
     0
 73
     1
 74
     1
 75
     0
 76
     0
 77
     0
 78
     0
170
     0
171
     2
172
     0
173
     0
174
     0
175
     0
176
     0
177
     0
178
     0
  0
ENDTAB
  0
ENDSEC
  0
SECTION
  2
BLOCKS
  0
BLOCK
  8
0
  2
$MODEL_SPACE
 70
     0
 10
0.0
 20
0.0
 30
0.0
  3
$MODEL_SPACE
  1

  0
ENDBLK
  5
A50
  8
0
  0
BLOCK
 67
     1
  8
0
  2
$PAPER_SPACE
 70
     0
 10
0.0
 20
0.0
 30
0.0
  3
$PAPER_SPACE
  1

  0
ENDBLK
  5
A4E
 67
     1
  8
0
  0
ENDSEC
  0
SECTION
  2
ENTITIES
  0
LINE
  5
AEC
  8
0
 10
30.486872727155031
 20
31.252148381079209
 30
0.0
 11
30.486872727155031
 21
27.607585734541189
 31
0.0
  0
LINE
  5
AED
  8
0
 10
30.833282888668801
 20
31.852148381079211
 30
0.0
 11
30.486872727155031
 21
31.252148381079209
 31
0.0
  0
LINE
  5
AEE
  8
2
 10
32.865872727155022
 20
27.031148381079209
 30
0.0
 11
32.486872727155003
 21
26.652148381079201
 31
0.0
  0
LINE
  5
AEF
  8
2
 10
36.48687272715501
 20
26.652148381079201
 30
0.0
 11
36.107872727154977
 21
27.031148381079209
 31
0.0
  0
LINE
  5
AF0
  8
2
 10
32.865872727155022
 20
31.473148381079199
 30
0.0
 11
32.865872727155022
 21
27.031148381079209
 31
0.0
  0
LINE
  5
AF1
  8
2
 10
36.107872727154977
 20
27.031148381079209
 30
0.0
 11
36.107872727154977
 21
31.473148381079199
 31
0.0
  0
LINE
  5
AF2
  8
2
 10
32.486872727155003
 20
31.852148381079211
 30
0.0
 11
32.865872727155022
 21
31.473148381079199
 31
0.0
  0
LINE
  5
AF3
  8
2
 10
36.107872727154977
 20
31.473148381079199
 30
0.0
 11
36.48687272715501
 21
31.852148381079211
 31
0.0
  0
LINE
  5
AF4
  8
0
 10
38.486872727155031
 20
31.252148381079209
 30
0.0
 11
38.140462565641258
 21
31.852148381079211
 31
0.0
  0
LINE
  5
AF5
  8
0
 10
38.486872727155031
 20
27.607585734541189
 30
0.0
 11
38.486872727155031
 21
31.252148381079209
 31
0.0
  0
ARC
  5
AF6
  8
0
 10
34.486872727155031
 20
33.352148381079189
 30
0.0
 40
7.000000000000024
 50
286.83498067322398
 51
304.84990457904649
  0
ARC
  5
AF7
  8
0
 10
34.486872727155003
 20
33.352148381079147
 30
0.0
 40
6.9999999999999698
 50
235.15009542095271
 51
253.16501932677591
  0
LINE
  5
AF8
  8
0
 10
32.550381054051321
 20
31.252148381079209
 30
0.0
 11
30.486872727155031
 21
31.252148381079209
 31
0.0
  0
LINE
  5
AFA
  8
2
 10
32.865872727155022
 20
27.031148381079209
 30
0.0
 11
36.107872727154977
 21
27.031148381079209
 31
0.0
  0
LINE
  5
AFC
  8
2
 10
32.865872727155022
 20
31.473148381079199
 30
0.0
 11
36.107872727154977
 21
31.473148381079199
 31
0.0
  0
LINE
  5
AFD
  8
0
 10
32.550381054051343
 20
27.607585734541189
 30
0.0
 11
32.550381054051343
 21
31.252148381079209
 31
0.0
  0
LINE
  5
B00
  8
0
 10
30.833282888668801
 20
31.852148381079211
 30
0.0
 11
38.140462565641258
 21
31.852148381079211
 31
0.0
  0
LINE
  5
B01
  8
0
 10
36.42336440025872
 20
31.252148381079209
 30
0.0
 11
36.42336440025872
 21
27.607585734541189
 31
0.0
  0
LINE
  5
B02
  8
0
 10
36.423364400258748
 20
31.252148381079209
 30
0.0
 11
38.486872727155031
 21
31.252148381079209
 31
0.0
  0
LINE
  5
B03
  8
0
 10
30.486872727155031
 20
27.607585734541189
 30
0.0
 11
32.550381054051343
 21
27.607585734541189
 31
0.0
  0
ARC
  5
B04
  8
0
 10
34.486872727155031
 20
33.352148381079203
 30
0.0
 40
6.0621778264911148
 50
251.3710419993443
 51
288.6289580006557
  0
LINE
  5
B05
  8
0
 10
36.42336440025872
 20
27.607585734541189
 30
0.0
 11
38.486872727155031
 21
27.607585734541189
 31
0.0
  0
LINE
  5
B06
  8
0
 10
32.459559233883709
 20
26.652148381079201
 30
0.0
 11
36.51418622042636
 21
26.652148381079201
 31
0.0
  0
ARC
  5
B2C
  8
0
 10
34.486872727155031
 20
45.352148381079203
 30
0.0
 40
3.999999999999992
 50
118.9550243718592
 51
241.0449756281408
  0
LINE
  5
B2D
  8
0
 10
36.423364400258748
 20
48.852148381079203
 30
0.0
 11
32.550381054051321
 21
48.852148381079203
 31
0.0
  0
ARC
  5
B2E
  8
0
 10
34.486872727155031
 20
45.352148381079203
 30
0.0
 40
3.999999999999992
 50
298.95502437185928
 51
61.044975628140769
  0
LINE
  5
B30
  8
0
 10
32.550381054051321
 20
41.852148381079203
 30
0.0
 11
36.423364400258748
 21
41.852148381079203
 31
0.0
  0
LINE
  5
B59
  8
2
 10
53.307872727155001
 20
43.731148381079159
 30
0.0
 11
53.686872727154963
 21
43.352148381079168
 31
0.0
  0
LINE
  5
B5A
  8
2
 10
53.686872727154963
 20
47.352148381079168
 30
0.0
 11
53.307872727155001
 21
46.973148381079177
 31
0.0
  0
LINE
  5
B5B
  8
2
 10
48.86587272715505
 20
43.731148381079159
 30
0.0
 11
53.307872727155001
 21
43.731148381079159
 31
0.0
  0
LINE
  5
B5C
  8
2
 10
53.307872727155001
 20
46.973148381079177
 30
0.0
 11
48.86587272715505
 21
46.973148381079177
 31
0.0
  0
LINE
  5
B5D
  8
2
 10
48.486872727155031
 20
43.352148381079168
 30
0.0
 11
48.86587272715505
 21
43.731148381079159
 31
0.0
  0
LINE
  5
B5E
  8
2
 10
48.86587272715505
 20
46.973148381079177
 30
0.0
 11
48.486872727155031
 21
47.352148381079168
 31
0.0
  0
ARC
  5
B5F
  8
0
 10
46.986872727155138
 20
45.352148381079203
 30
0.0
 40
6.9999999999999316
 50
16.834980673222312
 51
30.000000000000181
  0
ARC
  5
B60
  8
0
 10
46.986872727155138
 20
45.352148381079139
 30
0.0
 40
6.9999999999999343
 50
329.99999999999977
 51
343.16501932677772
  0
LINE
  5
B62
  8
2
 10
53.307872727155001
 20
43.731148381079159
 30
0.0
 11
53.307872727155001
 21
46.973148381079177
 31
0.0
  0
LINE
  5
B64
  8
2
 10
48.86587272715505
 20
43.731148381079159
 30
0.0
 11
48.86587272715505
 21
46.973148381079177
 31
0.0
  0
LINE
  5
B67
  8
0
 10
48.486872727155031
 20
48.852148381079168
 30
0.0
 11
48.486872727155031
 21
41.852148381079168
 31
0.0
  0
LINE
  5
B68
  8
0
 10
48.486872727155003
 20
41.852148381079189
 30
0.0
 11
53.049050553646133
 21
41.852148381079168
 31
0.0
  0
LINE
  5
B69
  8
0
 10
49.086872727155047
 20
48.852148381079168
 30
0.0
 11
49.086872727155047
 21
41.852148381079168
 31
0.0
  0
LINE
  5
B6A
  8
0
 10
52.731435373693039
 20
48.852148381079168
 30
0.0
 11
52.731435373693039
 21
41.852148381079168
 31
0.0
  0
LINE
  5
B6B
  8
0
 10
53.68687272715502
 20
43.324834887807853
 30
0.0
 11
53.68687272715502
 21
47.37946187435049
 31
0.0
  0
LINE
  5
B6C
  8
0
 10
48.486872727155003
 20
48.852148381079168
 30
0.0
 11
53.049050553646133
 21
48.852148381079168
 31
0.0
  0
LINE
  5
C16
  8
0
 10
35.535070565299037
 20
31.852148381079211
 30
0.0
 11
35.558806720277921
 21
31.840231150603412
 31
0.0
  0
LINE
  5
C17
  8
0
 10
35.558806720277921
 20
31.840231150603412
 30
0.0
 11
35.606390482012763
 21
31.815608096465439
 31
0.0
  0
LINE
  5
C18
  8
0
 10
35.606390482012763
 20
31.815608096465439
 30
0.0
 11
35.654132581092831
 21
31.78993013074448
 31
0.0
  0
LINE
  5
C19
  8
0
 10
35.654132581092831
 20
31.78993013074448
 30
0.0
 11
35.67806666953507
 21
31.776694138855991
 31
0.0
  0
LINE
  5
C1A
  8
0
 10
35.67806666953507
 20
31.776694138855991
 30
0.0
 11
35.702044744320688
 21
31.763192653224781
 31
0.0
  0
LINE
  5
C1B
  8
0
 10
35.702044744320688
 20
31.763192653224781
 30
0.0
 11
35.750138758447271
 21
31.735390541072722
 31
0.0
  0
LINE
  5
C1C
  8
0
 10
35.750138758447271
 20
31.735390541072722
 30
0.0
 11
35.798426479893948
 21
31.706518145859139
 31
0.0
  0
LINE
  5
C1D
  8
0
 10
35.798426479893948
 20
31.706518145859139
 30
0.0
 11
35.846919844534831
 21
31.676569289929802
 31
0.0
  0
LINE
  5
C1E
  8
0
 10
35.846919844534831
 20
31.676569289929802
 30
0.0
 11
35.895630877556982
 21
31.645537262119401
 31
0.0
  0
LINE
  5
C1F
  8
0
 10
35.895630877556982
 20
31.645537262119401
 30
0.0
 11
35.944571703415278
 21
31.613414812803171
 31
0.0
  0
LINE
  5
C20
  8
0
 10
35.944571703415278
 20
31.613414812803171
 30
0.0
 11
35.969132107168548
 21
31.596942265968831
 31
0.0
  0
LINE
  5
C21
  8
0
 10
35.969132107168548
 20
31.596942265968831
 30
0.0
 11
35.993754555899557
 21
31.580194148278451
 31
0.0
  0
LINE
  5
C22
  8
0
 10
35.993754555899557
 20
31.580194148278451
 30
0.0
 11
36.043191788331491
 21
31.545866924467319
 31
0.0
  0
LINE
  5
C23
  8
0
 10
36.043191788331491
 20
31.545866924467319
 30
0.0
 11
36.092895883908788
 21
31.510424239929449
 31
0.0
  0
LINE
  5
C24
  8
0
 10
36.092895883908788
 20
31.510424239929449
 30
0.0
 11
36.26914541151541
 21
31.377448718893898
 31
0.0
  0
LINE
  5
C25
  8
0
 10
36.26914541151541
 20
31.377448718893898
 30
0.0
 11
36.423364400258748
 21
31.252148381079209
 31
0.0
  0
LINE
  5
C26
  8
0
 10
32.550381054051321
 20
31.252148381079209
 30
0.0
 11
32.704600042794659
 21
31.377448718893898
 31
0.0
  0
LINE
  5
C27
  8
0
 10
32.704600042794659
 20
31.377448718893898
 30
0.0
 11
32.880849570401267
 21
31.510424239929449
 31
0.0
  0
LINE
  5
C28
  8
0
 10
32.880849570401267
 20
31.510424239929449
 30
0.0
 11
32.930553665978579
 21
31.545866924467319
 31
0.0
  0
LINE
  5
C29
  8
0
 10
32.930553665978579
 20
31.545866924467319
 30
0.0
 11
32.979990898410513
 21
31.580194148278451
 31
0.0
  0
LINE
  5
C2A
  8
0
 10
32.979990898410513
 20
31.580194148278451
 30
0.0
 11
33.004613347141522
 21
31.596942265968831
 31
0.0
  0
LINE
  5
C2B
  8
0
 10
33.004613347141522
 20
31.596942265968831
 30
0.0
 11
33.029173750894778
 21
31.613414812803171
 31
0.0
  0
LINE
  5
C2C
  8
0
 10
33.029173750894778
 20
31.613414812803171
 30
0.0
 11
33.07811457675308
 21
31.645537262119401
 31
0.0
  0
LINE
  5
C2D
  8
0
 10
33.07811457675308
 20
31.645537262119401
 30
0.0
 11
33.126825609775238
 21
31.676569289929802
 31
0.0
  0
LINE
  5
C2E
  8
0
 10
33.126825609775238
 20
31.676569289929802
 30
0.0
 11
33.175318974416108
 21
31.706518145859139
 31
0.0
  0
LINE
  5
C2F
  8
0
 10
33.175318974416108
 20
31.706518145859139
 30
0.0
 11
33.223606695862799
 21
31.735390541072722
 31
0.0
  0
LINE
  5
C30
  8
0
 10
33.223606695862799
 20
31.735390541072722
 30
0.0
 11
33.271700709989382
 21
31.763192653224781
 31
0.0
  0
LINE
  5
C31
  8
0
 10
33.271700709989382
 20
31.763192653224781
 30
0.0
 11
33.295678784774999
 21
31.776694138855991
 31
0.0
  0
LINE
  5
C32
  8
0
 10
33.295678784774999
 20
31.776694138855991
 30
0.0
 11
33.319612873217238
 21
31.78993013074448
 31
0.0
  0
LINE
  5
C33
  8
0
 10
33.319612873217238
 20
31.78993013074448
 30
0.0
 11
33.367354972297314
 21
31.815608096465439
 31
0.0
  0
LINE
  5
C34
  8
0
 10
33.367354972297314
 20
31.815608096465439
 30
0.0
 11
33.414938734032148
 21
31.840231150603412
 31
0.0
  0
LINE
  5
C35
  8
0
 10
33.414938734032148
 20
31.840231150603412
 30
0.0
 11
33.438674889011033
 21
31.852148381079211
 31
0.0
  0
CIRCLE
  5
C4D
  8
0
 10
34.486872727155031
 20
45.352148381079203
 30
0.0
 40
1.6209999999999991
  0
CIRCLE
  5
C4E
  8
3
 10
34.486872727155031
 20
45.352148381079203
 30
0.0
 40
2.0
  0
LINE
  5
C60
  8
2
 10
32.486872727155003
 20
31.852148381079211
 30
0.0
 11
32.486872727155003
 21
26.652148381079201
 31
0.0
  0
LINE
  5
C61
  8
2
 10
36.486872727155031
 20
31.852148381079228
 30
0.0
 11
36.486872727155031
 21
26.652148381079169
 31
0.0
  0
LINE
  5
C94
  8
2
 10
53.68687272715502
 20
47.352148381079232
 30
0.0
 11
48.486872727155003
 21
47.352148381079211
 31
0.0
  0
LINE
  5
C95
  8
2
 10
53.68687272715502
 20
43.352148381079111
 30
0.0
 11
48.486872727155003
 21
43.352148381079132
 31
0.0
  0
LINE
  5
C96
  8
1
 10
56.686872727155013
 20
45.352148381079203
 30
0.0
 11
45.486872727155031
 21
45.352148381079203
 31
0.0
  0
LINE
  5
C97
  8
1
 10
34.486872727155003
 20
51.852148381079211
 30
0.0
 11
34.486872727155003
 21
38.852148381079203
 31
0.0
  0
LINE
  5
CA1
  8
1
 10
34.486872727155003
 20
34.852148381079203
 30
0.0
 11
34.486872727155003
 21
23.652148381079201
 31
0.0
  0
LINE
  5
CA2
  8
1
 10
41.486872727155031
 20
45.352148381079203
 30
0.0
 11
27.486872727155031
 21
45.352148381079203
 31
0.0
  0
TEXT
  5
D56
  8
0
 62
     3
 10
0.0
 20
0.0
 30
0.0
 40
10.0
  1
TCDNUT04
  7
STANDARD1
  0
ENDSEC
  0
EOF
