  0
SECTION
  2
HEADER
  9
$ACADVER
  1
AC1009
  9
$INSBASE
 10
0.0
 20
0.0
 30
0.0
  9
$EXTMIN
 10
0.0
 20
-2.960436562073669
 30
0.0
  9
$EXTMAX
 10
223.6159017203249
 20
163.08978001420189
 30
0.0
  9
$LIMMIN
 10
0.0
 20
0.0
  9
$LIMMAX
 10
375.0
 20
270.0
  9
$ORTHOMODE
 70
     1
  9
$REGENMODE
 70
     1
  9
$FILLMODE
 70
     1
  9
$QTEXTMODE
 70
     0
  9
$MIRRTEXT
 70
     0
  9
$DRAGMODE
 70
     2
  9
$LTSCALE
 40
10.0
  9
$OSMODE
 70
    55
  9
$ATTMODE
 70
     1
  9
$TEXTSIZE
 40
2.0
  9
$TRACEWID
 40
0.05
  9
$TEXTSTYLE
  7
STANDARD
  9
$CLAYER
  8
0
  9
$CELTYPE
  6
BYLAYER
  9
$CECOLOR
 62
   256
  9
$DIMSCALE
 40
1.0
  9
$DIMASZ
 40
2.5
  9
$DIMEXO
 40
2.0
  9
$DIMDLI
 40
0.38
  9
$DIMRND
 40
0.0
  9
$DIMDLE
 40
0.0
  9
$DIMEXE
 40
2.0
  9
$DIMTP
 40
0.0
  9
$DIMTM
 40
0.0
  9
$DIMTXT
 40
3.0
  9
$DIMCEN
 40
0.09
  9
$DIMTSZ
 40
0.0
  9
$DIMTOL
 70
     0
  9
$DIMLIM
 70
     0
  9
$DIMTIH
 70
     0
  9
$DIMTOH
 70
     0
  9
$DIMSE1
 70
     0
  9
$DIMSE2
 70
     0
  9
$DIMTAD
 70
     1
  9
$DIMZIN
 70
     8
  9
$DIMBLK
  1

  9
$DIMASO
 70
     1
  9
$DIMSHO
 70
     0
  9
$DIMPOST
  1

  9
$DIMAPOST
  1

  9
$DIMALT
 70
     0
  9
$DIMALTD
 70
     2
  9
$DIMALTF
 40
25.399999999999999
  9
$DIMLFAC
 40
1.0
  9
$DIMTOFL
 70
     0
  9
$DIMTVP
 40
1.6000000000000001
  9
$DIMTIX
 70
     1
  9
$DIMSOXD
 70
     0
  9
$DIMSAH
 70
     0
  9
$DIMBLK1
  1

  9
$DIMBLK2
  1

  9
$DIMSTYLE
  2
STANDARD
  9
$DIMCLRD
 70
   256
  9
$DIMCLRE
 70
     0
  9
$DIMCLRT
 70
   256
  9
$DIMTFAC
 40
1.0
  9
$DIMGAP
 40
0.09
  9
$LUNITS
 70
     2
  9
$LUPREC
 70
     4
  9
$SKETCHINC
 40
0.1
  9
$FILLETRAD
 40
2.5
  9
$AUNITS
 70
     0
  9
$AUPREC
 70
     0
  9
$MENU
  1
E:\r13\win\SUPPORT\ACAD
  9
$ELEVATION
 40
0.0
  9
$PELEVATION
 40
0.0
  9
$THICKNESS
 40
0.0
  9
$LIMCHECK
 70
     0
  9
$BLIPMODE
 70
     0
  9
$CHAMFERA
 40
0.0
  9
$CHAMFERB
 40
0.0
  9
$SKPOLY
 70
     0
  9
$TDCREATE
 40
2448650.5678784722
  9
$TDUPDATE
 40
2456598.4363364009
  9
$TDINDWG
 40
0.0581798495
  9
$TDUSRTIMER
 40
0.0581798495
  9
$USRTIMER
 70
     1
  9
$ANGBASE
 50
0.0
  9
$ANGDIR
 70
     0
  9
$PDMODE
 70
     0
  9
$PDSIZE
 40
0.0
  9
$PLINEWID
 40
0.0
  9
$COORDS
 70
     1
  9
$SPLFRAME
 70
     0
  9
$SPLINETYPE
 70
     6
  9
$SPLINESEGS
 70
     8
  9
$ATTDIA
 70
     0
  9
$ATTREQ
 70
     1
  9
$HANDLING
 70
     1
  9
$HANDSEED
  5
D1A
  9
$SURFTAB1
 70
     6
  9
$SURFTAB2
 70
     6
  9
$SURFTYPE
 70
     6
  9
$SURFU
 70
     6
  9
$SURFV
 70
     6
  9
$UCSNAME
  2

  9
$UCSORG
 10
0.0
 20
0.0
 30
0.0
  9
$UCSXDIR
 10
1.0
 20
0.0
 30
0.0
  9
$UCSYDIR
 10
0.0
 20
1.0
 30
0.0
  9
$PUCSNAME
  2

  9
$PUCSORG
 10
0.0
 20
0.0
 30
0.0
  9
$PUCSXDIR
 10
1.0
 20
0.0
 30
0.0
  9
$PUCSYDIR
 10
0.0
 20
1.0
 30
0.0
  9
$USERI1
 70
     0
  9
$USERI2
 70
     1
  9
$USERI3
 70
     1
  9
$USERI4
 70
     0
  9
$USERI5
 70
     0
  9
$USERR1
 40
0.0
  9
$USERR2
 40
0.0
  9
$USERR3
 40
0.0
  9
$USERR4
 40
0.0
  9
$USERR5
 40
0.0
  9
$WORLDVIEW
 70
     1
  9
$SHADEDGE
 70
     3
  9
$SHADEDIF
 70
    70
  9
$TILEMODE
 70
     1
  9
$MAXACTVP
 70
    16
  9
$PLIMCHECK
 70
     0
  9
$PEXTMIN
 10
1.0000000000000000E+020
 20
1.0000000000000000E+020
 30
1.0000000000000000E+020
  9
$PEXTMAX
 10
-1.0000000000000000E+020
 20
-1.0000000000000000E+020
 30
-1.0000000000000000E+020
  9
$PLIMMIN
 10
0.0
 20
0.0
  9
$PLIMMAX
 10
12.0
 20
9.0
  9
$UNITMODE
 70
     0
  9
$VISRETAIN
 70
     0
  9
$PLINEGEN
 70
     1
  9
$PSLTSCALE
 70
     0
  0
ENDSEC
  0
SECTION
  2
TABLES
  0
TABLE
  2
VPORT
 70
     1
  0
VPORT
  2
*ACTIVE
 70
     0
 10
0.0
 20
0.0
 11
1.0
 21
1.0
 12
187.4942783906524
 22
197.0509055860143
 13
0.0
 23
0.0
 14
10.0
 24
10.0
 15
10.0
 25
10.0
 16
0.0
 26
0.0
 36
1.0
 17
0.0
 27
0.0
 37
0.0
 40
403.57315882993248
 41
1.7807262569832401
 42
50.0
 43
0.0
 44
0.0
 50
0.0
 51
0.0
 71
     0
 72
   500
 73
     1
 74
     0
 75
     0
 76
     0
 77
     0
 78
     2
  0
ENDTAB
  0
TABLE
  2
LTYPE
 70
     4
  0
LTYPE
  2
CONTINUOUS
 70
     0
  3
Solid Line
 72
    65
 73
     0
 40
0.0
  0
LTYPE
  2
CENTER
 70
     0
  3
____ _ ____ _ ____ _ ____ _ ____ _ ____ _ ____
 72
    65
 73
     4
 40
2.0
 49
1.25
 49
-0.25
 49
0.25
 49
-0.25
  0
LTYPE
  2
HIDDEN
 70
     0
  3
_ _ _ _ _ _ _ _ _ _ _ _ _ _ _ _ _ _ _ _ _ _ _
 72
    65
 73
     2
 40
0.375
 49
0.25
 49
-0.125
  0
LTYPE
  2
PHANTOM2
 70
     0
  3
___ _ _ ___ _ _ ___ _ _ ___ _ _
 72
    65
 73
     6
 40
1.25
 49
0.625
 49
-0.125
 49
0.125
 49
-0.125
 49
0.125
 49
-0.125
  0
ENDTAB
  0
TABLE
  2
LAYER
 70
     5
  0
LAYER
  2
0
 70
     0
 62
     7
  6
CONTINUOUS
  0
LAYER
  2
1
 70
     0
 62
     1
  6
CENTER
  0
LAYER
  2
2
 70
     0
 62
     2
  6
HIDDEN
  0
LAYER
  2
3
 70
     0
 62
     3
  6
CONTINUOUS
  0
LAYER
  2
DEFPOINTS
 70
     0
 62
     7
  6
CONTINUOUS
  0
ENDTAB
  0
TABLE
  2
STYLE
 70
     2
  0
STYLE
  2
STANDARD
 70
     0
 40
0.0
 41
1.0
 50
0.0
 71
     0
 42
2.0
  3
TXT
  4
BIGFONT
  0
STYLE
  2
STANDARD1
 70
     0
 40
0.0
 41
1.0
 50
0.0
 71
     0
 42
3.0
  3
txt
  4

  0
ENDTAB
  0
TABLE
  2
VIEW
 70
     1
  0
VIEW
  2
ALL
 70
     0
 40
270.0
 10
220.99159663865549
 20
135.0
 41
0.0
 11
0.0
 21
0.0
 31
1.0
 12
0.0
 22
0.0
 32
0.0
 42
0.0
 43
0.0
 44
0.0
 50
0.0
 71
     0
  0
ENDTAB
  0
TABLE
  2
UCS
 70
     0
  0
ENDTAB
  0
TABLE
  2
APPID
 70
     3
  0
APPID
  2
ACAD
 70
     0
  0
APPID
  2
ACAD_MLEADERVER
 70
     0
  0
APPID
  2
ACAD_NAV_VCDISPLAY
 70
     0
  0
ENDTAB
  0
TABLE
  2
DIMSTYLE
 70
     1
  0
DIMSTYLE
  2
STANDARD
 70
     0
  3

  4

  5

  6

  7

 40
1.0
 41
0.18
 42
0.0625
 43
0.38
 44
0.18
 45
0.0
 46
0.0
 47
0.0
 48
0.0
140
0.18
141
0.09
142
0.0
143
25.399999999999999
144
1.0
145
0.0
146
1.0
147
0.09
 71
     0
 72
     0
 73
     1
 74
     1
 75
     0
 76
     0
 77
     0
 78
     0
170
     0
171
     2
172
     0
173
     0
174
     0
175
     0
176
     0
177
     0
178
     0
  0
ENDTAB
  0
ENDSEC
  0
SECTION
  2
BLOCKS
  0
BLOCK
  8
0
  2
$MODEL_SPACE
 70
     0
 10
0.0
 20
0.0
 30
0.0
  3
$MODEL_SPACE
  1

  0
ENDBLK
  5
217
  8
0
  0
BLOCK
 67
     1
  8
0
  2
$PAPER_SPACE
 70
     0
 10
0.0
 20
0.0
 30
0.0
  3
$PAPER_SPACE
  1

  0
ENDBLK
  5
215
 67
     1
  8
0
  0
ENDSEC
  0
SECTION
  2
ENTITIES
  0
ARC
  5
6BA
  8
0
 10
90.389419878106295
 20
72.089780014201892
 30
0.0
 40
1.0
 50
90.0
 51
180.0
  0
ARC
  5
6BB
  8
0
 10
88.38941987810631
 20
63.089928635737976
 30
0.0
 40
1.0
 50
270.98776039964127
 51
0.0
  0
LINE
  5
6BC
  8
0
 10
90.389419878106295
 20
73.089780014201892
 30
0.0
 11
99.38941987810631
 21
73.089780014201892
 31
0.0
  0
LINE
  5
6BD
  8
0
 10
115.585986381571
 20
50.017983244477371
 30
0.0
 11
115.585986381571
 21
47.708582167718873
 31
0.0
  0
ARC
  5
6BE
  8
0
 10
112.4193197149043
 20
50.017983244477371
 30
0.0
 40
3.1666666666667309
 50
313.17355110725958
 51
46.826448892740387
  0
LINE
  5
6BF
  8
0
 10
115.585986381571
 20
38.470977860684911
 30
0.0
 11
115.585986381571
 21
36.161576783926371
 31
0.0
  0
ARC
  5
6C0
  8
0
 10
112.4193197149043
 20
36.161576783926371
 30
0.0
 40
3.1666666666666821
 50
313.17355110725958
 51
46.826448892742697
  0
LINE
  5
6C1
  8
0
 10
115.585986381571
 20
47.708582167718873
 30
0.0
 11
115.585986381571
 21
38.470977860684911
 31
0.0
  0
ARC
  5
6C2
  8
0
 10
104.4193197149045
 20
43.089780014201892
 30
0.0
 40
11.16666666666643
 50
335.56730232054559
 51
24.432697679454421
  0
LINE
  5
6C3
  8
0
 10
106.385986381571
 20
51.839780014201892
 30
0.0
 11
108.585986381571
 21
51.839780014201892
 31
0.0
  0
LINE
  5
6C4
  8
0
 10
106.385986381571
 20
44.739344701270973
 30
0.0
 11
108.585986381571
 21
42.737844557054359
 31
0.0
  0
LINE
  5
6C5
  8
0
 10
99.38941987810631
 20
48.089780014201892
 30
0.0
 11
106.385986381571
 21
48.089780014201892
 31
0.0
  0
LINE
  5
6C6
  8
3
 10
99.38941987810631
 20
47.277780014202023
 30
0.0
 11
106.385986381571
 21
47.277780014202023
 31
0.0
  0
LINE
  5
6C7
  8
0
 10
106.385986381571
 20
34.339780014201892
 30
0.0
 11
108.585986381571
 21
34.339780014201892
 31
0.0
  0
LINE
  5
6C8
  8
0
 10
99.38941987810631
 20
38.089780014201892
 30
0.0
 11
106.385986381571
 21
38.089780014201892
 31
0.0
  0
LINE
  5
6C9
  8
3
 10
99.38941987810631
 20
38.901780014201726
 30
0.0
 11
106.385986381571
 21
38.901780014201726
 31
0.0
  0
LINE
  5
6CA
  8
0
 10
108.585986381571
 20
52.327384321235961
 30
0.0
 11
108.585986381571
 21
33.852175707167817
 31
0.0
  0
LINE
  5
6CB
  8
0
 10
106.385986381571
 20
51.839780014201892
 30
0.0
 11
106.385986381571
 21
34.339780014201892
 31
0.0
  0
LINE
  5
6CC
  8
0
 10
106.385986381571
 20
43.15099955305368
 30
0.0
 11
108.585986381571
 21
41.149499408837073
 31
0.0
  0
LINE
  5
6CD
  8
0
 10
89.38941987810631
 20
47.589780014201892
 30
0.0
 11
99.38941987810631
 21
47.589780014201892
 31
0.0
  0
LINE
  5
6CE
  8
0
 10
89.38941987810631
 20
38.589780014201892
 30
0.0
 11
99.38941987810631
 21
38.589780014201892
 31
0.0
  0
ARC
  5
6CF
  8
0
 10
88.38941987810631
 20
23.089631392665869
 30
0.0
 40
1.0
 50
0.0
 51
89.01223960035874
  0
ARC
  5
6D0
  8
0
 10
90.389419878106295
 20
14.089780014201891
 30
0.0
 40
1.0
 50
180.0
 51
270.0
  0
LINE
  5
6D1
  8
0
 10
90.389419878106295
 20
13.089780014201891
 30
0.0
 11
99.38941987810631
 21
13.089780014201891
 31
0.0
  0
LINE
  5
6D2
  8
0
 10
108.585986381571
 20
52.327384321235911
 30
0.0
 11
114.585986381571
 21
52.327384321235911
 31
0.0
  0
LINE
  5
6D3
  8
0
 10
108.585986381571
 20
47.708582167718873
 30
0.0
 11
114.585986381571
 21
47.708582167718873
 31
0.0
  0
LINE
  5
6D4
  8
0
 10
108.585986381571
 20
38.470977860684911
 30
0.0
 11
114.585986381571
 21
38.470977860684911
 31
0.0
  0
LINE
  5
6D5
  8
0
 10
108.585986381571
 20
33.852175707167817
 30
0.0
 11
114.585986381571
 21
33.852175707167817
 31
0.0
  0
LINE
  5
6D6
  8
0
 10
89.38941987810631
 20
72.089780014201892
 30
0.0
 11
89.38941987810631
 21
14.089780014201891
 31
0.0
  0
LINE
  5
6D7
  8
0
 10
99.38941987810631
 20
73.089780014201892
 30
0.0
 11
99.38941987810631
 21
13.089780014201891
 31
0.0
1001
ACAD
1000
ASC_BOUNDS
1002
{
1070
    19
1005
0
1002
}
  0
LINE
  5
6D8
  8
0
 10
21.38941987810631
 20
158.08978001420189
 30
0.0
 11
29.38941987810631
 21
158.08978001420189
 31
0.0
  0
LINE
  5
6D9
  8
2
 10
21.38941987810631
 20
148.33978001420189
 30
0.0
 11
29.38941987810631
 21
148.33978001420189
 31
0.0
  0
LINE
  5
6DA
  8
2
 10
21.38941987810631
 20
137.83978001420189
 30
0.0
 11
29.38941987810631
 21
137.83978001420189
 31
0.0
  0
LINE
  5
6DB
  8
1
 10
16.38941987810631
 20
143.08978001420189
 30
0.0
 11
34.38941987810631
 21
143.08978001420189
 31
0.0
  0
LINE
  5
6DC
  8
0
 10
29.389419878106199
 20
54.589780014201892
 30
0.0
 11
30.389419878106199
 21
54.589780014201892
 31
0.0
  0
LINE
  5
6DD
  8
0
 10
206.6159017203249
 20
153.08978001420189
 30
0.0
 11
206.6159017203249
 21
67.089780014205644
 31
0.0
  0
ARC
  5
6DE
  8
0
 10
175.6159017203249
 20
153.08978001420189
 30
0.0
 40
5.0
 50
90.0
 51
180.0
  0
LINE
  5
6DF
  8
0
 10
175.6159017203249
 20
158.08978001420189
 30
0.0
 11
201.6159017203249
 21
158.08978001420189
 31
0.0
  0
LINE
  5
6E0
  8
1
 10
178.3659017203249
 20
143.08978001420189
 30
0.0
 11
198.8659017203249
 21
143.08978001420189
 31
0.0
  0
LINE
  5
6E1
  8
0
 10
193.1159017203249
 20
66.589780014201892
 30
0.0
 11
193.1159017203249
 21
72.75035991412966
 31
0.0
  0
LINE
  5
6E2
  8
0
 10
184.1159017203249
 20
66.589780014201892
 30
0.0
 11
184.1159017203249
 21
72.75035991412966
 31
0.0
  0
ARC
  5
6E3
  8
0
 10
188.6159017203249
 20
66.589780014201892
 30
0.0
 40
4.5
 50
180.0
 51
0.0
  0
CIRCLE
  5
6E4
  8
0
 10
188.6159017203249
 20
143.08978001420189
 30
0.0
 40
5.25
  0
LINE
  5
6E5
  8
0
 10
170.6159017203249
 20
67.089780014198141
 30
0.0
 11
170.6159017203249
 21
153.08978001420189
 31
0.0
  0
ARC
  5
6E6
  8
0
 10
201.6159017203249
 20
153.08978001420189
 30
0.0
 40
5.0
 50
0.0
 51
90.0
  0
LINE
  5
6E7
  8
0
 10
29.38941987810631
 20
31.589780014201899
 30
0.0
 11
30.389419878106199
 21
31.589780014201899
 31
0.0
  0
LINE
  5
6E8
  8
0
 10
29.38941987810631
 20
25.089780014201889
 30
0.0
 11
21.389419878106189
 21
25.089780014201889
 31
0.0
  0
ARC
  5
6E9
  8
0
 10
212.1159017203249
 20
43.089780014201892
 30
0.0
 40
4.5
 50
90.0
 51
270.0
  0
LINE
  5
6EA
  8
0
 10
212.1159017203249
 20
47.589780014201892
 30
0.0
 11
218.2764816202527
 21
47.589780014201892
 31
0.0
  0
LINE
  5
6EB
  8
0
 10
212.1159017203249
 20
38.589780014201892
 30
0.0
 11
218.2764816202527
 21
38.589780014201892
 31
0.0
  0
POLYLINE
  5
6EC
  8
0
 66
     1
 10
0.0
 20
0.0
 30
0.0
 70
     1
  0
VERTEX
  5
CDB
  8
0
 10
180.6159017203249
 20
38.470977860684911
 30
0.0
  0
VERTEX
  5
CDC
  8
0
 10
188.6159017203249
 20
33.852175707167873
 30
0.0
  0
VERTEX
  5
CDD
  8
0
 10
196.6159017203249
 20
38.470977860684911
 30
0.0
  0
VERTEX
  5
CDE
  8
0
 10
196.6159017203249
 20
47.708582167718873
 30
0.0
  0
VERTEX
  5
CDF
  8
0
 10
188.6159017203249
 20
52.327384321235911
 30
0.0
  0
VERTEX
  5
CE0
  8
0
 10
180.6159017203249
 20
47.708582167718873
 30
0.0
  0
SEQEND
  5
CE1
  8
0
  0
CIRCLE
  5
6ED
  8
0
 10
188.6159017203249
 20
43.089780014201892
 30
0.0
 40
8.0
  0
LINE
  5
6EE
  8
0
 10
193.1159017203249
 20
19.589780014201889
 30
0.0
 11
193.1159017203249
 21
13.429200114274121
 31
0.0
  0
LINE
  5
6EF
  8
0
 10
184.1159017203249
 20
19.589780014201889
 30
0.0
 11
184.1159017203249
 21
13.429200114274121
 31
0.0
  0
ARC
  5
6F0
  8
0
 10
188.6159017203249
 20
19.589780014201889
 30
0.0
 40
4.5
 50
0.0
 51
180.0
  0
ARC
  5
6F1
  8
0
 10
165.1159017203249
 20
43.089780014201892
 30
0.0
 40
4.5
 50
270.0
 51
90.0
  0
LINE
  5
6F2
  8
0
 10
165.1159017203249
 20
38.589780014201892
 30
0.0
 11
158.9553218203971
 21
38.589780014201892
 31
0.0
  0
LINE
  5
6F3
  8
0
 10
165.1159017203249
 20
47.589780014201892
 30
0.0
 11
158.9553218203971
 21
47.589780014201892
 31
0.0
  0
ARC
  5
6F4
  8
0
 10
188.6159017203249
 20
43.089780014201892
 30
0.0
 40
30.0
 50
188.62692655867741
 51
261.37307344132267
  0
ARC
  5
6F5
  8
0
 10
188.6159017203249
 20
43.089780014201892
 30
0.0
 40
30.0
 50
278.62692655867733
 51
351.37307344131938
  0
ARC
  5
6F6
  8
0
 10
188.6159017203249
 20
43.089780014201892
 30
0.0
 40
30.0
 50
8.6269265586773543
 51
81.373073441322646
  0
LINE
  5
6F7
  8
1
 10
188.6159017203249
 20
8.0897800142018923
 30
0.0
 11
188.6159017203249
 21
163.08978001420189
 31
0.0
  0
CIRCLE
  5
6F8
  8
0
 10
188.6159017203249
 20
43.089780014201892
 30
0.0
 40
17.5
  0
LINE
  5
6F9
  8
0
 10
30.38941987810631
 20
61.089780014201892
 30
0.0
 11
30.38941987810631
 21
25.089780014201889
 31
0.0
1001
ACAD
1000
ASC_BOUNDS
1002
{
1070
    19
1005
0
1002
}
  0
LINE
  5
6FA
  8
0
 10
21.38941987810631
 20
158.08978001420189
 30
0.0
 11
21.38941987810631
 21
25.089780014201889
 31
0.0
1001
ACAD
1000
ASC_BOUNDS
1002
{
1070
    19
1002
}
  0
LINE
  5
6FB
  8
0
 10
29.38941987810631
 20
158.08978001420189
 30
0.0
 11
29.38941987810631
 21
25.089780014201889
 31
0.0
1001
ACAD
1000
ASC_BOUNDS
1002
{
1070
    19
1002
}
  0
ARC
  5
6FC
  8
0
 10
188.6159017203249
 20
43.089780014201892
 30
0.0
 40
30.0
 50
98.62692655867734
 51
171.37307344131941
  0
LINE
  5
6FD
  8
1
 10
153.6159017203249
 20
43.089780014201892
 30
0.0
 11
223.6159017203249
 21
43.089780014201892
 31
0.0
  0
LINE
  5
6FE
  8
0
 10
30.38941987810631
 20
25.089780014201889
 30
0.0
 11
88.406658695357123
 21
24.08948279321482
 31
0.0
1001
ACAD
1000
ASC_BOUNDS
1002
{
1070
    19
1002
}
  0
LINE
  5
6FF
  8
0
 10
30.38941987810631
 20
61.089780014201892
 30
0.0
 11
88.406658695357009
 21
62.090077235188971
 31
0.0
1001
ACAD
1000
ASC_BOUNDS
1002
{
1070
    19
1002
}
  0
LINE
  5
8A7
  8
1
 10
16.38941987810631
 20
43.089780014201857
 30
0.0
 11
120.585986381571
 21
43.089780014201892
 31
0.0
  0
TEXT
  5
C7C
  8
0
 62
     3
 10
0.0
 20
0.0
 30
0.0
 40
10.0
  1
TC-PX30
  7
STANDARD1
  0
ENDSEC
  0
EOF
