  0
SECTION
  2
HEADER
  9
$ACADVER
  1
AC1009
  9
$INSBASE
 10
0.0
 20
0.0
 30
0.0
  9
$EXTMIN
 10
0.0
 20
-2.960436562073669
 30
0.0
  9
$EXTMAX
 10
327.2306290989182
 20
225.0
 30
0.0
  9
$LIMMIN
 10
0.0
 20
0.0
  9
$LIMMAX
 10
375.0
 20
270.0
  9
$ORTHOMODE
 70
     1
  9
$REGENMODE
 70
     1
  9
$FILLMODE
 70
     1
  9
$QTEXTMODE
 70
     0
  9
$MIRRTEXT
 70
     0
  9
$DRAGMODE
 70
     2
  9
$LTSCALE
 40
10.0
  9
$OSMODE
 70
    55
  9
$ATTMODE
 70
     1
  9
$TEXTSIZE
 40
4.000000000000048
  9
$TRACEWID
 40
0.05
  9
$TEXTSTYLE
  7
STANDARD
  9
$CLAYER
  8
0
  9
$CELTYPE
  6
BYLAYER
  9
$CECOLOR
 62
   256
  9
$DIMSCALE
 40
1.0
  9
$DIMASZ
 40
3.0
  9
$DIMEXO
 40
2.0
  9
$DIMDLI
 40
0.38
  9
$DIMRND
 40
0.0
  9
$DIMDLE
 40
0.0
  9
$DIMEXE
 40
2.0
  9
$DIMTP
 40
0.0
  9
$DIMTM
 40
0.0
  9
$DIMTXT
 40
3.2000000000000002
  9
$DIMCEN
 40
0.0
  9
$DIMTSZ
 40
0.0
  9
$DIMTOL
 70
     0
  9
$DIMLIM
 70
     0
  9
$DIMTIH
 70
     0
  9
$DIMTOH
 70
     0
  9
$DIMSE1
 70
     0
  9
$DIMSE2
 70
     0
  9
$DIMTAD
 70
     1
  9
$DIMZIN
 70
     0
  9
$DIMBLK
  1

  9
$DIMASO
 70
     1
  9
$DIMSHO
 70
     0
  9
$DIMPOST
  1

  9
$DIMAPOST
  1

  9
$DIMALT
 70
     0
  9
$DIMALTD
 70
     2
  9
$DIMALTF
 40
25.399999999999999
  9
$DIMLFAC
 40
1.0
  9
$DIMTOFL
 70
     1
  9
$DIMTVP
 40
1.6000000000000001
  9
$DIMTIX
 70
     1
  9
$DIMSOXD
 70
     0
  9
$DIMSAH
 70
     0
  9
$DIMBLK1
  1

  9
$DIMBLK2
  1

  9
$DIMSTYLE
  2
STANDARD
  9
$DIMCLRD
 70
     0
  9
$DIMCLRE
 70
     0
  9
$DIMCLRT
 70
     0
  9
$DIMTFAC
 40
1.0
  9
$DIMGAP
 40
0.09
  9
$LUNITS
 70
     2
  9
$LUPREC
 70
     4
  9
$SKETCHINC
 40
0.1
  9
$FILLETRAD
 40
3.0
  9
$AUNITS
 70
     0
  9
$AUPREC
 70
     4
  9
$MENU
  1
E:\r13\win\SUPPORT\ACAD
  9
$ELEVATION
 40
0.0
  9
$PELEVATION
 40
0.0
  9
$THICKNESS
 40
0.0
  9
$LIMCHECK
 70
     0
  9
$BLIPMODE
 70
     0
  9
$CHAMFERA
 40
0.0
  9
$CHAMFERB
 40
0.0
  9
$SKPOLY
 70
     0
  9
$TDCREATE
 40
2449839.7893981482
  9
$TDUPDATE
 40
2456598.423215278
  9
$TDINDWG
 40
0.0001401505
  9
$TDUSRTIMER
 40
0.0001401505
  9
$USRTIMER
 70
     1
  9
$ANGBASE
 50
0.0
  9
$ANGDIR
 70
     0
  9
$PDMODE
 70
     0
  9
$PDSIZE
 40
0.0
  9
$PLINEWID
 40
0.0
  9
$COORDS
 70
     1
  9
$SPLFRAME
 70
     0
  9
$SPLINETYPE
 70
     6
  9
$SPLINESEGS
 70
     8
  9
$ATTDIA
 70
     0
  9
$ATTREQ
 70
     1
  9
$HANDLING
 70
     1
  9
$HANDSEED
  5
310
  9
$SURFTAB1
 70
     6
  9
$SURFTAB2
 70
     6
  9
$SURFTYPE
 70
     6
  9
$SURFU
 70
     6
  9
$SURFV
 70
     6
  9
$UCSNAME
  2

  9
$UCSORG
 10
0.0
 20
0.0
 30
0.0
  9
$UCSXDIR
 10
1.0
 20
0.0
 30
0.0
  9
$UCSYDIR
 10
0.0
 20
1.0
 30
0.0
  9
$PUCSNAME
  2

  9
$PUCSORG
 10
0.0
 20
0.0
 30
0.0
  9
$PUCSXDIR
 10
1.0
 20
0.0
 30
0.0
  9
$PUCSYDIR
 10
0.0
 20
1.0
 30
0.0
  9
$USERI1
 70
     0
  9
$USERI2
 70
     1
  9
$USERI3
 70
     1
  9
$USERI4
 70
     0
  9
$USERI5
 70
     0
  9
$USERR1
 40
0.0
  9
$USERR2
 40
0.0
  9
$USERR3
 40
0.0
  9
$USERR4
 40
0.0
  9
$USERR5
 40
0.0
  9
$WORLDVIEW
 70
     1
  9
$SHADEDGE
 70
     3
  9
$SHADEDIF
 70
    70
  9
$TILEMODE
 70
     1
  9
$MAXACTVP
 70
    16
  9
$PLIMCHECK
 70
     0
  9
$PEXTMIN
 10
1.0000000000000000E+020
 20
1.0000000000000000E+020
 30
1.0000000000000000E+020
  9
$PEXTMAX
 10
-1.0000000000000000E+020
 20
-1.0000000000000000E+020
 30
-1.0000000000000000E+020
  9
$PLIMMIN
 10
0.0
 20
0.0
  9
$PLIMMAX
 10
12.0
 20
9.0
  9
$UNITMODE
 70
     0
  9
$VISRETAIN
 70
     0
  9
$PLINEGEN
 70
     0
  9
$PSLTSCALE
 70
     0
  0
ENDSEC
  0
SECTION
  2
TABLES
  0
TABLE
  2
VPORT
 70
     1
  0
VPORT
  2
*ACTIVE
 70
     0
 10
0.0
 20
0.0
 11
1.0
 21
1.0
 12
187.4942783906524
 22
197.0509055860143
 13
0.0
 23
0.0
 14
10.0
 24
10.0
 15
10.0
 25
10.0
 16
0.0
 26
0.0
 36
1.0
 17
0.0
 27
0.0
 37
0.0
 40
403.57315882993248
 41
1.7807262569832401
 42
50.0
 43
0.0
 44
0.0
 50
0.0
 51
0.0
 71
     0
 72
   500
 73
     1
 74
     0
 75
     0
 76
     0
 77
     0
 78
     2
  0
ENDTAB
  0
TABLE
  2
LTYPE
 70
     4
  0
LTYPE
  2
CONTINUOUS
 70
     0
  3
Solid Line
 72
    65
 73
     0
 40
0.0
  0
LTYPE
  2
CENTER
 70
     0
  3
____ _ ____ _ ____ _ ____ _ ____ _ ____ _ ____
 72
    65
 73
     4
 40
2.0
 49
1.25
 49
-0.25
 49
0.25
 49
-0.25
  0
LTYPE
  2
HIDDEN
 70
     0
  3
_ _ _ _ _ _ _ _ _ _ _ _ _ _ _ _ _ _ _ _ _ _ _
 72
    65
 73
     2
 40
0.375
 49
0.25
 49
-0.125
  0
LTYPE
  2
PHANTOM2
 70
     0
  3
___ _ _ ___ _ _ ___ _ _ ___ _ _
 72
    65
 73
     6
 40
1.25
 49
0.625
 49
-0.125
 49
0.125
 49
-0.125
 49
0.125
 49
-0.125
  0
ENDTAB
  0
TABLE
  2
LAYER
 70
     3
  0
LAYER
  2
0
 70
     0
 62
     7
  6
CONTINUOUS
  0
LAYER
  2
1
 70
     0
 62
     1
  6
CENTER
  0
LAYER
  2
2
 70
     0
 62
     2
  6
HIDDEN
  0
ENDTAB
  0
TABLE
  2
STYLE
 70
     2
  0
STYLE
  2
STANDARD
 70
     0
 40
0.0
 41
1.0
 50
0.0
 71
     0
 42
4.000000000000048
  3
TXT
  4
BIGFONT
  0
STYLE
  2
STANDARD1
 70
     0
 40
0.0
 41
1.0
 50
0.0
 71
     0
 42
3.0
  3
txt
  4

  0
ENDTAB
  0
TABLE
  2
VIEW
 70
     1
  0
VIEW
  2
ALL
 70
     0
 40
270.0
 10
220.99159663865549
 20
135.0
 41
0.0
 11
0.0
 21
0.0
 31
1.0
 12
0.0
 22
0.0
 32
0.0
 42
0.0
 43
0.0
 44
0.0
 50
0.0
 71
     0
  0
ENDTAB
  0
TABLE
  2
UCS
 70
     0
  0
ENDTAB
  0
TABLE
  2
APPID
 70
     3
  0
APPID
  2
ACAD
 70
     0
  0
APPID
  2
ACAD_MLEADERVER
 70
     0
  0
APPID
  2
ACAD_NAV_VCDISPLAY
 70
     0
  0
ENDTAB
  0
TABLE
  2
DIMSTYLE
 70
     1
  0
DIMSTYLE
  2
STANDARD
 70
     0
  3

  4

  5

  6

  7

 40
1.0
 41
0.18
 42
0.0625
 43
0.38
 44
0.18
 45
0.0
 46
0.0
 47
0.0
 48
0.0
140
0.18
141
0.09
142
0.0
143
25.399999999999999
144
1.0
145
0.0
146
1.0
147
0.09
 71
     0
 72
     0
 73
     1
 74
     1
 75
     0
 76
     0
 77
     0
 78
     0
170
     0
171
     2
172
     0
173
     0
174
     0
175
     0
176
     0
177
     0
178
     0
  0
ENDTAB
  0
ENDSEC
  0
SECTION
  2
BLOCKS
  0
BLOCK
  8
0
  2
$MODEL_SPACE
 70
     0
 10
0.0
 20
0.0
 30
0.0
  3
$MODEL_SPACE
  1

  0
ENDBLK
  5
191
  8
0
  0
BLOCK
 67
     1
  8
0
  2
$PAPER_SPACE
 70
     0
 10
0.0
 20
0.0
 30
0.0
  3
$PAPER_SPACE
  1

  0
ENDBLK
  5
18F
 67
     1
  8
0
  0
ENDSEC
  0
SECTION
  2
ENTITIES
  0
ARC
  5
35
  8
0
 10
180.0
 20
180.0
 30
0.0
 40
40.0
 50
354.54338009580198
 51
5.4566199041979484
  0
LINE
  5
36
  8
1
 10
225.0
 20
180.0
 30
0.0
 11
135.0
 21
180.0
 31
0.0
  0
LINE
  5
37
  8
1
 10
180.0
 20
225.0
 30
0.0
 11
180.0
 21
135.0
 31
0.0
  0
LINE
  5
38
  8
0
 10
217.532669863546
 20
173.56448308363159
 30
0.0
 11
192.1527398732529
 21
167.47130098602179
 31
0.0
  0
LINE
  5
39
  8
0
 10
217.532669863546
 20
186.43551691636841
 30
0.0
 11
192.15273806984931
 21
192.52869944693711
 31
0.0
  0
ARC
  5
3A
  8
0
 10
180.0
 20
180.0
 30
0.0
 40
39.0
 50
354.36823739210229
 51
5.6317626078977234
  0
LINE
  5
3B
  8
0
 10
217.28829730728759
 20
185.5757200805615
 30
0.0
 11
191.6870153752561
 21
191.7220440776639
 31
0.0
  0
LINE
  5
3C
  8
0
 10
217.28829730728759
 20
174.42427991943839
 30
0.0
 11
191.6870153752555
 21
168.27795592233591
 31
0.0
  0
LINE
  5
3D
  8
0
 10
156.527136112199
 20
209.50475269169721
 30
0.0
 11
164.0049043568342
 21
184.26023017055931
 31
0.0
  0
ARC
  5
3E
  8
0
 10
180.00000000000011
 20
180.00000000000011
 30
0.0
 40
39.0
 50
114.3682373921023
 51
125.6317626078978
  0
LINE
  5
3F
  8
0
 10
155.66034393216759
 20
209.2864871155013
 30
0.0
 11
163.07345896764789
 21
184.26023023161611
 31
0.0
  0
ARC
  5
40
  8
0
 10
180.00000000000011
 20
180.00000000000011
 30
0.0
 40
40.0
 50
114.54338009580211
 51
125.45661990419801
  0
LINE
  5
41
  8
0
 10
166.18456658051369
 20
215.0804727722589
 30
0.0
 11
184.30808026791041
 21
195.98227424822269
 31
0.0
  0
LINE
  5
42
  8
0
 10
166.8069862042866
 20
215.7220040318698
 30
0.0
 11
184.77380296250351
 21
196.78892961749591
 31
0.0
  0
LINE
  5
43
  8
0
 10
166.18456658051369
 20
144.9195272277417
 30
0.0
 11
184.3080802679097
 21
164.01772575177711
 31
0.0
  0
ARC
  5
44
  8
0
 10
179.99999999999989
 20
180.00000000000011
 30
0.0
 40
39.0
 50
234.3682373921022
 51
245.63176260789791
  0
LINE
  5
45
  8
0
 10
166.8069862042864
 20
144.27799596813051
 30
0.0
 11
184.7738002688013
 21
163.21106754393469
 31
0.0
  0
ARC
  5
46
  8
0
 10
179.99999999999989
 20
180.00000000000011
 30
0.0
 40
40.0
 50
234.54338009580209
 51
245.45661990419791
  0
LINE
  5
47
  8
0
 10
156.52713611219869
 20
150.49524730830299
 30
0.0
 11
164.0049043568342
 21
175.7397698294416
 31
0.0
  0
LINE
  5
48
  8
0
 10
155.66034393216739
 20
150.71351288449881
 30
0.0
 11
163.07345896764789
 21
175.73976989049839
 31
0.0
  0
CIRCLE
  5
49
  8
0
 10
180.0
 20
179.99999999999989
 30
0.0
 40
14.25
  0
CIRCLE
  5
4A
  8
0
 10
180.0
 20
179.99999999999989
 30
0.0
 40
13.25
  0
CIRCLE
  5
4B
  8
0
 10
180.0
 20
179.99999999999989
 30
0.0
 40
10.5
  0
ARC
  5
4C
  8
0
 10
216.83233377197831
 20
183.51840715517531
 30
0.0
 40
3.0
 50
5.4566199041977956
 51
76.500000000000213
  0
ARC
  5
4D
  8
0
 10
216.83233377197831
 20
176.4815928448246
 30
0.0
 40
3.0
 50
283.50000000000011
 51
354.54338009580192
  0
ARC
  5
4E
  8
0
 10
164.63086309124949
 20
146.34305969521171
 30
0.0
 40
3.0
 50
245.45661990419771
 51
316.49999999999977
  0
ARC
  5
4F
  8
0
 10
158.53680313677199
 20
149.8614668503871
 30
0.0
 40
3.0
 50
163.50000000000011
 51
234.5433800958026
  0
ARC
  5
50
  8
0
 10
158.53680313677219
 20
210.1385331496131
 30
0.0
 40
3.0
 50
125.45661990419821
 51
196.50000000000031
  0
ARC
  5
51
  8
0
 10
164.63086309124981
 20
213.65694030478849
 30
0.0
 40
3.0
 50
43.500000000000121
 51
114.54338009580241
  0
ARC
  5
52
  8
0
 10
216.82140657957581
 20
176.3690197602337
 30
0.0
 40
2.0
 50
283.4999999999996
 51
354.36823739210229
  0
ARC
  5
53
  8
0
 10
216.82140657957581
 20
183.63098023976619
 30
0.0
 40
2.0
 50
5.6317626078976719
 51
76.500000000000213
  0
ARC
  5
54
  8
0
 10
164.73381783848919
 20
146.2962363791292
 30
0.0
 40
2.0
 50
245.63176260789791
 51
316.49999999999932
  0
ARC
  5
55
  8
0
 10
158.44477558193509
 20
149.9272166188951
 30
0.0
 40
2.0
 50
163.50000000000031
 51
234.368237392102
  0
ARC
  5
56
  8
0
 10
158.4447755819354
 20
210.0727833811051
 30
0.0
 40
2.0
 50
125.631762607898
 51
196.5
  0
ARC
  5
57
  8
0
 10
164.7338178384891
 20
213.7037636208714
 30
0.0
 40
2.0
 50
43.499999999999467
 51
114.3682373921027
  0
ARC
  5
58
  8
0
 10
195.6544185276872
 20
152.8857517470976
 30
0.0
 40
15.0
 50
103.5
 51
136.49999999999989
  0
ARC
  5
59
  8
0
 10
195.1886958330941
 20
153.69240711637079
 30
0.0
 40
15.0
 50
103.4999999999999
 51
136.49999999999989
  0
ARC
  5
5A
  8
0
 10
149.62260833381131
 20
180.00000000000051
 30
0.0
 40
15.0
 50
343.5
 51
16.499999999999929
  0
ARC
  5
5B
  8
0
 10
148.69116294462509
 20
180.00000006105731
 30
0.0
 40
15.0
 50
343.5
 51
16.499999999999929
  0
ARC
  5
5C
  8
0
 10
195.65441852768791
 20
207.1142482529022
 30
0.0
 40
15.0
 50
223.49999999999989
 51
256.5
  0
ARC
  5
5D
  8
0
 10
195.1886958330947
 20
206.30759288362901
 30
0.0
 40
15.0
 50
223.49999999999989
 51
256.49999999999989
  0
LINE
  5
5E
  8
2
 10
173.5
 20
95.000000000000057
 30
0.0
 11
172.5
 21
94.000000000000028
 31
0.0
  0
LINE
  5
5F
  8
2
 10
187.5
 20
93.999999999999957
 30
0.0
 11
186.5
 21
94.999999999999986
 31
0.0
  0
ARC
  5
60
  8
0
 10
164.7846684532974
 20
102.0
 30
0.0
 40
3.0
 50
67.722422945243309
 51
89.999999999999915
  0
LINE
  5
61
  8
0
 10
186.0519153353701
 20
96.529375824579319
 30
0.0
 11
165.921950590547
 21
104.77607444790171
 31
0.0
  0
ARC
  5
62
  8
0
 10
198.0
 20
82.450982966315138
 30
0.0
 40
2.0
 50
111.9999999999998
 51
180.0
  0
ARC
  5
63
  8
0
 10
158.06965216564731
 20
102.0
 30
0.0
 40
3.0
 50
89.999999999999986
 51
179.9999999999998
  0
ARC
  5
64
  8
0
 10
217.00000000000011
 20
95.520154970570985
 30
0.0
 40
3.0
 50
291.99999999999989
 51
360.0
  0
LINE
  5
65
  8
0
 10
155.06965216564731
 20
102.0
 30
0.0
 11
155.0696521656474
 21
94.667618316580715
 31
0.0
  0
ARC
  5
66
  8
0
 10
217.00000000000119
 20
102.0000000000001
 30
0.0
 40
3.0
 50
359.99994848348308
 51
105.0000430944504
  0
LINE
  5
67
  8
0
 10
216.22354286469249
 20
104.8977774788672
 30
0.0
 11
187.58768208065391
 21
97.224821707214005
 31
0.0
  0
LINE
  5
68
  8
0
 10
195.3431994829341
 20
83.534635365963297
 30
0.0
 11
218.12382209911999
 21
92.738604343755782
 31
0.0
  0
LINE
  5
69
  8
0
 10
194.24212554140041
 20
99.007874458599588
 30
0.0
 11
193.25
 21
100.0
 31
0.0
  0
LINE
  5
6A
  8
0
 10
220.00000000000011
 20
101.9999973026017
 30
0.0
 11
220.00000000000011
 21
95.520152634555544
 31
0.0
  0
LINE
  5
6B
  8
2
 10
186.5
 20
94.999999999999986
 30
0.0
 11
173.5
 21
95.000000000000057
 31
0.0
  0
LINE
  5
6C
  8
0
 10
165.0
 20
70.300000000000026
 30
0.0
 11
164.0
 21
71.300000000000026
 31
0.0
  0
LINE
  5
6D
  8
0
 10
196.0
 20
71.300000000000011
 30
0.0
 11
195.0
 21
70.300000000000011
 31
0.0
  0
LINE
  5
6E
  8
0
 10
164.0
 20
83.019342157295796
 30
0.0
 11
164.0
 21
71.300000000000026
 31
0.0
  0
LINE
  5
6F
  8
0
 10
196.0
 20
82.450986404836783
 30
0.0
 11
196.0
 21
71.300000000000011
 31
0.0
  0
LINE
  5
70
  8
0
 10
195.0
 20
70.300000000000011
 30
0.0
 11
165.0
 21
70.300000000000011
 31
0.0
  0
LINE
  5
71
  8
1
 10
180.0
 20
105.0
 30
0.0
 11
180.0
 21
65.000000000000014
 31
0.0
  0
LINE
  5
72
  8
0
 10
193.25
 20
100.0
 30
0.0
 11
177.5802170855797
 21
100.0
 31
0.0
  0
LINE
  5
73
  8
0
 10
164.7846684532974
 20
105.0
 30
0.0
 11
158.06965216564731
 21
105.0
 31
0.0
  0
LINE
  5
74
  8
0
 10
187.5
 20
70.000000000000028
 30
0.0
 11
172.5
 21
70.000000000000014
 31
0.0
  0
LINE
  5
75
  8
2
 10
174.31199999999981
 20
69.999999999999957
 30
0.0
 11
175.8119999999999
 21
71.500000000000014
 31
0.0
  0
LINE
  5
76
  8
2
 10
184.18800000000019
 20
71.500000000000028
 30
0.0
 11
175.8119999999999
 21
71.500000000000014
 31
0.0
  0
LINE
  5
77
  8
2
 10
174.9999999999996
 20
87.000000000000014
 30
0.0
 11
175.8119999999995
 21
88.406425255745674
 31
0.0
  0
LINE
  5
78
  8
2
 10
175.81199999999961
 20
88.999999999999957
 30
0.0
 11
179.9999999999998
 21
91.516404272487591
 31
0.0
  0
LINE
  5
79
  8
2
 10
175.8119999999999
 20
89.000000000000014
 30
0.0
 11
184.18800000000019
 21
89.0
 31
0.0
  0
LINE
  5
7A
  8
2
 10
175.0
 20
87.000000000000014
 30
0.0
 11
185.00000000000011
 21
87.000000000000014
 31
0.0
  0
LINE
  5
7B
  8
2
 10
175.8119999999999
 20
71.500000000000071
 30
0.0
 11
175.8119999999999
 21
89.000000000000014
 31
0.0
  0
LINE
  5
7C
  8
2
 10
175.0
 20
70.688000000000116
 30
0.0
 11
175.0
 21
87.000000000000014
 31
0.0
  0
LINE
  5
7D
  8
2
 10
185.00000000000011
 20
70.688000000000116
 30
0.0
 11
185.00000000000011
 21
87.000000000000014
 31
0.0
  0
LINE
  5
7E
  8
2
 10
184.18800000000019
 20
71.500000000000071
 30
0.0
 11
184.18800000000019
 21
89.000000000000014
 31
0.0
  0
LINE
  5
7F
  8
2
 10
185.00000000000051
 20
87.000000000000014
 30
0.0
 11
184.18800000000061
 21
88.406425255745674
 31
0.0
  0
LINE
  5
80
  8
2
 10
185.68800000000019
 20
69.999999999999957
 30
0.0
 11
184.18800000000019
 21
71.500000000000014
 31
0.0
  0
LINE
  5
81
  8
2
 10
184.1880000000005
 20
88.999999999999957
 30
0.0
 11
180.00000000000031
 21
91.516404272487591
 31
0.0
  0
LINE
  5
82
  8
0
 10
172.5
 20
70.300000000000011
 30
0.0
 11
172.5
 21
70.000000000000014
 31
0.0
  0
LINE
  5
83
  8
2
 10
172.5
 20
70.300000000000011
 30
0.0
 11
172.50000000000011
 21
94.000000000000057
 31
0.0
  0
LINE
  5
84
  8
0
 10
187.5
 20
70.300000000000011
 30
0.0
 11
187.5
 21
70.000000000000028
 31
0.0
  0
LINE
  5
85
  8
2
 10
187.5
 20
70.300000000000011
 30
0.0
 11
187.5
 21
94.000000000000028
 31
0.0
  0
LINE
  5
86
  8
0
 10
164.0
 20
71.30000000000004
 30
0.0
 11
196.0
 21
71.299999999999983
 31
0.0
  0
LINE
  5
87
  8
0
 10
216.6117714323463
 20
103.4488887394336
 30
0.0
 11
189.87939388048451
 21
96.285969762648364
 31
0.0
  0
ARC
  5
88
  8
0
 10
186.03476781003869
 20
103.0203766649484
 30
0.0
 40
6.0
 50
247.72242294524321
 51
284.99999999999989
  0
ARC
  5
89
  8
0
 10
188.3264796098693
 20
102.0815247203828
 30
0.0
 40
6.0
 50
247.7224229452433
 51
284.99999999999989
  0
LINE
  5
8A
  8
0
 10
194.2127376618246
 20
99.0
 30
0.0
 11
180.02118960855921
 21
99.000000000000028
 31
0.0
  0
LINE
  5
8B
  8
0
 10
193.5509584384786
 20
84.428325095001469
 30
0.0
 11
217.5619098901239
 21
94.129379188720804
 31
0.0
  0
LINE
  5
8C
  8
0
 10
182.53725623352759
 20
83.80000000000004
 30
0.0
 11
164.8966486381031
 21
83.80000000000004
 31
0.0
  0
LINE
  5
8D
  8
0
 10
155.8629308677763
 20
92.635282276120947
 30
0.0
 11
163.47114753191411
 21
84.37423142928192
 31
0.0
  0
ARC
  5
8E
  8
0
 10
158.0696521656474
 20
94.667616184100126
 30
0.0
 40
3.0
 50
180.0
 51
222.64427916452561
  0
ARC
  5
8F
  8
0
 10
162.0
 20
83.019342157295796
 30
0.0
 40
2.0
 50
0.0
 51
42.6442791645255
  0
LINE
  5
90
  8
0
 10
165.37535447068211
 20
103.9107825697502
 30
0.0
 11
165.37535447068211
 21
94.496629420041927
 31
0.0
  0
LINE
  5
91
  8
0
 10
156.448297794018
 20
93.496629420043746
 30
0.0
 11
164.3753544706785
 21
93.496629420043746
 31
0.0
  0
LINE
  5
92
  8
0
 10
183.5426047136732
 20
84.415434413142833
 30
0.0
 11
165.37535447068211
 21
93.496629420043746
 31
0.0
  0
LINE
  5
93
  8
0
 10
186.04331390844629
 20
84.331930807248597
 30
0.0
 11
187.1744595712762
 21
84.805885920981297
 31
0.0
  0
LINE
  5
94
  8
0
 10
188.51610923984759
 20
84.878694213656829
 30
0.0
 11
193.36626077121019
 21
83.440045749408938
 31
0.0
  0
ARC
  5
95
  8
0
 10
194.21937970268641
 20
86.316186929663687
 30
0.0
 40
3.0
 50
253.47862792962991
 51
291.99999999999977
  0
ARC
  5
96
  8
0
 10
187.9473632855302
 20
82.961266760153691
 30
0.0
 40
2.0
 50
73.478627929629923
 51
112.73390294406261
  0
ARC
  5
97
  8
0
 10
184.88395833706531
 20
87.098859548489983
 30
0.0
 40
3.0
 50
243.4410804172073
 51
292.73390294406261
  0
LINE
  5
98
  8
0
 10
105.2892660487335
 20
83.80000000000004
 30
0.0
 11
97.220805873054729
 21
83.80000000000004
 31
0.0
  0
LINE
  5
99
  8
0
 10
100.2362500198103
 20
99.0
 30
0.0
 11
79.763749980189601
 21
99.000000000000057
 31
0.0
  0
LINE
  5
9A
  8
0
 10
74.0
 20
71.30000000000004
 30
0.0
 11
106.0
 21
71.299999999999983
 31
0.0
  0
LINE
  5
9B
  8
2
 10
97.499999999999986
 20
70.300000000000011
 30
0.0
 11
97.499999999999986
 21
94.000000000000028
 31
0.0
  0
LINE
  5
9C
  8
0
 10
97.5
 20
70.300000000000011
 30
0.0
 11
97.5
 21
70.000000000000028
 31
0.0
  0
LINE
  5
9D
  8
2
 10
82.5
 20
70.300000000000011
 30
0.0
 11
82.500000000000085
 21
94.000000000000057
 31
0.0
  0
LINE
  5
9E
  8
0
 10
82.500000000000028
 20
70.300000000000011
 30
0.0
 11
82.500000000000028
 21
70.000000000000014
 31
0.0
  0
LINE
  5
9F
  8
2
 10
94.188000000000514
 20
88.999999999999957
 30
0.0
 11
90.000000000000313
 21
91.516404272487591
 31
0.0
  0
LINE
  5
A0
  8
2
 10
95.688000000000272
 20
69.999999999999957
 30
0.0
 11
94.188000000000216
 21
71.500000000000014
 31
0.0
  0
LINE
  5
A1
  8
2
 10
95.000000000000469
 20
87.000000000000014
 30
0.0
 11
94.188000000000642
 21
88.406425255745674
 31
0.0
  0
LINE
  5
A2
  8
2
 10
94.188000000000216
 20
71.500000000000071
 30
0.0
 11
94.188000000000173
 21
89.000000000000014
 31
0.0
  0
LINE
  5
A3
  8
2
 10
95.000000000000114
 20
70.688000000000116
 30
0.0
 11
95.000000000000085
 21
87.000000000000014
 31
0.0
  0
LINE
  5
A4
  8
2
 10
85.0
 20
70.688000000000116
 30
0.0
 11
85.000000000000028
 21
87.000000000000014
 31
0.0
  0
LINE
  5
A5
  8
2
 10
85.811999999999898
 20
71.500000000000071
 30
0.0
 11
85.811999999999927
 21
89.000000000000014
 31
0.0
  0
LINE
  5
A6
  8
2
 10
85.000000000000028
 20
87.000000000000014
 30
0.0
 11
95.000000000000085
 21
87.000000000000014
 31
0.0
  0
LINE
  5
A7
  8
2
 10
85.811999999999927
 20
89.000000000000014
 30
0.0
 11
94.188000000000216
 21
89.0
 31
0.0
  0
LINE
  5
A8
  8
2
 10
85.811999999999585
 20
88.999999999999957
 30
0.0
 11
89.999999999999801
 21
91.516404272487591
 31
0.0
  0
LINE
  5
A9
  8
2
 10
84.999999999999616
 20
87.000000000000014
 30
0.0
 11
85.811999999999472
 21
88.406425255745674
 31
0.0
  0
LINE
  5
AA
  8
2
 10
94.188000000000173
 20
71.500000000000028
 30
0.0
 11
85.811999999999898
 21
71.500000000000014
 31
0.0
  0
LINE
  5
AB
  8
2
 10
84.311999999999841
 20
69.999999999999957
 30
0.0
 11
85.811999999999898
 21
71.500000000000014
 31
0.0
  0
LINE
  5
AC
  8
0
 10
97.500000000000028
 20
70.000000000000028
 30
0.0
 11
82.5
 21
70.000000000000014
 31
0.0
  0
LINE
  5
AD
  8
0
 10
103.25
 20
100.0
 30
0.0
 11
76.750000000000085
 21
100.0
 31
0.0
  0
LINE
  5
AE
  8
1
 10
90.000000000000057
 20
110.0000000000001
 30
0.0
 11
90.000000000000028
 21
65.000000000000014
 31
0.0
  0
LINE
  5
AF
  8
0
 10
105.0
 20
70.300000000000011
 30
0.0
 11
75.0
 21
70.300000000000011
 31
0.0
  0
LINE
  5
B0
  8
0
 10
106.0
 20
82.450986404836783
 30
0.0
 11
106.0
 21
71.300000000000011
 31
0.0
  0
LINE
  5
B1
  8
0
 10
74.0
 20
82.514729038120478
 30
0.0
 11
74.0
 21
71.300000000000026
 31
0.0
  0
LINE
  5
B2
  8
0
 10
106.0
 20
71.300000000000011
 30
0.0
 11
105.0
 21
70.300000000000011
 31
0.0
  0
LINE
  5
B3
  8
0
 10
75.0
 20
70.300000000000026
 30
0.0
 11
74.0
 21
71.300000000000026
 31
0.0
  0
LINE
  5
B4
  8
2
 10
96.5
 20
94.999999999999986
 30
0.0
 11
83.500000000000057
 21
95.000000000000057
 31
0.0
  0
LINE
  5
B5
  8
0
 10
103.3595192161665
 20
99.890480783833425
 30
0.0
 11
103.25
 21
100.0
 31
0.0
  0
LINE
  5
B6
  8
2
 10
97.5
 20
93.999999999999957
 30
0.0
 11
96.5
 21
94.999999999999986
 31
0.0
  0
LINE
  5
B7
  8
2
 10
83.500000000000057
 20
95.000000000000057
 30
0.0
 11
82.500000000000057
 21
94.000000000000028
 31
0.0
  0
LINE
  5
B8
  8
0
 10
52.769370901081842
 20
102.0
 30
0.0
 11
52.769370901081849
 21
95.424535862863095
 31
0.0
  0
LINE
  5
B9
  8
0
 10
58.71937090053666
 20
104.0
 30
0.0
 11
58.71937090053666
 21
94.496629420043746
 31
0.0
  0
LINE
  5
BA
  8
0
 10
58.300058134370857
 20
105.0
 30
0.0
 11
55.769370901081849
 21
105.0
 31
0.0
  0
LINE
  5
BB
  8
0
 10
57.719370900536347
 20
93.496629420043703
 30
0.0
 11
55.176411940871972
 21
93.496629420043703
 31
0.0
  0
ARC
  5
BC
  8
0
 10
55.769370901081842
 20
102.0
 30
0.0
 40
3.0
 50
89.999999999999872
 51
179.99999999999989
  0
LINE
  5
BD
  8
0
 10
72.83089567935842
 20
84.333963044515343
 30
0.0
 11
54.523027382044198
 21
92.695684853270805
 31
0.0
  0
ARC
  5
BE
  8
0
 10
72.0
 20
82.514729038120478
 30
0.0
 40
2.0
 50
0.0
 51
65.452477755107338
  0
LINE
  5
BF
  8
0
 10
76.640480783833482
 20
99.890480783833425
 30
0.0
 11
76.750000000000057
 21
100.0
 31
0.0
  0
LINE
  5
C0
  8
0
 10
59.122614283271062
 20
104.88503056862589
 30
0.0
 11
87.806516936266121
 21
96.706912541643234
 31
0.0
  0
LINE
  5
C1
  8
0
 10
120.8773857167289
 20
104.88503056862589
 30
0.0
 11
92.193483063733993
 21
96.706912541643234
 31
0.0
  0
ARC
  5
C2
  8
0
 10
90.000000000000057
 20
104.4003273913125
 30
0.0
 40
8.0
 50
254.0865258022769
 51
285.91347419772302
  0
LINE
  5
C3
  8
0
 10
59.71937090053666
 20
103.1551127371814
 30
0.0
 11
87.395238861816011
 21
95.264397257330245
 31
0.0
  0
LINE
  5
C4
  8
0
 10
120.2806290994634
 20
103.1551127371814
 30
0.0
 11
92.604761138184116
 21
95.264397257330245
 31
0.0
  0
ARC
  5
C5
  8
0
 10
58.300058134370822
 20
102.0
 30
0.0
 40
3.0
 50
74.086525802276896
 51
89.999999999999716
  0
ARC
  5
C6
  8
0
 10
55.769370901081849
 20
95.424535862863095
 30
0.0
 40
3.0
 50
180.0
 51
245.45247775510731
  0
LINE
  5
C7
  8
0
 10
58.71937090053666
 20
93.496629420043703
 30
0.0
 11
84.573356425956888
 21
84.218582937558693
 31
0.0
  0
LINE
  5
C8
  8
0
 10
86.861551040634154
 20
84.326629412619639
 30
0.0
 11
88.725121803831001
 21
85.201497988005841
 31
0.0
  0
LINE
  5
C9
  8
0
 10
91.274878162412378
 20
85.201497973948591
 30
0.0
 11
93.138448878436819
 21
84.326629408380072
 31
0.0
  0
ARC
  5
CA
  8
0
 10
124.2306290989182
 20
95.424535862863095
 30
0.0
 40
3.0
 50
294.54752224489278
 51
360.0
  0
ARC
  5
CB
  8
0
 10
121.6999418656292
 20
102.0
 30
0.0
 40
3.0
 50
90.000000000000298
 51
105.9134741977231
  0
ARC
  5
CC
  8
0
 10
124.2306290989182
 20
102.0
 30
0.0
 40
3.0
 50
0.0000000000000763
 51
90.000000000000156
  0
LINE
  5
CD
  8
0
 10
122.2806290994637
 20
93.496629420043703
 30
0.0
 11
124.8235880591281
 21
93.496629420043703
 31
0.0
  0
LINE
  5
CE
  8
0
 10
121.6999418656292
 20
105.0
 30
0.0
 11
124.2306290989182
 21
105.0
 31
0.0
  0
LINE
  5
CF
  8
0
 10
121.2806290994634
 20
104.0
 30
0.0
 11
121.2806290994634
 21
94.496629420043746
 31
0.0
  0
LINE
  5
D0
  8
0
 10
127.2306290989182
 20
102.0
 30
0.0
 11
127.2306290989182
 21
95.424535862863095
 31
0.0
  0
LINE
  5
D1
  8
0
 10
121.2806290994634
 20
93.496629420043703
 30
0.0
 11
95.426643523057635
 21
84.218582919261863
 31
0.0
  0
LINE
  5
D2
  8
0
 10
107.16910432064159
 20
84.333963044515343
 30
0.0
 11
125.47697261795579
 21
92.695684853270805
 31
0.0
  0
ARC
  5
D3
  8
0
 10
108.0
 20
82.514729038120478
 30
0.0
 40
2.0
 50
114.5475222448927
 51
180.0
  0
ARC
  5
D4
  8
0
 10
85.586672876315205
 20
87.042266661248945
 30
0.0
 40
3.0
 50
250.25880058682571
 51
295.1480928395257
  0
ARC
  5
D5
  8
0
 10
94.413327072699303
 20
87.042266642952114
 30
0.0
 40
3.0
 50
244.85190652871091
 51
289.74119941317417
  0
ARC
  5
D6
  8
0
 10
89.999999968149893
 20
82.485860739376577
 30
0.0
 40
3.0
 50
64.851906528710913
 51
115.1480928395256
  0
LINE
  5
D7
  8
0
 10
82.779194126945285
 20
83.800000000000026
 30
0.0
 11
74.710733951266491
 21
83.80000000000004
 31
0.0
  0
LINE
  5
D8
  8
0
 10
300.71605798109391
 20
83.80000000000004
 30
0.0
 11
279.2839420189062
 21
83.80000000000004
 31
0.0
  0
ARC
  5
D9
  8
0
 10
255.7693709010818
 20
95.424535862863095
 30
0.0
 40
3.0
 50
180.0
 51
245.45247775510731
  0
LINE
  5
DA
  8
0
 10
275.75
 20
99.0
 30
0.0
 11
276.75
 21
100.0
 31
0.0
  0
ARC
  5
DB
  8
0
 10
272.0
 20
82.514729038120478
 30
0.0
 40
2.0
 50
0.0
 51
65.452477755107338
  0
LINE
  5
DC
  8
0
 10
272.83089567935838
 20
84.333963044515343
 30
0.0
 11
254.52302738204421
 21
92.695684853270805
 31
0.0
  0
LINE
  5
DD
  8
0
 10
252.76937090108191
 20
102.0000019073487
 30
0.0
 11
252.76937090108191
 21
95.424535862863095
 31
0.0
  0
LINE
  5
DE
  8
2
 10
283.5
 20
95.000000000000057
 30
0.0
 11
282.50000000000011
 21
94.000000000000028
 31
0.0
  0
LINE
  5
DF
  8
2
 10
297.5
 20
93.999999999999957
 30
0.0
 11
296.5
 21
94.999999999999986
 31
0.0
  0
LINE
  5
E0
  8
0
 10
304.24999999999937
 20
99.0
 30
0.0
 11
303.25
 21
100.0
 31
0.0
  0
LINE
  5
E1
  8
2
 10
296.5
 20
94.999999999999986
 30
0.0
 11
283.5
 21
95.000000000000057
 31
0.0
  0
LINE
  5
E2
  8
0
 10
275.0
 20
70.300000000000026
 30
0.0
 11
274.0
 21
71.300000000000026
 31
0.0
  0
LINE
  5
E3
  8
0
 10
306.0
 20
71.300000000000011
 30
0.0
 11
305.0
 21
70.300000000000011
 31
0.0
  0
LINE
  5
E4
  8
0
 10
274.0
 20
82.514729038120478
 30
0.0
 11
274.0
 21
71.300000000000026
 31
0.0
  0
LINE
  5
E5
  8
0
 10
305.0
 20
70.300000000000011
 30
0.0
 11
275.0
 21
70.300000000000011
 31
0.0
  0
LINE
  5
E6
  8
1
 10
290.0
 20
110.0000000000001
 30
0.0
 11
290.0
 21
65.000000000000014
 31
0.0
  0
LINE
  5
E7
  8
0
 10
303.25
 20
100.0
 30
0.0
 11
300.43916985620382
 21
100.0
 31
0.0
  0
LINE
  5
E8
  8
0
 10
297.5
 20
70.000000000000028
 30
0.0
 11
282.5
 21
70.000000000000014
 31
0.0
  0
LINE
  5
E9
  8
2
 10
284.31199999999978
 20
69.999999999999957
 30
0.0
 11
285.8119999999999
 21
71.500000000000014
 31
0.0
  0
LINE
  5
EA
  8
2
 10
294.18800000000022
 20
71.500000000000028
 30
0.0
 11
285.8119999999999
 21
71.500000000000014
 31
0.0
  0
LINE
  5
EB
  8
2
 10
284.9999999999996
 20
87.000000000000014
 30
0.0
 11
285.8119999999995
 21
88.406425255745674
 31
0.0
  0
LINE
  5
EC
  8
2
 10
285.8119999999995
 20
88.999999999999957
 30
0.0
 11
289.99999999999977
 21
91.516404272487591
 31
0.0
  0
LINE
  5
ED
  8
2
 10
285.8119999999999
 20
89.000000000000014
 30
0.0
 11
294.18800000000022
 21
89.0
 31
0.0
  0
LINE
  5
EE
  8
2
 10
285.0
 20
87.000000000000014
 30
0.0
 11
295.00000000000011
 21
87.000000000000014
 31
0.0
  0
LINE
  5
EF
  8
2
 10
285.8119999999999
 20
71.500000000000071
 30
0.0
 11
285.8119999999999
 21
89.000000000000014
 31
0.0
  0
LINE
  5
F0
  8
2
 10
285.0
 20
70.688000000000116
 30
0.0
 11
285.0
 21
87.000000000000014
 31
0.0
  0
LINE
  5
F1
  8
2
 10
295.00000000000011
 20
70.688000000000116
 30
0.0
 11
295.00000000000011
 21
87.000000000000014
 31
0.0
  0
LINE
  5
F2
  8
2
 10
294.18800000000022
 20
71.500000000000071
 30
0.0
 11
294.18800000000022
 21
89.000000000000014
 31
0.0
  0
LINE
  5
F3
  8
2
 10
295.0000000000004
 20
87.000000000000014
 30
0.0
 11
294.18800000000073
 21
88.406425255745674
 31
0.0
  0
LINE
  5
F4
  8
2
 10
295.68800000000027
 20
69.999999999999957
 30
0.0
 11
294.18800000000022
 21
71.500000000000014
 31
0.0
  0
LINE
  5
F5
  8
2
 10
294.18800000000061
 20
88.999999999999957
 30
0.0
 11
290.00000000000028
 21
91.516404272487591
 31
0.0
  0
LINE
  5
F6
  8
0
 10
282.5
 20
70.300000000000011
 30
0.0
 11
282.5
 21
70.000000000000014
 31
0.0
  0
LINE
  5
F7
  8
2
 10
282.5
 20
70.300000000000011
 30
0.0
 11
282.50000000000011
 21
94.000000000000057
 31
0.0
  0
LINE
  5
F8
  8
0
 10
297.5
 20
70.300000000000011
 30
0.0
 11
297.5
 21
70.000000000000028
 31
0.0
  0
LINE
  5
F9
  8
2
 10
297.5
 20
70.300000000000011
 30
0.0
 11
297.5
 21
94.000000000000028
 31
0.0
  0
LINE
  5
FA
  8
0
 10
274.0
 20
71.30000000000004
 30
0.0
 11
306.0
 21
71.299999999999983
 31
0.0
  0
LINE
  5
FB
  8
0
 10
304.24999999999937
 20
99.0
 30
0.0
 11
301.73204006226632
 21
99.0
 31
0.0
  0
LINE
  5
FC
  8
0
 10
287.05000000147419
 20
105.0000000000001
 30
0.0
 11
292.94999999999987
 21
105.0000000000001
 31
0.0
  0
LINE
  5
FD
  8
0
 10
284.05000000147419
 20
102.0000000000001
 30
0.0
 11
284.05000000147419
 21
96.496629420043718
 31
0.0
  0
LINE
  5
FE
  8
0
 10
295.94999999999987
 20
102.0000000000001
 30
0.0
 11
295.94999999999982
 21
96.496629420043718
 31
0.0
  0
LINE
  5
FF
  8
0
 10
287.05000000147419
 20
93.496629420043703
 30
0.0
 11
292.94999999999982
 21
93.496629420043732
 31
0.0
  0
ARC
  5
100
  8
0
 10
287.05000000147419
 20
102.0000000000001
 30
0.0
 40
3.0
 50
90.0
 51
179.9999999999998
  0
ARC
  5
101
  8
0
 10
292.94999999999987
 20
102.0000000000001
 30
0.0
 40
3.0
 50
0.0
 51
90.0
  0
ARC
  5
102
  8
0
 10
255.76937090108191
 20
102.0000000000001
 30
0.0
 40
3.0
 50
69.769173170575471
 51
179.99996357232411
  0
LINE
  5
103
  8
0
 10
274.87526796009359
 20
98.155997150416923
 30
0.0
 11
256.80677680081021
 21
104.8149225565207
 31
0.0
  0
LINE
  5
104
  8
0
 10
285.21454991497149
 20
104.37299873155411
 30
0.0
 11
277.7481239463246
 21
98.597920975383545
 31
0.0
  0
LINE
  5
105
  8
0
 10
275.91535256081659
 20
96.174063442122446
 30
0.0
 11
256.28807385094598
 21
103.4074612782604
 31
0.0
  0
ARC
  5
106
  8
0
 10
275.91267385982189
 20
100.97091970693759
 30
0.0
 40
3.0
 50
249.7692415312994
 51
307.72097811209488
  0
LINE
  5
107
  8
0
 10
275.75
 20
99.0
 30
0.0
 11
275.75
 21
97.975333417856135
 31
0.0
  0
LINE
  5
108
  8
0
 10
304.25000000000011
 20
99.0
 30
0.0
 11
304.25000000000011
 21
97.975333417856135
 31
0.0
  0
ARC
  5
109
  8
0
 10
304.08732614017822
 20
100.97091970693759
 30
0.0
 40
3.0
 50
232.2790218879052
 51
290.23075846870063
  0
LINE
  5
10A
  8
0
 10
304.08464743918353
 20
96.174063442122446
 30
0.0
 11
323.71192614905408
 21
103.4074612782604
 31
0.0
  0
LINE
  5
10B
  8
0
 10
305.12473203990658
 20
98.155997150416923
 30
0.0
 11
323.1932231991899
 21
104.8149225565207
 31
0.0
  0
ARC
  5
10C
  8
0
 10
324.23062909891831
 20
102.0000000000001
 30
0.0
 40
3.0
 50
0.0000364276758703
 51
110.2308268294245
  0
LINE
  5
10D
  8
0
 10
327.2306290989182
 20
102.0000019073487
 30
0.0
 11
327.2306290989182
 21
95.424535862863095
 31
0.0
  0
LINE
  5
10E
  8
0
 10
307.16910432064168
 20
84.333963044515343
 30
0.0
 11
325.47697261795588
 21
92.695684853270805
 31
0.0
  0
ARC
  5
10F
  8
0
 10
308.00000000000011
 20
82.514729038120478
 30
0.0
 40
2.0
 50
114.5475222448927
 51
180.0
  0
ARC
  5
110
  8
0
 10
324.23062909891831
 20
95.424535862863095
 30
0.0
 40
3.0
 50
294.54752224489278
 51
360.0
  0
LINE
  5
111
  8
0
 10
294.78545008502857
 20
104.37299873155411
 30
0.0
 11
302.25187605367552
 21
98.597920975383545
 31
0.0
  0
LINE
  5
112
  8
0
 10
279.56083014379641
 20
100.0
 30
0.0
 11
276.75000000000011
 21
100.0
 31
0.0
  0
LINE
  5
113
  8
0
 10
278.26795993773402
 20
99.0
 30
0.0
 11
275.75
 21
99.0
 31
0.0
  0
LINE
  5
114
  8
0
 10
273.19809299215478
 20
85.81529932662778
 30
0.0
 11
255.14619914156299
 21
94.06011035806695
 31
0.0
  0
LINE
  5
115
  8
0
 10
274.87256418067642
 20
85.574856363131147
 30
0.0
 11
275.02747544994901
 21
85.597192245428928
 31
0.0
  0
LINE
  5
116
  8
0
 10
278.49096047328311
 20
86.193497686680828
 30
0.0
 11
283.8515007732716
 21
94.094629693319646
 31
0.0
  0
LINE
  5
117
  8
0
 10
277.88506136145088
 20
83.519283073573519
 30
0.0
 11
284.5636971807794
 21
93.363213028338251
 31
0.0
  0
ARC
  5
118
  8
0
 10
274.44443651119252
 20
88.544150336220071
 30
0.0
 40
3.0
 50
245.45247775510731
 51
278.20464779179912
  0
ARC
  5
119
  8
0
 10
275.31289389627148
 20
83.617662930036303
 30
0.0
 40
2.0
 50
67.61949132254486
 51
98.204647791799118
  0
ARC
  5
11A
  8
0
 10
276.83591723654177
 20
87.316365392386786
 30
0.0
 40
2.0
 50
247.61949132254529
 51
325.84498366966289
  0
ARC
  5
11B
  8
0
 10
303.16408276345823
 20
87.316365392386786
 30
0.0
 40
2.0
 50
214.15501633033719
 51
292.38050867745483
  0
ARC
  5
11C
  8
0
 10
304.68710610372852
 20
83.617662930036303
 30
0.0
 40
2.0
 50
81.795352208200896
 51
112.3805086774551
  0
ARC
  5
11D
  8
0
 10
305.55556348880759
 20
88.544150336220071
 30
0.0
 40
3.0
 50
261.795352208201
 51
294.54752224489278
  0
LINE
  5
11E
  8
0
 10
305.12743581932358
 20
85.574856363131147
 30
0.0
 11
304.97252455005111
 21
85.597192245428928
 31
0.0
  0
LINE
  5
11F
  8
0
 10
301.509039526717
 20
86.193497686680828
 30
0.0
 11
296.14849922742798
 21
94.094629692288621
 31
0.0
  0
LINE
  5
120
  8
0
 10
302.11493863854912
 20
83.519283073573519
 30
0.0
 11
295.43630281973611
 21
93.363213027578425
 31
0.0
  0
LINE
  5
121
  8
0
 10
306.80190700784522
 20
85.81529932662778
 30
0.0
 11
324.85380085843701
 21
94.06011035806695
 31
0.0
  0
LINE
  5
122
  8
0
 10
306.0
 20
82.514729038120478
 30
0.0
 11
306.0
 21
71.300000000000026
 31
0.0
  0
ARC
  5
123
  8
0
 10
287.05000000147419
 20
96.496629420043718
 30
0.0
 40
3.0
 50
180.0
 51
269.99999999999989
  0
ARC
  5
124
  8
0
 10
292.94999999999982
 20
96.496629420043746
 30
0.0
 40
3.0
 50
270.0
 51
359.99999999999972
  0
LINE
  5
12C
  8
0
 10
85.214549914971485
 20
104.37299873155411
 30
0.0
 11
79.560830143796352
 21
100.0
 31
0.0
  0
ARC
  5
12D
  8
0
 10
87.050000001474189
 20
102.0000000000001
 30
0.0
 40
3.0
 50
90.0
 51
127.7209781120817
  0
LINE
  5
12E
  8
0
 10
87.050000001474189
 20
105.0000000000001
 30
0.0
 11
92.949999999999875
 21
105.0000000000001
 31
0.0
  0
ARC
  5
12F
  8
0
 10
92.949999999999875
 20
102.0000000000001
 30
0.0
 40
3.0
 50
52.277616767189663
 51
90.0
  0
LINE
  5
130
  8
0
 10
94.785450085028614
 20
104.37299873155411
 30
0.0
 11
100.4391698562038
 21
99.999999999999986
 31
0.0
  0
TEXT
  5
27B
  8
0
 62
     3
 10
0.0
 20
0.0
 30
0.0
 40
10.0
  1
TAK80NB
  7
STANDARD1
  0
ENDSEC
  0
EOF
