  0
SECTION
  2
HEADER
  9
$ACADVER
  1
AC1009
  9
$INSBASE
 10
0.0
 20
0.0
 30
0.0
  9
$EXTMIN
 10
0.0
 20
-2.960436562073669
 30
0.0
  9
$EXTMAX
 10
288.92087899078319
 20
216.5
 30
0.0
  9
$LIMMIN
 10
0.0
 20
0.0
  9
$LIMMAX
 10
375.0
 20
270.0
  9
$ORTHOMODE
 70
     1
  9
$REGENMODE
 70
     1
  9
$FILLMODE
 70
     1
  9
$QTEXTMODE
 70
     0
  9
$MIRRTEXT
 70
     0
  9
$DRAGMODE
 70
     2
  9
$LTSCALE
 40
10.0
  9
$OSMODE
 70
    55
  9
$ATTMODE
 70
     1
  9
$TEXTSIZE
 40
0.2
  9
$TRACEWID
 40
0.05
  9
$TEXTSTYLE
  7
STANDARD
  9
$CLAYER
  8
0
  9
$CELTYPE
  6
BYLAYER
  9
$CECOLOR
 62
   256
  9
$DIMSCALE
 40
1.0
  9
$DIMASZ
 40
3.0
  9
$DIMEXO
 40
2.0
  9
$DIMDLI
 40
0.38
  9
$DIMRND
 40
0.0
  9
$DIMDLE
 40
0.0
  9
$DIMEXE
 40
2.0
  9
$DIMTP
 40
0.0
  9
$DIMTM
 40
0.0
  9
$DIMTXT
 40
3.2000000000000002
  9
$DIMCEN
 40
0.0
  9
$DIMTSZ
 40
0.0
  9
$DIMTOL
 70
     0
  9
$DIMLIM
 70
     0
  9
$DIMTIH
 70
     0
  9
$DIMTOH
 70
     0
  9
$DIMSE1
 70
     0
  9
$DIMSE2
 70
     0
  9
$DIMTAD
 70
     1
  9
$DIMZIN
 70
     0
  9
$DIMBLK
  1

  9
$DIMASO
 70
     1
  9
$DIMSHO
 70
     0
  9
$DIMPOST
  1

  9
$DIMAPOST
  1

  9
$DIMALT
 70
     0
  9
$DIMALTD
 70
     2
  9
$DIMALTF
 40
25.399999999999999
  9
$DIMLFAC
 40
1.0
  9
$DIMTOFL
 70
     1
  9
$DIMTVP
 40
1.6000000000000001
  9
$DIMTIX
 70
     1
  9
$DIMSOXD
 70
     0
  9
$DIMSAH
 70
     0
  9
$DIMBLK1
  1

  9
$DIMBLK2
  1

  9
$DIMSTYLE
  2
STANDARD
  9
$DIMCLRD
 70
     0
  9
$DIMCLRE
 70
     0
  9
$DIMCLRT
 70
     0
  9
$DIMTFAC
 40
1.0
  9
$DIMGAP
 40
0.09
  9
$LUNITS
 70
     2
  9
$LUPREC
 70
     4
  9
$SKETCHINC
 40
0.1
  9
$FILLETRAD
 40
2.0
  9
$AUNITS
 70
     0
  9
$AUPREC
 70
     4
  9
$MENU
  1
E:\r13\win\SUPPORT\ACAD
  9
$ELEVATION
 40
0.0
  9
$PELEVATION
 40
0.0
  9
$THICKNESS
 40
0.0
  9
$LIMCHECK
 70
     0
  9
$BLIPMODE
 70
     0
  9
$CHAMFERA
 40
0.0
  9
$CHAMFERB
 40
0.0
  9
$SKPOLY
 70
     0
  9
$TDCREATE
 40
2449839.7893750002
  9
$TDUPDATE
 40
2456598.4230876272
  9
$TDINDWG
 40
0.0001645486
  9
$TDUSRTIMER
 40
0.0001645486
  9
$USRTIMER
 70
     1
  9
$ANGBASE
 50
0.0
  9
$ANGDIR
 70
     0
  9
$PDMODE
 70
     0
  9
$PDSIZE
 40
0.0
  9
$PLINEWID
 40
0.0
  9
$COORDS
 70
     1
  9
$SPLFRAME
 70
     0
  9
$SPLINETYPE
 70
     6
  9
$SPLINESEGS
 70
     8
  9
$ATTDIA
 70
     0
  9
$ATTREQ
 70
     1
  9
$HANDLING
 70
     1
  9
$HANDSEED
  5
30B
  9
$SURFTAB1
 70
     6
  9
$SURFTAB2
 70
     6
  9
$SURFTYPE
 70
     6
  9
$SURFU
 70
     6
  9
$SURFV
 70
     6
  9
$UCSNAME
  2

  9
$UCSORG
 10
0.0
 20
0.0
 30
0.0
  9
$UCSXDIR
 10
1.0
 20
0.0
 30
0.0
  9
$UCSYDIR
 10
0.0
 20
1.0
 30
0.0
  9
$PUCSNAME
  2

  9
$PUCSORG
 10
0.0
 20
0.0
 30
0.0
  9
$PUCSXDIR
 10
1.0
 20
0.0
 30
0.0
  9
$PUCSYDIR
 10
0.0
 20
1.0
 30
0.0
  9
$USERI1
 70
     0
  9
$USERI2
 70
     1
  9
$USERI3
 70
     1
  9
$USERI4
 70
     0
  9
$USERI5
 70
     0
  9
$USERR1
 40
0.0
  9
$USERR2
 40
0.0
  9
$USERR3
 40
0.0
  9
$USERR4
 40
0.0
  9
$USERR5
 40
0.0
  9
$WORLDVIEW
 70
     1
  9
$SHADEDGE
 70
     3
  9
$SHADEDIF
 70
    70
  9
$TILEMODE
 70
     1
  9
$MAXACTVP
 70
    16
  9
$PLIMCHECK
 70
     0
  9
$PEXTMIN
 10
1.0000000000000000E+020
 20
1.0000000000000000E+020
 30
1.0000000000000000E+020
  9
$PEXTMAX
 10
-1.0000000000000000E+020
 20
-1.0000000000000000E+020
 30
-1.0000000000000000E+020
  9
$PLIMMIN
 10
0.0
 20
0.0
  9
$PLIMMAX
 10
12.0
 20
9.0
  9
$UNITMODE
 70
     0
  9
$VISRETAIN
 70
     0
  9
$PLINEGEN
 70
     0
  9
$PSLTSCALE
 70
     0
  0
ENDSEC
  0
SECTION
  2
TABLES
  0
TABLE
  2
VPORT
 70
     1
  0
VPORT
  2
*ACTIVE
 70
     0
 10
0.0
 20
0.0
 11
1.0
 21
1.0
 12
187.4942783906524
 22
197.0509055860143
 13
0.0
 23
0.0
 14
10.0
 24
10.0
 15
10.0
 25
10.0
 16
0.0
 26
0.0
 36
1.0
 17
0.0
 27
0.0
 37
0.0
 40
403.57315882993248
 41
1.7807262569832401
 42
50.0
 43
0.0
 44
0.0
 50
0.0
 51
0.0
 71
     0
 72
   500
 73
     1
 74
     0
 75
     0
 76
     0
 77
     0
 78
     2
  0
ENDTAB
  0
TABLE
  2
LTYPE
 70
     4
  0
LTYPE
  2
CONTINUOUS
 70
     0
  3
Solid Line
 72
    65
 73
     0
 40
0.0
  0
LTYPE
  2
CENTER
 70
     0
  3
____ _ ____ _ ____ _ ____ _ ____ _ ____ _ ____
 72
    65
 73
     4
 40
2.0
 49
1.25
 49
-0.25
 49
0.25
 49
-0.25
  0
LTYPE
  2
HIDDEN
 70
     0
  3
_ _ _ _ _ _ _ _ _ _ _ _ _ _ _ _ _ _ _ _ _ _ _
 72
    65
 73
     2
 40
0.375
 49
0.25
 49
-0.125
  0
LTYPE
  2
PHANTOM2
 70
     0
  3
___ _ _ ___ _ _ ___ _ _ ___ _ _
 72
    65
 73
     6
 40
1.25
 49
0.625
 49
-0.125
 49
0.125
 49
-0.125
 49
0.125
 49
-0.125
  0
ENDTAB
  0
TABLE
  2
LAYER
 70
     3
  0
LAYER
  2
0
 70
     0
 62
     7
  6
CONTINUOUS
  0
LAYER
  2
1
 70
     0
 62
     1
  6
CENTER
  0
LAYER
  2
2
 70
     0
 62
     2
  6
HIDDEN
  0
ENDTAB
  0
TABLE
  2
STYLE
 70
     2
  0
STYLE
  2
STANDARD
 70
     0
 40
0.0
 41
1.0
 50
0.0
 71
     0
 42
0.2
  3
TXT
  4
BIGFONT
  0
STYLE
  2
STANDARD1
 70
     0
 40
0.0
 41
1.0
 50
0.0
 71
     0
 42
3.0
  3
txt
  4

  0
ENDTAB
  0
TABLE
  2
VIEW
 70
     1
  0
VIEW
  2
ALL
 70
     0
 40
270.0
 10
220.99159663865549
 20
135.0
 41
0.0
 11
0.0
 21
0.0
 31
1.0
 12
0.0
 22
0.0
 32
0.0
 42
0.0
 43
0.0
 44
0.0
 50
0.0
 71
     0
  0
ENDTAB
  0
TABLE
  2
UCS
 70
     0
  0
ENDTAB
  0
TABLE
  2
APPID
 70
     3
  0
APPID
  2
ACAD
 70
     0
  0
APPID
  2
ACAD_MLEADERVER
 70
     0
  0
APPID
  2
ACAD_NAV_VCDISPLAY
 70
     0
  0
ENDTAB
  0
TABLE
  2
DIMSTYLE
 70
     1
  0
DIMSTYLE
  2
STANDARD
 70
     0
  3

  4

  5

  6

  7

 40
1.0
 41
0.18
 42
0.0625
 43
0.38
 44
0.18
 45
0.0
 46
0.0
 47
0.0
 48
0.0
140
0.18
141
0.09
142
0.0
143
25.399999999999999
144
1.0
145
0.0
146
1.0
147
0.09
 71
     0
 72
     0
 73
     1
 74
     1
 75
     0
 76
     0
 77
     0
 78
     0
170
     0
171
     2
172
     0
173
     0
174
     0
175
     0
176
     0
177
     0
178
     0
  0
ENDTAB
  0
ENDSEC
  0
SECTION
  2
BLOCKS
  0
BLOCK
  8
0
  2
$MODEL_SPACE
 70
     0
 10
0.0
 20
0.0
 30
0.0
  3
$MODEL_SPACE
  1

  0
ENDBLK
  5
18C
  8
0
  0
BLOCK
 67
     1
  8
0
  2
$PAPER_SPACE
 70
     0
 10
0.0
 20
0.0
 30
0.0
  3
$PAPER_SPACE
  1

  0
ENDBLK
  5
18A
 67
     1
  8
0
  0
ENDSEC
  0
SECTION
  2
ENTITIES
  0
LINE
  5
35
  8
2
 10
96.0
 20
80.523500000000055
 30
0.0
 11
96.0
 21
95.0
 31
0.0
  0
LINE
  5
36
  8
2
 10
96.676499999999891
 20
81.199999999999974
 30
0.0
 11
96.676499999999891
 21
97.0
 31
0.0
  0
LINE
  5
37
  8
2
 10
103.3235000000001
 20
81.199999999999974
 30
0.0
 11
103.3235000000001
 21
97.0
 31
0.0
  0
LINE
  5
38
  8
2
 10
104.0
 20
80.523500000000055
 30
0.0
 11
104.0
 21
95.0
 31
0.0
  0
LINE
  5
39
  8
2
 10
103.3235000000001
 20
97.0
 30
0.0
 11
100.0
 21
98.996960267338238
 31
0.0
  0
LINE
  5
3A
  8
2
 10
96.676499999999834
 20
97.0
 30
0.0
 11
100.0
 21
98.996960267338238
 31
0.0
  0
LINE
  5
3B
  8
2
 10
96.0
 20
95.0
 30
0.0
 11
104.0
 21
95.0
 31
0.0
  0
LINE
  5
3C
  8
2
 10
96.676499999999891
 20
97.0
 30
0.0
 11
103.3235000000001
 21
97.0
 31
0.0
  0
LINE
  5
3D
  8
2
 10
104.0
 20
95.0
 30
0.0
 11
103.3235000000001
 21
96.171732371320203
 31
0.0
  0
LINE
  5
3E
  8
2
 10
96.000000000000057
 20
95.0
 30
0.0
 11
96.676499999999976
 21
96.171732371320203
 31
0.0
  0
LINE
  5
3F
  8
2
 10
103.3235
 20
81.200000000000017
 30
0.0
 11
96.676499999999919
 21
81.199999999999974
 31
0.0
  0
LINE
  5
40
  8
2
 10
103.3235
 20
81.200000000000017
 30
0.0
 11
104.5235
 21
79.999999999999986
 31
0.0
  0
LINE
  5
41
  8
2
 10
96.676499999999976
 20
81.200000000000017
 30
0.0
 11
95.476499999999945
 21
79.999999999999986
 31
0.0
  0
ARC
  5
42
  8
0
 10
180.0
 20
180.0
 30
0.0
 40
31.5
 50
354.56302975191028
 51
5.4369702480897599
  0
LINE
  5
43
  8
1
 10
161.75
 20
211.609927238132
 30
0.0
 11
180.0
 21
180.0
 31
0.0
  0
LINE
  5
44
  8
1
 10
161.74999999999989
 20
148.39007276186791
 30
0.0
 11
180.0
 21
180.0
 31
0.0
  0
LINE
  5
45
  8
1
 10
216.5
 20
180.0
 30
0.0
 11
143.5
 21
180.0
 31
0.0
  0
LINE
  5
46
  8
1
 10
180.0
 20
216.5
 30
0.0
 11
180.0
 21
143.5
 31
0.0
  0
LINE
  5
47
  8
0
 10
209.11953949286121
 20
174.39429060043531
 30
0.0
 11
189.8224329308353
 21
169.42766726272541
 31
0.0
  0
LINE
  5
48
  8
0
 10
209.11953949286109
 20
185.60570939956469
 30
0.0
 11
189.822436029215
 21
190.57233193982421
 31
0.0
  0
ARC
  5
49
  8
0
 10
180.0
 20
180.0
 30
0.0
 40
30.5
 50
353.26941551801508
 51
6.7305844819848124
  0
LINE
  5
4A
  8
0
 10
209.17401866304439
 20
175.14851715621299
 30
0.0
 11
189.4503684995953
 21
170.07211148411159
 31
0.0
  0
LINE
  5
4B
  8
0
 10
209.17401866304451
 20
184.8514828437869
 30
0.0
 11
189.45036671074499
 21
189.9278889762964
 31
0.0
  0
ARC
  5
4C
  8
0
 10
208.37177946119661
 20
182.70039445363449
 30
0.0
 40
3.0
 50
5.4369702480897102
 51
75.566666666666919
  0
ARC
  5
4D
  8
0
 10
208.37177946119661
 20
177.2996055463654
 30
0.0
 40
3.0
 50
284.43333333333362
 51
354.56302975190999
  0
ARC
  5
4E
  8
0
 10
208.80013864721221
 20
176.6011746291781
 30
0.0
 40
1.5
 50
284.43333333333339
 51
353.26941551801542
  0
ARC
  5
4F
  8
0
 10
208.80013864721229
 20
183.39882537082181
 30
0.0
 40
1.5
 50
6.7305844819852192
 51
75.566666666666563
  0
ARC
  5
50
  8
0
 10
162.65646156223499
 20
203.24223901558889
 30
0.0
 40
1.5
 50
126.7305844819851
 51
195.56666666666649
  0
ARC
  5
51
  8
0
 10
168.54339979055271
 20
206.64106438641059
 30
0.0
 40
1.5
 50
44.433333333333422
 51
113.26941551801529
  0
ARC
  5
52
  8
0
 10
168.15272046648769
 20
205.92087899078311
 30
0.0
 40
3.0
 50
44.433333333333579
 51
114.56302975190999
  0
ARC
  5
53
  8
0
 10
163.4755000723155
 20
203.22048453714851
 30
0.0
 40
3.0
 50
125.43697024808959
 51
195.56666666666689
  0
ARC
  5
54
  8
0
 10
179.99999999999989
 20
179.99999999999989
 30
0.0
 40
30.5
 50
113.26941551801509
 51
126.73058448198471
  0
ARC
  5
55
  8
0
 10
179.99999999999989
 20
179.99999999999989
 30
0.0
 40
31.5
 50
114.56302975191019
 51
125.43697024808969
  0
LINE
  5
56
  8
0
 10
169.6144980572216
 20
207.69118271457131
 30
0.0
 11
183.87262070405171
 21
193.1482021347322
 31
0.0
  0
LINE
  5
57
  8
0
 10
170.2949169998256
 20
208.0211156471043
 30
0.0
 11
184.2446900225217
 21
193.7926450982599
 31
0.0
  0
LINE
  5
58
  8
0
 10
161.21148327973381
 20
202.83969987078439
 30
0.0
 11
166.6770125852031
 21
183.22031315843569
 31
0.0
  0
LINE
  5
59
  8
0
 10
160.5855435073131
 20
202.41540624753949
 30
0.0
 11
165.93287394826299
 21
183.22031315843569
 31
0.0
  0
ARC
  5
5A
  8
0
 10
168.54339979055251
 20
153.35893561358921
 30
0.0
 40
1.5
 50
246.73058448198529
 51
315.56666666666649
  0
ARC
  5
5B
  8
0
 10
162.65646156223499
 20
156.75776098441111
 30
0.0
 40
1.5
 50
164.43333333333339
 51
233.26941551801539
  0
ARC
  5
5C
  8
0
 10
163.4755000723155
 20
156.77951546285129
 30
0.0
 40
3.0
 50
164.43333333333351
 51
234.56302975191011
  0
ARC
  5
5D
  8
0
 10
168.15272046648781
 20
154.07912100921681
 30
0.0
 40
3.0
 50
245.43697024808969
 51
315.56666666666689
  0
ARC
  5
5E
  8
0
 10
179.99999999999989
 20
179.99999999999989
 30
0.0
 40
30.5
 50
233.26941551801499
 51
246.73058448198469
  0
ARC
  5
5F
  8
0
 10
179.99999999999989
 20
179.99999999999989
 30
0.0
 40
31.5
 50
234.56302975191031
 51
245.43697024808949
  0
LINE
  5
60
  8
0
 10
161.21148327973381
 20
157.16030012921561
 30
0.0
 11
166.6770125852031
 21
176.7796868415642
 31
0.0
  0
LINE
  5
61
  8
0
 10
160.5855435073131
 20
157.58459375246019
 30
0.0
 11
165.93287394826299
 21
176.7796868415642
 31
0.0
  0
LINE
  5
62
  8
0
 10
169.6144980572214
 20
152.30881728542849
 30
0.0
 11
183.87262303961009
 21
166.85180024748749
 31
0.0
  0
LINE
  5
63
  8
0
 10
170.2949169998256
 20
151.9788843528957
 30
0.0
 11
184.24469192949709
 21
166.20735684681429
 31
0.0
  0
ARC
  5
64
  8
0
 10
192.8134761558731
 20
202.19359172354481
 30
0.0
 40
12.0
 50
224.43333333333331
 51
255.56666666666669
  0
ARC
  5
65
  8
0
 10
192.81347615587299
 20
157.80640827645519
 30
0.0
 40
12.0
 50
104.4333333333331
 51
135.5666666666668
  0
ARC
  5
66
  8
0
 10
154.37304768825351
 20
180.0
 30
0.0
 40
12.0
 50
344.43333333333322
 51
15.566666666666681
  0
ARC
  5
67
  8
0
 10
192.44140683740309
 20
201.549148760017
 30
0.0
 40
12.0
 50
224.4333333333332
 51
255.56666666666669
  0
ARC
  5
68
  8
0
 10
155.11718632519359
 20
180.0
 30
0.0
 40
12.0
 50
344.43333333333328
 51
15.566666666666579
  0
ARC
  5
69
  8
0
 10
192.44140683740301
 20
158.45085123998291
 30
0.0
 40
12.0
 50
104.4333333333332
 51
135.56666666666669
  0
CIRCLE
  5
6A
  8
0
 10
180.0
 20
180.0
 30
0.0
 40
12.25
  0
CIRCLE
  5
6B
  8
0
 10
180.0
 20
180.0
 30
0.0
 40
11.25
  0
CIRCLE
  5
6C
  8
0
 10
180.0
 20
180.0
 30
0.0
 40
9.0
  0
LINE
  5
6D
  8
0
 10
187.5
 20
80.0
 30
0.0
 11
172.49999999999989
 21
80.0
 31
0.0
  0
LINE
  5
6E
  8
0
 10
168.26549168977061
 20
108.9999999999999
 30
0.0
 11
162.97550007231541
 21
109.0
 31
0.0
  0
LINE
  5
6F
  8
0
 10
191.24999999999989
 20
105.0
 30
0.0
 11
178.32011822309639
 21
105.0
 31
0.0
  0
LINE
  5
70
  8
1
 10
180.0
 20
110.0
 30
0.0
 11
180.0
 21
75.0
 31
0.0
  0
LINE
  5
71
  8
0
 10
193.5
 20
89.650982966315226
 30
0.0
 11
193.5
 21
81.30000000000004
 31
0.0
  0
LINE
  5
72
  8
0
 10
166.5
 20
90.279200968615939
 30
0.0
 11
166.5
 21
81.300000000000026
 31
0.0
  0
LINE
  5
73
  8
2
 10
107.5
 20
103.0
 30
0.0
 11
92.5
 21
103.0
 31
0.0
  0
LINE
  5
74
  8
0
 10
192.50000000000011
 20
80.300000000000153
 30
0.0
 11
167.5
 21
80.300000000000011
 31
0.0
  0
LINE
  5
75
  8
0
 10
193.5
 20
81.30000000000004
 30
0.0
 11
192.5
 21
80.30000000000004
 31
0.0
  0
LINE
  5
76
  8
0
 10
166.5
 20
81.300000000000026
 30
0.0
 11
167.5
 21
80.300000000000011
 31
0.0
  0
LINE
  5
77
  8
0
 10
194.00084488966101
 20
91.202354470498705
 30
0.0
 11
209.62382209911991
 21
97.51444698874495
 31
0.0
  0
LINE
  5
78
  8
0
 10
211.5
 20
106.5
 30
0.0
 11
211.5
 21
100.2959999515756
 31
0.0
  0
ARC
  5
79
  8
0
 10
209.0
 20
106.5
 30
0.0
 40
2.5
 50
360.0
 51
104.9999999999993
  0
LINE
  5
7A
  8
0
 10
208.3529523872437
 20
108.91481456572259
 30
0.0
 11
185.95751941786759
 21
102.9139763874329
 31
0.0
  0
ARC
  5
7B
  8
0
 10
195.5
 20
89.650982966315226
 30
0.0
 40
2.0
 50
111.9999999999997
 51
180.0
  0
LINE
  5
7C
  8
0
 10
191.7767622067305
 20
104.4732377932694
 30
0.0
 11
191.24999999999989
 21
105.0
 31
0.0
  0
LINE
  5
7D
  8
0
 10
160.47550007231541
 20
106.5
 30
0.0
 11
160.47550007231541
 21
99.353670612109013
 31
0.0
  0
ARC
  5
7E
  8
0
 10
208.5
 20
100.2959976155601
 30
0.0
 40
3.0
 50
291.99999999999977
 51
0.0000000000003422
  0
ARC
  5
7F
  8
0
 10
162.97550007231541
 20
106.5
 30
0.0
 40
2.5
 50
89.999999999999986
 51
180.0
  0
LINE
  5
80
  8
0
 10
184.9596140025605
 20
102.1883190841701
 30
0.0
 11
169.43535154321989
 21
108.7625039227641
 31
0.0
  0
ARC
  5
81
  8
0
 10
168.26549168977061
 20
105.9999999999999
 30
0.0
 40
3.0
 50
67.04840734276118
 51
89.999999999999375
  0
LINE
  5
82
  8
0
 10
166.5
 20
81.299999999999997
 30
0.0
 11
193.5
 21
81.30000000000004
 31
0.0
  0
LINE
  5
83
  8
0
 10
187.5
 20
80.300000000000097
 30
0.0
 11
187.5
 21
80.0
 31
0.0
  0
LINE
  5
84
  8
2
 10
107.5
 20
103.0
 30
0.0
 11
107.5
 21
80.300000000000097
 31
0.0
  0
LINE
  5
85
  8
0
 10
172.49999999999989
 20
80.30000000000004
 30
0.0
 11
172.49999999999989
 21
80.0
 31
0.0
  0
LINE
  5
86
  8
2
 10
92.499999999999986
 20
103.0
 30
0.0
 11
92.499999999999986
 21
80.30000000000004
 31
0.0
  0
LINE
  5
87
  8
0
 10
180.6815155431419
 20
104.0
 30
0.0
 11
190.01061471818741
 21
104.0
 31
0.0
  0
LINE
  5
88
  8
0
 10
167.8745289429142
 20
98.272472065032872
 30
0.0
 11
161.79293961224261
 21
98.272472065032872
 31
0.0
  0
LINE
  5
89
  8
0
 10
178.54249120267011
 20
91.000000000000085
 30
0.0
 11
167.4121210064755
 21
91.000000000000085
 31
0.0
  0
LINE
  5
8A
  8
0
 10
161.16523834362039
 20
97.439854856889255
 30
0.0
 11
166.0401744857966
 21
91.55507813876244
 31
0.0
  0
ARC
  5
8B
  8
0
 10
164.5
 20
90.279200968615939
 30
0.0
 40
2.0
 50
0.0000000000000509
 51
39.638276164952657
  0
LINE
  5
8C
  8
0
 10
168.8745289429142
 20
107.9050127622363
 30
0.0
 11
168.8745289429142
 21
99.272472065032886
 31
0.0
  0
ARC
  5
8D
  8
0
 10
163.47550007231541
 20
99.353670612108999
 30
0.0
 40
3.0
 50
179.9999999999998
 51
219.63827616495249
  0
LINE
  5
8E
  8
0
 10
168.8745289429142
 20
98.272472065032872
 30
0.0
 11
179.77879407955939
 21
91.403051623151697
 31
0.0
  0
LINE
  5
8F
  8
0
 10
191.97088610958519
 20
92.000000000000085
 30
0.0
 11
209.06191220899609
 21
98.905222770595131
 31
0.0
  0
LINE
  5
90
  8
0
 10
208.7411809548974
 20
107.46592582628909
 30
0.0
 11
188.20347581275871
 21
101.96286431906439
 31
0.0
  0
ARC
  5
91
  8
0
 10
186.9093788076656
 20
106.79249297367259
 30
0.0
 40
5.0
 50
247.04840734276121
 51
285.00000000000011
  0
ARC
  5
92
  8
0
 10
184.663424192355
 20
107.7436055188783
 30
0.0
 40
5.0
 50
247.04840734276121
 51
285.00000000000011
  0
LINE
  5
93
  8
0
 10
181.16499429437479
 20
91.121044340952153
 30
0.0
 11
186.43360736934389
 21
91.975447449248946
 31
0.0
  0
LINE
  5
94
  8
0
 10
186.73680913467231
 20
91.978047652126435
 30
0.0
 11
192.96538269142519
 21
91.077312797147115
 31
0.0
  0
ARC
  5
95
  8
0
 10
186.59368462897029
 20
90.988342960883841
 30
0.0
 40
1.0
 50
81.771311485822238
 51
99.211380673076107
  0
ARC
  5
96
  8
0
 10
180.84483977512201
 20
93.095253317682335
 30
0.0
 40
2.0
 50
237.79007508113119
 51
279.21138067307618
  0
ARC
  5
97
  8
0
 10
193.2516317028292
 20
93.056722179632246
 30
0.0
 40
2.0
 50
261.77131148582231
 51
291.99999999999972
  0
LINE
  5
98
  8
0
 10
268.9876973699869
 20
91.000000000000085
 30
0.0
 11
251.01230263001301
 21
91.000000000000085
 31
0.0
  0
LINE
  5
99
  8
0
 10
247.75
 20
104.0
 30
0.0
 11
251.81460408132381
 21
104.0
 31
0.0
  0
LINE
  5
9A
  8
2
 10
172.49999999999989
 20
103.0
 30
0.0
 11
172.49999999999989
 21
80.30000000000004
 31
0.0
  0
LINE
  5
9B
  8
0
 10
252.5
 20
80.30000000000004
 30
0.0
 11
252.5
 21
80.0
 31
0.0
  0
LINE
  5
9C
  8
2
 10
187.5
 20
103.0
 30
0.0
 11
187.5
 21
80.300000000000097
 31
0.0
  0
LINE
  5
9D
  8
0
 10
267.5
 20
80.300000000000097
 30
0.0
 11
267.5
 21
80.0
 31
0.0
  0
LINE
  5
9E
  8
0
 10
246.5
 20
81.299999999999997
 30
0.0
 11
273.5
 21
81.30000000000004
 31
0.0
  0
LINE
  5
9F
  8
0
 10
272.25
 20
104.0
 30
0.0
 11
271.25
 21
105.0
 31
0.0
  0
LINE
  5
A0
  8
0
 10
246.5
 20
81.300000000000026
 30
0.0
 11
247.5
 21
80.300000000000011
 31
0.0
  0
LINE
  5
A1
  8
0
 10
273.5
 20
81.30000000000004
 30
0.0
 11
272.5
 21
80.30000000000004
 31
0.0
  0
LINE
  5
A2
  8
0
 10
272.50000000000011
 20
80.300000000000153
 30
0.0
 11
247.5
 21
80.300000000000011
 31
0.0
  0
LINE
  5
A3
  8
2
 10
187.5
 20
103.0
 30
0.0
 11
172.5
 21
103.0
 31
0.0
  0
LINE
  5
A4
  8
0
 10
246.5
 20
89.731948996956149
 30
0.0
 11
246.5
 21
81.300000000000026
 31
0.0
  0
LINE
  5
A5
  8
0
 10
273.5
 20
89.731948996956163
 30
0.0
 11
273.5
 21
81.30000000000004
 31
0.0
  0
LINE
  5
A6
  8
1
 10
260.0
 20
114.0
 30
0.0
 11
260.0
 21
75.0
 31
0.0
  0
LINE
  5
A7
  8
0
 10
271.25
 20
105.0
 30
0.0
 11
267.22374279913282
 21
105.0
 31
0.0
  0
LINE
  5
A8
  8
0
 10
267.5
 20
80.0
 30
0.0
 11
252.5
 21
80.0
 31
0.0
  0
LINE
  5
A9
  8
2
 10
176.67649999999989
 20
81.200000000000017
 30
0.0
 11
175.4764999999999
 21
79.999999999999986
 31
0.0
  0
LINE
  5
AA
  8
2
 10
183.3235
 20
81.200000000000017
 30
0.0
 11
184.52350000000001
 21
79.999999999999986
 31
0.0
  0
LINE
  5
AB
  8
2
 10
183.3235
 20
81.200000000000017
 30
0.0
 11
176.67649999999989
 21
81.199999999999974
 31
0.0
  0
LINE
  5
AC
  8
2
 10
176.0
 20
95.0
 30
0.0
 11
176.67649999999989
 21
96.171732371320203
 31
0.0
  0
LINE
  5
AD
  8
2
 10
184.0
 20
95.0
 30
0.0
 11
183.32350000000011
 21
96.171732371320203
 31
0.0
  0
LINE
  5
AE
  8
2
 10
176.67649999999989
 20
97.0
 30
0.0
 11
183.32350000000011
 21
97.0
 31
0.0
  0
LINE
  5
AF
  8
2
 10
176.0
 20
95.0
 30
0.0
 11
184.0
 21
95.0
 31
0.0
  0
LINE
  5
B0
  8
2
 10
176.67649999999981
 20
97.0
 30
0.0
 11
180.0
 21
98.996960267338238
 31
0.0
  0
LINE
  5
B1
  8
2
 10
183.32350000000011
 20
97.0
 30
0.0
 11
180.0
 21
98.996960267338238
 31
0.0
  0
LINE
  5
B2
  8
2
 10
184.0
 20
80.523500000000055
 30
0.0
 11
184.0
 21
95.0
 31
0.0
  0
LINE
  5
B3
  8
2
 10
183.32350000000011
 20
81.199999999999974
 30
0.0
 11
183.32350000000011
 21
97.0
 31
0.0
  0
LINE
  5
B4
  8
2
 10
176.67649999999989
 20
81.199999999999974
 30
0.0
 11
176.67649999999989
 21
97.0
 31
0.0
  0
LINE
  5
B5
  8
2
 10
176.0
 20
80.523500000000055
 30
0.0
 11
176.0
 21
95.0
 31
0.0
  0
LINE
  5
B6
  8
0
 10
247.75
 20
104.0
 30
0.0
 11
248.75
 21
105.0
 31
0.0
  0
LINE
  5
B7
  8
0
 10
272.25
 20
104.0
 30
0.0
 11
272.25
 21
101.3308574822131
 31
0.0
  0
LINE
  5
B8
  8
0
 10
247.75
 20
104.0
 30
0.0
 11
247.75
 21
101.3308574822131
 31
0.0
  0
LINE
  5
B9
  8
0
 10
254.90000000000001
 20
106.0
 30
0.0
 11
254.90000000000001
 21
101.2724720650328
 31
0.0
  0
LINE
  5
BA
  8
0
 10
265.10000000000002
 20
106.0
 30
0.0
 11
265.10000000000002
 21
101.2724720650328
 31
0.0
  0
LINE
  5
BB
  8
0
 10
257.89999999999998
 20
98.272472065032872
 30
0.0
 11
262.10000000000002
 21
98.272472065032872
 31
0.0
  0
LINE
  5
BC
  8
0
 10
257.89999999999998
 20
109.0
 30
0.0
 11
262.10000000000002
 21
109.0
 31
0.0
  0
ARC
  5
BD
  8
0
 10
257.89999999999998
 20
106.0
 30
0.0
 40
3.0
 50
90.0
 51
179.99999999999989
  0
ARC
  5
BE
  8
0
 10
262.10000000000002
 20
106.0
 30
0.0
 40
3.0
 50
0.0000000000001527
 51
90.0
  0
ARC
  5
BF
  8
0
 10
262.10000000000002
 20
101.2724720650328
 30
0.0
 40
3.0
 50
270.0
 51
0.0
  0
ARC
  5
C0
  8
0
 10
257.89999999999998
 20
101.2724720650328
 30
0.0
 40
3.0
 50
180.0
 51
269.99999999999989
  0
LINE
  5
C1
  8
0
 10
252.77625720086709
 20
105.0
 30
0.0
 11
248.75
 21
105.0
 31
0.0
  0
LINE
  5
C2
  8
0
 10
268.18539591867602
 20
104.0
 30
0.0
 11
272.25
 21
104.0
 31
0.0
  0
LINE
  5
C3
  8
0
 10
269.57718085942099
 20
102.5527162420001
 30
0.0
 11
264.26237531933418
 21
108.0794549714611
 31
0.0
  0
LINE
  5
C4
  8
0
 10
269.87582976937489
 20
93.114191218713358
 30
0.0
 11
265.3433414122415
 21
98.931374783066289
 31
0.0
  0
LINE
  5
C5
  8
0
 10
269.23197363800892
 20
91.500000000000085
 30
0.0
 11
264.24721629613072
 21
97.897644339411073
 31
0.0
  0
LINE
  5
C6
  8
0
 10
274.6469092176921
 20
91.540881311096584
 30
0.0
 11
287.20051516424491
 21
97.461150098388131
 31
0.0
  0
ARC
  5
C7
  8
0
 10
275.5
 20
89.731948996956163
 30
0.0
 40
2.0
 50
115.24852090338059
 51
179.99999999999989
  0
LINE
  5
C8
  8
0
 10
288.92087899078319
 20
100.1745485695987
 30
0.0
 11
288.92087899078308
 21
106.9999978675194
 31
0.0
  0
ARC
  5
C9
  8
0
 10
285.92087899078319
 20
100.1745485695987
 30
0.0
 40
3.0
 50
295.24852090338061
 51
0.0
  0
LINE
  5
CA
  8
0
 10
274.1917925620811
 20
92.431873286652802
 30
0.0
 11
287.42087899078331
 21
98.670698035627353
 31
0.0
  0
LINE
  5
CB
  8
0
 10
272.08662527833758
 20
92.945967309011948
 30
0.0
 11
273.38456556654768
 21
92.411633265476624
 31
0.0
  0
ARC
  5
CC
  8
0
 10
271.70594367395819
 20
92.021261130765538
 30
0.0
 40
1.0
 50
67.624090811031678
 51
121.3754765607449
  0
ARC
  5
CD
  8
0
 10
273.76524717092718
 20
93.336339443723006
 30
0.0
 40
1.0
 50
247.6240908110322
 51
295.24852090338061
  0
ARC
  5
CE
  8
0
 10
270.66465517038102
 20
93.728808568556076
 30
0.0
 40
1.0
 50
217.9241215080751
 51
301.37547656074599
  0
ARC
  5
CF
  8
0
 10
286.92087899078319
 20
107.0
 30
0.0
 40
2.0
 50
359.9999389088722
 51
120.9469564291484
  0
LINE
  5
D0
  8
0
 10
274.51733309502879
 20
101.8947526380136
 30
0.0
 11
285.89239038734888
 21
108.71528749561909
 31
0.0
  0
LINE
  5
D1
  8
0
 10
274.51733309502879
 20
100.7287657236553
 30
0.0
 11
287.42087899078331
 21
108.4657891343528
 31
0.0
  0
ARC
  5
D2
  8
0
 10
272.46034795186671
 20
105.3253228706149
 30
0.0
 40
4.0
 50
223.88011056291981
 51
300.94708897741162
  0
ARC
  5
D3
  8
0
 10
247.53965204813329
 20
105.3253228706149
 30
0.0
 40
4.0
 50
239.05291102258849
 51
316.11988943708019
  0
LINE
  5
D4
  8
0
 10
245.48266690497121
 20
100.7287657236553
 30
0.0
 11
232.57912100921681
 21
108.4657891343528
 31
0.0
  0
LINE
  5
D5
  8
0
 10
245.48266690497121
 20
101.8947526380136
 30
0.0
 11
234.1076135807979
 21
108.71528511630061
 31
0.0
  0
ARC
  5
D6
  8
0
 10
233.07912100921681
 20
107.0
 30
0.0
 40
2.0
 50
59.052911022588447
 51
180.00006109112789
  0
ARC
  5
D7
  8
0
 10
249.33534482961889
 20
93.728808568556076
 30
0.0
 40
1.0
 50
238.62452343925409
 51
322.07587849192493
  0
ARC
  5
D8
  8
0
 10
246.2347528290727
 20
93.336339443723006
 30
0.0
 40
1.0
 50
244.75147909661951
 51
292.3759091889678
  0
ARC
  5
D9
  8
0
 10
248.29405632604181
 20
92.021261130765538
 30
0.0
 40
1.0
 50
58.6245234392551
 51
112.37590918896829
  0
LINE
  5
DA
  8
0
 10
247.91337472166231
 20
92.945967309011948
 30
0.0
 11
246.61543443345221
 21
92.411633265476624
 31
0.0
  0
LINE
  5
DB
  8
0
 10
245.80820743791881
 20
92.431873286652802
 30
0.0
 11
232.57912100921669
 21
98.670698035627311
 31
0.0
  0
ARC
  5
DC
  8
0
 10
234.07912100921669
 20
100.1745485695987
 30
0.0
 40
3.0
 50
180.0
 51
244.75147909661951
  0
LINE
  5
DD
  8
0
 10
231.07912100921681
 20
100.1745485695987
 30
0.0
 11
231.07912100921681
 21
106.9999978675194
 31
0.0
  0
ARC
  5
DE
  8
0
 10
244.49999999999989
 20
89.731948996956163
 30
0.0
 40
2.0
 50
0.0000000000000763
 51
64.751479096619363
  0
LINE
  5
DF
  8
0
 10
245.35309078230779
 20
91.540881311096584
 30
0.0
 11
232.79948483575501
 21
97.461150098388131
 31
0.0
  0
LINE
  5
E0
  8
0
 10
250.42281914057889
 20
102.5527162420001
 30
0.0
 11
255.7376246806657
 21
108.0794549714611
 31
0.0
  0
LINE
  5
E1
  8
0
 10
250.7680263619911
 20
91.500000000000085
 30
0.0
 11
255.7527837038688
 21
97.897644339410434
 31
0.0
  0
LINE
  5
E2
  8
0
 10
250.124170230625
 20
93.114191218713358
 30
0.0
 11
254.6566585877581
 21
98.931374783065877
 31
0.0
  0
LINE
  5
E3
  8
0
 10
92.499999999999986
 20
80.30000000000004
 30
0.0
 11
92.499999999999986
 21
80.0
 31
0.0
  0
LINE
  5
E4
  8
0
 10
107.4999999999999
 20
80.300000000000097
 30
0.0
 11
107.4999999999999
 21
80.0
 31
0.0
  0
LINE
  5
E5
  8
0
 10
86.499999999999986
 20
81.299999999999997
 30
0.0
 11
113.5
 21
81.30000000000004
 31
0.0
  0
LINE
  5
E6
  8
0
 10
86.499999999999957
 20
81.300000000000026
 30
0.0
 11
87.499999999999986
 21
80.300000000000011
 31
0.0
  0
LINE
  5
E7
  8
0
 10
113.5
 20
81.30000000000004
 30
0.0
 11
112.5
 21
80.30000000000004
 31
0.0
  0
LINE
  5
E8
  8
0
 10
112.5000000000001
 20
80.300000000000153
 30
0.0
 11
87.499999999999986
 21
80.300000000000011
 31
0.0
  0
LINE
  5
E9
  8
0
 10
86.499999999999957
 20
89.731948996956149
 30
0.0
 11
86.499999999999957
 21
81.300000000000026
 31
0.0
  0
LINE
  5
EA
  8
0
 10
113.5
 20
89.731948996956149
 30
0.0
 11
113.5
 21
81.30000000000004
 31
0.0
  0
LINE
  5
EB
  8
1
 10
99.999999999999986
 20
114.0
 30
0.0
 11
99.999999999999986
 21
75.0
 31
0.0
  0
LINE
  5
EC
  8
0
 10
107.4999999999999
 20
80.0
 30
0.0
 11
92.499999999999986
 21
80.0
 31
0.0
  0
LINE
  5
ED
  8
0
 10
90.411907097415167
 20
104.0
 30
0.0
 11
109.58809290258471
 21
104.0
 31
0.0
  0
LINE
  5
EE
  8
0
 10
111.5034188842962
 20
104.74658111570371
 30
0.0
 11
111.25
 21
105.0
 31
0.0
  0
LINE
  5
EF
  8
0
 10
111.25
 20
105.0
 30
0.0
 11
88.749999999999986
 21
105.0
 31
0.0
  0
LINE
  5
F0
  8
0
 10
88.496581115703677
 20
104.74658111570371
 30
0.0
 11
88.749999999999957
 21
105.0
 31
0.0
  0
LINE
  5
F1
  8
0
 10
71.079121009216806
 20
107.0
 30
0.0
 11
71.079121009216806
 21
99.857535818837789
 31
0.0
  0
LINE
  5
F2
  8
0
 10
77.584593752460421
 20
108.0
 30
0.0
 11
77.584593752460421
 21
99.272472065032858
 31
0.0
  0
LINE
  5
F3
  8
0
 10
77.208578485719556
 20
109.0
 30
0.0
 11
73.079121009216806
 21
109.0
 31
0.0
  0
ARC
  5
F4
  8
0
 10
73.079121009216806
 20
107.0
 30
0.0
 40
2.0
 50
90.0
 51
179.99999999999989
  0
LINE
  5
F5
  8
0
 10
85.353090782307788
 20
91.540881311096584
 30
0.0
 11
72.512757531332042
 21
97.596370426162267
 31
0.0
  0
ARC
  5
F6
  8
0
 10
84.499999999999972
 20
89.731948996956149
 30
0.0
 40
2.0
 50
0.0000000000000509
 51
64.751479096619263
  0
ARC
  5
F7
  8
0
 10
73.579121009216806
 20
99.857535818837789
 30
0.0
 40
2.5
 50
180.0
 51
244.75147909661919
  0
LINE
  5
F8
  8
0
 10
76.584593752460421
 20
98.272472065032872
 30
0.0
 11
72.359460033218113
 21
98.272472065032872
 31
0.0
  0
LINE
  5
F9
  8
0
 10
77.584593752460421
 20
98.272472065032872
 30
0.0
 11
96.13567776328874
 21
91.243996630266224
 31
0.0
  0
LINE
  5
FA
  8
0
 10
97.437387470243777
 20
91.204234990922245
 30
0.0
 11
99.406881046280375
 21
91.815819479492035
 31
0.0
  0
LINE
  5
FB
  8
0
 10
100.5931189537195
 20
91.815819479492035
 30
0.0
 11
102.56261252975609
 21
91.204234990922217
 31
0.0
  0
LINE
  5
FC
  8
0
 10
77.934934603773485
 20
108.8634395052605
 30
0.0
 11
99.739925149435095
 21
100.3640016419772
 31
0.0
  0
LINE
  5
FD
  8
0
 10
122.06506683016759
 20
108.8634400642011
 30
0.0
 11
100.260074850565
 21
100.3640016419772
 31
0.0
  0
LINE
  5
FE
  8
0
 10
78.584593752460421
 20
107.5369226581505
 30
0.0
 11
94.189151055568573
 21
101.454371743759
 31
0.0
  0
ARC
  5
FF
  8
0
 10
100.0
 20
116.36188778584329
 30
0.0
 40
16.0
 50
248.704499721296
 51
291.29550027870403
  0
LINE
  5
100
  8
0
 10
121.41540624753949
 20
107.5369226581505
 30
0.0
 11
105.8108489444314
 21
101.454371743759
 31
0.0
  0
ARC
  5
101
  8
0
 10
77.208578485719556
 20
107.0
 30
0.0
 40
2.0
 50
68.704499721295903
 51
90.0
  0
ARC
  5
102
  8
0
 10
122.7914215142804
 20
107.0
 30
0.0
 40
2.0
 50
90.000000000000028
 51
111.2955002787041
  0
LINE
  5
103
  8
0
 10
123.41540624753949
 20
98.272472065032872
 30
0.0
 11
127.6405399667818
 21
98.272472065032872
 31
0.0
  0
ARC
  5
104
  8
0
 10
126.42087899078309
 20
99.857535818837789
 30
0.0
 40
2.5
 50
295.24852090338078
 51
0.0
  0
ARC
  5
105
  8
0
 10
115.5
 20
89.731948996956149
 30
0.0
 40
2.0
 50
115.24852090338069
 51
180.0
  0
LINE
  5
106
  8
0
 10
114.6469092176921
 20
91.540881311096584
 30
0.0
 11
127.4872424686679
 21
97.596370426162267
 31
0.0
  0
ARC
  5
107
  8
0
 10
126.92087899078309
 20
107.0
 30
0.0
 40
2.0
 50
0.0000000000000763
 51
90.000000000000028
  0
LINE
  5
108
  8
0
 10
122.7914215142804
 20
109.0
 30
0.0
 11
126.92087899078309
 21
109.0
 31
0.0
  0
LINE
  5
109
  8
0
 10
122.41540624753949
 20
108.0
 30
0.0
 11
122.41540624753949
 21
99.272472065032858
 31
0.0
  0
LINE
  5
10A
  8
0
 10
128.92087899078311
 20
107.0
 30
0.0
 11
128.92087899078311
 21
99.857535818837789
 31
0.0
  0
LINE
  5
10B
  8
0
 10
122.41540624753949
 20
98.272472065032872
 30
0.0
 11
103.8643222367112
 21
91.243996630266196
 31
0.0
  0
ARC
  5
10C
  8
0
 10
99.999999999999986
 20
89.905790708311201
 30
0.0
 40
2.0
 50
72.74892598536556
 51
107.2510740146342
  0
ARC
  5
10D
  8
0
 10
103.15573148347571
 20
93.114263762103064
 30
0.0
 40
2.0
 50
252.7489259853657
 51
290.75026582769112
  0
ARC
  5
10E
  8
0
 10
96.844268516524181
 20
93.114263762103064
 30
0.0
 40
2.0
 50
249.24973417230891
 51
287.2510740146343
  0
LINE
  5
118
  8
0
 10
187.5
 20
80.300000000000097
 30
0.0
 11
172.49999999999989
 21
80.300000000000097
 31
0.0
  0
LINE
  5
119
  8
2
 10
256.0
 20
80.523500000000055
 30
0.0
 11
256.0
 21
95.0
 31
0.0
  0
LINE
  5
11A
  8
2
 10
256.67649999999992
 20
81.199999999999974
 30
0.0
 11
256.67649999999992
 21
97.0
 31
0.0
  0
LINE
  5
11B
  8
2
 10
263.32350000000008
 20
81.199999999999974
 30
0.0
 11
263.32350000000008
 21
97.0
 31
0.0
  0
LINE
  5
11C
  8
2
 10
264.0
 20
80.523500000000055
 30
0.0
 11
264.0
 21
95.0
 31
0.0
  0
LINE
  5
11D
  8
2
 10
263.32350000000019
 20
97.0
 30
0.0
 11
260.0
 21
98.996960267338238
 31
0.0
  0
LINE
  5
11E
  8
2
 10
256.67649999999992
 20
97.0
 30
0.0
 11
260.0
 21
98.996960267338238
 31
0.0
  0
LINE
  5
11F
  8
2
 10
256.0
 20
95.0
 30
0.0
 11
264.0
 21
95.0
 31
0.0
  0
LINE
  5
120
  8
2
 10
256.67649999999992
 20
97.0
 30
0.0
 11
263.32350000000008
 21
97.0
 31
0.0
  0
LINE
  5
121
  8
2
 10
264.0
 20
95.0
 30
0.0
 11
263.32350000000008
 21
96.171732371320203
 31
0.0
  0
LINE
  5
122
  8
2
 10
256.00000000000011
 20
95.0
 30
0.0
 11
256.67649999999998
 21
96.171732371320203
 31
0.0
  0
LINE
  5
123
  8
2
 10
263.32350000000008
 20
81.200000000000017
 30
0.0
 11
256.67649999999992
 21
81.199999999999974
 31
0.0
  0
LINE
  5
124
  8
2
 10
263.32350000000008
 20
81.200000000000017
 30
0.0
 11
264.52350000000013
 21
79.999999999999986
 31
0.0
  0
LINE
  5
125
  8
2
 10
256.67649999999998
 20
81.200000000000017
 30
0.0
 11
255.47649999999999
 21
79.999999999999986
 31
0.0
  0
LINE
  5
126
  8
2
 10
267.5
 20
103.0
 30
0.0
 11
267.5
 21
80.300000000000097
 31
0.0
  0
LINE
  5
127
  8
2
 10
267.5
 20
103.0
 30
0.0
 11
252.5
 21
103.0
 31
0.0
  0
LINE
  5
128
  8
2
 10
252.5
 20
103.0
 30
0.0
 11
252.5
 21
80.30000000000004
 31
0.0
  0
ARC
  5
129
  8
0
 10
97.899999999999991
 20
106.0
 30
0.0
 40
3.0
 50
90.0
 51
136.1198894370801
  0
LINE
  5
12A
  8
0
 10
97.899999999999991
 20
109.0
 30
0.0
 11
102.09999999999999
 21
109.0
 31
0.0
  0
LINE
  5
12B
  8
0
 10
107.22374279913279
 20
105.0
 30
0.0
 11
104.2623753193341
 21
108.0794549714611
 31
0.0
  0
ARC
  5
12C
  8
0
 10
102.09999999999999
 20
106.0
 30
0.0
 40
3.0
 50
43.880110562930618
 51
90.0
  0
LINE
  5
12D
  8
0
 10
92.776257200867164
 20
105.0
 30
0.0
 11
95.737624680665746
 21
108.0794549714611
 31
0.0
  0
TEXT
  5
276
  8
0
 62
     3
 10
0.0
 20
0.0
 30
0.0
 40
10.0
  1
TAK60NB
  7
STANDARD1
  0
ENDSEC
  0
EOF
